Oops, an error
Loading. Please wait.

March To The Shore Tab

ver1
ver1

Whole song

Interactive

More versions @911Tabs.com
4,099 views 1 this week
no commentswrite comment
1 2 3 4 5
excellent!
x 3
Autoscroll
+/-
esc
set tempo
stop
Contributor
WARNING: You are trying to view
                                    content from Ultimate-Guitar.com
                                    in an unauthorized application,
                                    which is prohibited.

                                    Please use an official Ultimate
                                    Guitar Tabs application for iPhone,
                                    iPad or Android to access legitimate
                                    chords, guitar, bass, and drum tabs
                                    from Ultimate-Guitar.com database.

                                    Type "ultimate guitar tabs" in Apple
                                    App Store's or Android Market's
                                    search to find the application.
I'm not sure the way In Flames actually plays it, but the notes are pretty
accurate.

There are two parts, one is constantly lead (top), and the other is rhythm
and harmony (bottom.)

They are connected on the left side (in between them is a line.)
-------------------------------------------------------------------------------
                          March to the Shore - In Flames
-------------------------------------------------------------------------------
Tabbed by: cleptobismal
Email: cleptobismal@hotmail.com

Tuning: Drop Bb

Bb-F-Bb-Eb-G-C

======
Intro
======

|---------------------------------------------------------------------------|
|---------------------------------------------------------------------------|
|---------------------------------------------------------------------------|
|------------------------------5h7------------------------------5h7---------|
|------5-5-5-5-----7-----8--------------5-5-5-5-----7-----8-----------------|
|--0-0---------0-0---0-0---0-0------0-0---------0-0---0-0---0-0-------------|
|
|---------------------------------------------------------------------------|
|---------------------------------------------------------------------------|
|---------------------------------------------------------------------------|
|---------------------------------------------------------------------------|
|------5-5-5-5-----3-----5-----7h8------5-5-5-5-----3-----5-----7h8---------|
|--0-0---------0-0---0-0---0-0------0-0---------0-0---0-0---0-0-------------|

|---------------------------------------------------------------------------|
|---------------------------------------------------------------------------|
|--3-------2------------------------5-------3-------------------------------|
|------------------3-3-3-3-5-5-5-5------------------5-5-5-5-7-7-7-7---------|
|----1-1-1---1-1-1--------------------3-3-3---3-3-3-------------------------|
|---------------------------------------------------------------------------|
|
|---------------------------------------------------------------------------|
|---------------------------------------------------------------------------|
|---------------------------------------------------------------------------|
|--8-------7------------------------7-------5-------------------------------|
|------------------8-8-8-8--------------------------7-7-7-7-8-8-8-8---------|
|----5-5-5---5-5-5--------------------5-5-5---5-5-5-------------------------|

|---------------------------------------------------------------------------|
|---------------------------------------------------------------------------|
|---------------------------------------------------------------------------|
|------------------------------5h7------------------------------5h7---------|
|------5-5-5-5-----7-----8--------------5-5-5-5-----7-----8-----------------|
|--0-0---------0-0---0-0---0-0------0-0---------0-0---0-0---0-0-------------|
|
|---------------------------------------------------------------------------|
|---------------------------------------------------------------------------|
|---------------------------------------------------------------------------|
|---------------------------------------------------------------------------|
|------5-5-5-5-----3-----5-----7h8------5-5-5-5-----3-----5-----7h8---------|
|--0-0---------0-0---0-0---0-0------0-0---------0-0---0-0---0-0-------------|

|---------------------------------------------------------------------------|
|---------------------------------------------------------------------------|
|--3-------2------------------------5-------3-------------------------------|
|------------------3-3-3-3-5-5-5-5------------------5-5-5-5-7-7-7-7---------|
|----1-1-1---1-1-1--------------------3-3-3---3-3-3-------------------------|
|---------------------------------------------------------------------------|
|
|---------------------------------------------------------------------------|
|---------------------------------------------------------------------------|
|---------------------------------------------------------------------------|
|--8-------7------------------------7-------5-------------------------------|
|------------------8-8-8-8--------------------------7-7-7-7-8-8-8-8---------|
|----5-5-5---5-5-5--------------------5-5-5---5-5-5-------------------------|

=====
Verse
=====

|---------------------------------------------------------------------------|
|---------------------------------------------------------------------------|
|--------9---------10-------------------------------------------------------|
|--------7----------8--------------8------------5-------8-------------------|
|--------5----------8--------------5------------3-------8-------------------|
|--0-0-0------0-0-0-8-------0-0-0--5------0-0-0-3----0--8--0-3-5-7----------|
|
|---------------------------------------------------------------------------|
|---------------------------------------------------------------------------|
|--------9---------10-----------------------------------3-------------------|
|--------7----------8--------------8------------5-------3-------------------|
|--------5----------8--------------5------------3-------1----0-1-3----------|
|--0-0-0------0-0-0-8-------0-0-0--5------0-0-0-3----0-----0----------------|

|---------------------------------------------------------------------------|
|---------------------------------------------------------------------------|
|---------------------------------------------------------------------------|
|---------------------------------------------------------------------------|
|---------------------------------------------------------------------------|
|--0-0-12-12-12-12-0-0-7-8-0-5-7-0-3-5--0-0-12-12-12-12-0-0-7-8-0-5-7-0-3-5-|
|
|---------------------------------------------------------------------------|
|---------------------------------------------------------------------------|
|---------------------------------------------------------------------------|
|---------------------------------------------------------------------------|
|---------------------------------------------------------------------------|
|--0-0-12-12-12-12-0-0-7-8-0-5-7-0-3-5--0-0-12-12-12-12-0-0-7-8-0-5-7-0-3-5-|

|---------------------------------------------------------------------------|
|---------------------------------------------------------------------------|
|--------9---------10-------------------------------------------------------|
|--------7----------8--------------8------------5-------8-------------------|
|--------5----------8--------------5------------3-------8-------------------|
|--0-0-0------0-0-0-8-------0-0-0--5------0-0-0-3----0--8--0-3-5-7----------|
|
|---------------------------------------------------------------------------|
|---------------------------------------------------------------------------|
|--------9---------10-----------------------------------3-------------------|
|--------7----------8--------------8------------5-------3-------------------|
|--------5----------8--------------5------------3-------1----0-1-3----------|
|--0-0-0------0-0-0-8-------0-0-0--5------0-0-0-3----0-----0----------------|

|---------------------------------------------------------------------------|
|---------------------------------------------------------------------------|
|---------------------------------------------------------------------------|
|---------------------------------------------------------------------------|
|---------------------------------------------------------------------------|
|--0-0-12-12-12-12-0-0-7-8-0-5-7-0-3-5--0-0-12-12-12-12-0-0-7-8-0-5-7-0-3-5-|
|
|---------------------------------------------------------------------------|
|---------------------------------------------------------------------------|
|---------------------------------------------------------------------------|
|---------------------------------------------------------------------------|
|---------------------------------------------------------------------------|
|--0-0-12-12-12-12-0-0-7-8-0-5-7-0-3-5--0-0-12-12-12-12-0-0-7-8-0-5-7-0-3-5-|

|---------------------------------------------------------------------------|
|---------------------------------------------------------------------------|
|---------------------------------------------------------------------------|
|---------------------------------------------------------------------------|
|---------------------------------------------------------------------------|
|--0-0-12-12-12-12-0-0-7-8-0-5-7-0-3-5--0-0-12-12-12-12-0-0-7-8-0-5-7-0-3-5-|
|
|---------------------------------------------------------------------------|
|---------------------------------------------------------------------------|
|---------------------------------------------------------------------------|
|---------------------------------------------------------------------------|
|---------------------------------------------------------------------------|
|--0-0-15-15-15-15-0-0-7-8-0-5-7-0-3-5--0-0-15-15-15-15-0-0-7-8-0-5-7-0-3-5-|

|---------------------------------------------------------------------------|
|---------------------------------------------------------------------------|
|---------------------------------------------------------------------------|
|--0-0-5-7-0-0-5-7-0-0-5-7-0-0-5-7------------------------------------------|
|---------------------------------------------------------------------------|
|---------------------------------------------------------------------------|
|
|---------------------------------------------------------------------------|
|---------------------------------------------------------------------------|
|---------------------------------------------------------------------------|
|---------------------------------------------------------------------------|
|---------------------------------------------------------------------------|
|---------------------------------------------------------------------------|

======
Chorus
======

|---------------------------------------------------------------------------|
|---------------------------------------------------------------------------|
|--------10---------------5-----------------5------------------5------------|
|-----7------7---------3------3---------3-------3----------5-------5--------|
|--5------------5---0------------0---1-------------1----3-------------3-----|
|---------------------------------------------------------------------------|
|
|---------------------------------------------------------------------------|
|---------------------------------------------------------------------------|
|--1414141414141414-1010101010101010-151515-141414-1010-12121212-14141414---|
|---------------------------------------------------------------------------|
|--1212121212121212--8-8-8-8-8-8-8-8-131313-121212--8-8-10101010-12121212---|
|---------------------------------------------------------------------------|

|---------------------------------------------------------------------------|
|--------------------------------------------------------------5-6-7--------|
|--------10---------------5-----------------5--------------7-7--------------|
|-----7------7---------3------3---------3-------3-------0~------------------|
|--5------------5---0------------0---1-------------1------------------------|
|---------------------------------------------------------------------------|
|
|---------------------------------------------------------------------------|
|---------------------------------------------------------------------------|
|--1414141414141414-1010101010101010--7-7-7--9-9-9-1010--9-9-9-9-9-9-9-9----|
|---------------------------------------------------------------------------|
|--1212121212121212--8-8-8-8-8-8-8-8--5-5-5--7-7-7--8-8--7-7-7-7-7-7-7-7----|
|---------------------------------------------------------------------------|

|---------------------------------------------------------------------------|
|---------------------------------------------------------------------------|
|--------10---------------5-----------------5------------------5------------|
|-----7------7---------3------3---------3-------3----------5-------5--------|
|--5------------5---0------------0---1-------------1----3-------------3-----|
|---------------------------------------------------------------------------|
|
|---------------------------------------------------------------------------|
|---------------------------------------------------------------------------|
|--1414141414141414-1010101010101010-151515-141414-1010-15151515-14141414---|
|---------------------------------------------------------------------------|
|--1212121212121212--8-8-8-8-8-8-8-8-131313-121212--8-8-10101010-12121212---|
|---------------------------------------------------------------------------|

|---------------------------------------------------------------------------|
|--------------------------------------------------------------5-6-7--------|
|--------10---------------5-----------------5--------------7-7--------------|
|-----7------7---------3------3---------3-------3-------0~------------------|
|--5------------5---0------------0---1-------------1------------------------|
|---------------------------------------------------------------------------|
|
|---------------------------------------------------------------------------|
|---------------------------------------------------------------------------|
|--1414141414141414-1010101010101010--7-7-7--9-9-9-1010--9-9-9-9-9-9-9-9----|
|---------------------------------------------------------------------------|
|--1212121212121212--8-8-8-8-8-8-8-8--5-5-5--7-7-7--8-8--7-7-7-7-7-7-7-7----|
|---------------------------------------------------------------------------|

======
Bridge
======

|---------------------------------------------------------------------------|
|---------------------------------------------------------------------------|
|---------------------------------------------------------------------------|
|------------------------------5h7------------------------------5h7---------|
|------5-5-5-5-----7-----8--------------5-5-5-5-----7-----8-----------------|
|--0-0---------0-0---0-0---0-0------0-0---------0-0---0-0---0-0-------------|
|
|---------------------------------------------------------------------------|
|---------------------------------------------------------------------------|
|---------------------------------------------------------------------------|
|---------------------------------------------------------------------------|
|------5-5-5-5-----3-----5-----7h8------5-5-5-5-----3-----5-----7h8---------|
|--0-0---------0-0---0-0---0-0------0-0---------0-0---0-0---0-0-------------|

|---------------------------------------------------------------------------|
|---------------------------------------------------------------------------|
|---------------------------------------------------------------------------|
|------------------------------5h7------------------------------------------|
|------5-5-5-5-----7-----8--------------5-5-5-5-----------------------------|
|--0-0---------0-0---0-0---0-0------0-0---------0-0-5-7-0-5-7-0-5-7---------|
|
|---------------------------------------------------------------------------|
|---------------------------------------------------------------------------|
|---------------------------------------------------------------------------|
|---------------------------------------------------------------------------|
|------5-5-5-5-----3-----5-----7h8------5-5-5-5-----------------------------|
|--0-0---------0-0---0-0---0-0------0-0---------0-0-5-7-0-5-7-0-5-7---------|

=====
Verse
=====

|---------------------------------------------------------------------------|
|---------------------------------------------------------------------------|
|--------9---------10-------------------------------------------------------|
|--------7----------8--------------8------------5-------8-------------------|
|--------5----------8--------------5------------3-------8-------------------|
|--0-0-0------0-0-0-8-------0-0-0--5------0-0-0-3----0--8--0-3-5-7----------|
|
|---------------------------------------------------------------------------|
|---------------------------------------------------------------------------|
|--------9---------10-----------------------------------3-------------------|
|--------7----------8--------------8------------5-------3-------------------|
|--------5----------8--------------5------------3-------1----0-1-3----------|
|--0-0-0------0-0-0-8-------0-0-0--5------0-0-0-3----0-----0----------------|

|---------------------------------------------------------------------------|
|---------------------------------------------------------------------------|
|---------------------------------------------------------------------------|
|---------------------------------------------------------------------------|
|---------------------------------------------------------------------------|
|--0-0-12-12-12-12-0-0-7-8-0-5-7-0-3-5--0-0-12-12-12-12-0-0-7-8-0-5-7-0-3-5-|
|
|---------------------------------------------------------------------------|
|---------------------------------------------------------------------------|
|---------------------------------------------------------------------------|
|---------------------------------------------------------------------------|
|---------------------------------------------------------------------------|
|--0-0-12-12-12-12-0-0-7-8-0-5-7-0-3-5--0-0-12-12-12-12-0-0-7-8-0-5-7-0-3-5-|

|---------------------------------------------------------------------------|
|---------------------------------------------------------------------------|
|--------9---------10-------------------------------------------------------|
|--------7----------8--------------8------------5-------8-------------------|
|--------5----------8--------------5------------3-------8-------------------|
|--0-0-0------0-0-0-8-------0-0-0--5------0-0-0-3----0--8--0-3-5-7----------|
|
|---------------------------------------------------------------------------|
|---------------------------------------------------------------------------|
|--------9---------10-----------------------------------3-------------------|
|--------7----------8--------------8------------5-------3-------------------|
|--------5----------8--------------5------------3-------1----0-1-3----------|
|--0-0-0------0-0-0-8-------0-0-0--5------0-0-0-3----0-----0----------------|

|---------------------------------------------------------------------------|
|---------------------------------------------------------------------------|
|---------------------------------------------------------------------------|
|---------------------------------------------------------------------------|
|---------------------------------------------------------------------------|
|--0-0-12-12-12-12-0-0-7-8-0-5-7-0-3-5--0-0-12-12-12-12-0-0-7-8-0-5-7-0-3-5-|
|
|---------------------------------------------------------------------------|
|---------------------------------------------------------------------------|
|---------------------------------------------------------------------------|
|---------------------------------------------------------------------------|
|---------------------------------------------------------------------------|
|--0-0-12-12-12-12-0-0-7-8-0-5-7-0-3-5--0-0-12-12-12-12-0-0-7-8-0-5-7-0-3-5-|

|---------------------------------------------------------------------------|
|---------------------------------------------------------------------------|
|---------------------------------------------------------------------------|
|---------------------------------------------------------------------------|
|---------------------------------------------------------------------------|
|--0-0-12-12-12-12-0-0-7-8-0-5-7-0-3-5--0-0-12-12-12-12-0-0-7-8-0-5-7-0-3-5-|
|
|---------------------------------------------------------------------------|
|---------------------------------------------------------------------------|
|---------------------------------------------------------------------------|
|---------------------------------------------------------------------------|
|---------------------------------------------------------------------------|
|--0-0-15-15-15-15-0-0-7-8-0-5-7-0-3-5--0-0-15-15-15-15-0-0-7-8-0-5-7-0-3-5-|

|---------------------------------------------------------------------------|
|---------------------------------------------------------------------------|
|---------------------------------------------------------------------------|
|--0-0-5-7-0-0-5-7-0-0-5-7-0-0-5-7------------------------------------------|
|---------------------------------------------------------------------------|
|---------------------------------------------------------------------------|
|
|---------------------------------------------------------------------------|
|---------------------------------------------------------------------------|
|---------------------------------------------------------------------------|
|---------------------------------------------------------------------------|
|---------------------------------------------------------------------------|
|---------------------------------------------------------------------------|

======
Chorus
======

|---------------------------------------------------------------------------|
|---------------------------------------------------------------------------|
|--------10---------------5-----------------5------------------5------------|
|-----7------7---------3------3---------3-------3----------5-------5--------|
|--5------------5---0------------0---1-------------1----3-------------3-----|
|---------------------------------------------------------------------------|
|
|---------------------------------------------------------------------------|
|---------------------------------------------------------------------------|
|--1414141414141414-1010101010101010-151515-141414-1010-12121212-14141414---|
|---------------------------------------------------------------------------|
|--1212121212121212--8-8-8-8-8-8-8-8-131313-121212--8-8-10101010-12121212---|
|---------------------------------------------------------------------------|

|---------------------------------------------------------------------------|
|--------------------------------------------------------------5-6-7--------|
|--------10---------------5-----------------5--------------7-7--------------|
|-----7------7---------3------3---------3-------3-------0~------------------|
|--5------------5---0------------0---1-------------1------------------------|
|---------------------------------------------------------------------------|
|
|---------------------------------------------------------------------------|
|---------------------------------------------------------------------------|
|--1414141414141414-1010101010101010--7-7-7--9-9-9-1010--9-9-9-9-9-9-9-9----|
|---------------------------------------------------------------------------|
|--1212121212121212--8-8-8-8-8-8-8-8--5-5-5--7-7-7--8-8--7-7-7-7-7-7-7-7----|
|---------------------------------------------------------------------------|

|---------------------------------------------------------------------------|
|---------------------------------------------------------------------------|
|--------10---------------5-----------------5------------------5------------|
|-----7------7---------3------3---------3-------3----------5-------5--------|
|--5------------5---0------------0---1-------------1----3-------------3-----|
|---------------------------------------------------------------------------|
|
|---------------------------------------------------------------------------|
|---------------------------------------------------------------------------|
|--1414141414141414-1010101010101010-151515-141414-1010-15151515-14141414---|
|---------------------------------------------------------------------------|
|--1212121212121212--8-8-8-8-8-8-8-8-131313-121212--8-8-13131313-12121212---|
|---------------------------------------------------------------------------|

|---------------------------------------------------------------------------|
|--------------------------------------------------------------5-6-7--------|
|--------10---------------5-----------------5--------------7-7--------------|
|-----7------7---------3------3---------3-------3-------0~------------------|
|--5------------5---0------------0---1-------------1------------------------|
|---------------------------------------------------------------------------|
|
|---------------------------------------------------------------------------|
|---------------------------------------------------------------------------|
|--1414141414141414-1010101010101010--7-7-7--9-9-9-1010--9-9-9-9-9-9-9-9----|
|---------------------------------------------------------------------------|
|--1212121212121212--8-8-8-8-8-8-8-8--5-5-5--7-7-7--8-8--7-7-7-7-7-7-7-7----|
|---------------------------------------------------------------------------|

======
Bridge
======

|---------------------------------------------------------------------------|
|---------------------------------------------------------------------------|
|---------------------------------------------------------------------------|
|------------------------------5h7------------------------------5h7---------|
|------5-5-5-5-----7-----8--------------5-5-5-5-----7-----8-----------------|
|--0-0---------0-0---0-0---0-0------0-0---------0-0---0-0---0-0-------------|
|
|---------------------------------------------------------------------------|
|---------------------------------------------------------------------------|
|---------------------------------------------------------------------------|
|---------------------------------------------------------------------------|
|------5-5-5-5-----3-----5-----7h8------5-5-5-5-----3-----5-----7h8---------|
|--0-0---------0-0---0-0---0-0------0-0---------0-0---0-0---0-0-------------|

|---------------------------------------------------------------------------|
|---------------------------------------------------------------------------|
|---------------------------------------------------------------------------|
|------------------------------5h7------------------------------5h7---------|
|------5-5-5-5-----7-----8--------------5-5-5-5-----7-----8-----------------|
|--0-0---------0-0---0-0---0-0------0-0---------0-0---0-0---0-0-------------|
|
|---------------------------------------------------------------------------|
|---------------------------------------------------------------------------|
|---------------------------------------------------------------------------|
|---------------------------------------------------------------------------|
|------5-5-5-5-----3-----5-----7h8------5-5-5-5-----3-----5-----7h8---------|
|--0-0---------0-0---0-0---0-0------0-0---------0-0---0-0---0-0-------------|

=====
Solo
=====

|---------------------------------------------------------------------------|
|--/17-16-17-17~------------------------------------------------------------|
|------------------------16-14-16-17-16-14----------------------------------|
|------------------------------------------17-16-14-----------/14~----------|
|---------------------------------------------------17-16-15~---------------|
|---------------------------------------------------------------------------|
|
|---------------------------------------------------------------------------|
|---------------------------------------------------------------------------|
|--------11----12-----------------6-----7---------------7-------------------|
|----9-------------9~----------4-----------4~-----5--------5~---------------|
|--7---7----7---------------2--------2---------3-----3----------------------|
|---------------------------------------------------------------------------|

|---------------------------------------------------------------------------|
|---------------------------------17-------17-19b20~------------------------|
|-----17-16h17p16p14-16-----19b21----19b21----------------------------------|
|--17-------------------17~-------------------------------------------------|
|---------------------------------------------------------------------------|
|---------------------------------------------------------------------------|
|
|---------------------------------------------------------------------------|
|---------------------------------------------------------------------------|
|--------7-----7~------------------11-----12--------------------------------|
|------5-----5---------------9----------------9~----------------------------|
|----5-----5--------------7-----7------7------------------------------------|
|--5------------------------------------------------------------------------|

|---------------------------------------------------------------------------|
|---------------------------------------15-------15-17----15-17-15-17-19-20-|
|--/16-14-16-17-16-14----------14-16-17----16-17-------17-------------------|
|---------------------17-16-17----------------------------------------------|
|---------------------------------------------------------------------------|
|---------------------------------------------------------------------------|
|
|---------------------------------------------------------------------------|
|---------------------------------------------------------------------------|
|--------6-----7----------------------------------------7-------------------|
|-----4-----------4~---------------------------5-------------5~-------------|
|--2--------2-----------------------------3--------3------------------------|
|---------------------------------------------------------------------------|

|---------------------------------------------------------------------------|
|--20b22-20-19-20-20b22~--20-0-0-0-19-0-0-0-17-0-0-0-15b17~-----------------|
|---------------------------------------------------------------------------|
|---------------------------------------------------------------------------|
|---------------------------------------------------------------------------|
|---------------------------------------------------------------------------|
|
|---------------------------------------------------------------------------|
|---------------------------------------------------------------------------|
|------------7--------7~----------------------------------------------------|
|---------5--------5--------------------------------------------------------|
|------5--------5-----------------------------------------------------------|
|---5-----------------------------------------------------------------------|

=====
Verse
=====

|---------------------------------------------------------------------------|
|---------------------------------------------------------------------------|
|--------9---------10-------------------------------------------------------|
|--------7----------8--------------8------------5-------8-------------------|
|--------5----------8--------------5------------3-------8-------------------|
|--0-0-0------0-0-0-8-------0-0-0--5------0-0-0-3----0--8-------------------|
|
|---------------------------------------------------------------------------|
|---------------------------------------------------------------------------|
|--------9---------10-----------------------------------3-------------------|
|--------7----------8--------------8------------5-------3-------------------|
|--------5----------8--------------5------------3-------1-------------------|
|--0-0-0------0-0-0-8-------0-0-0--5------0-0-0-3----0----------------------|

|---------------------------------------------------------------------------|
|---------------------------------------------------------------------------|
|---------------------------------------------------------------------------|
|--0-0-5-7-0-0-5-7-0-0-5-7-0-0-5-7------------------------------------------|
|---------------------------------------------------------------------------|
|---------------------------------------------------------------------------|
|
|---------------------------------------------------------------------------|
|---------------------------------------------------------------------------|
|---------------------------------------------------------------------------|
|---------------------------------------------------------------------------|
|---------------------------------------------------------------------------|
|---------------------------------------------------------------------------|

======
Chorus
======

|---------------------------------------------------------------------------|
|---------------------------------------------------------------------------|
|--------10---------------5-----------------5------------------5------------|
|-----7------7---------3------3---------3-------3----------5-------5--------|
|--5------------5---0------------0---1-------------1----3-------------3-----|
|---------------------------------------------------------------------------|
|
|---------------------------------------------------------------------------|
|---------------------------------------------------------------------------|
|--1414141414141414-1010101010101010-151515-141414-1010-12121212-14141414---|
|---------------------------------------------------------------------------|
|--1212121212121212--8-8-8-8-8-8-8-8-131313-121212--8-8-10101010-12121212---|
|---------------------------------------------------------------------------|

|---------------------------------------------------------------------------|
|--------------------------------------------------------------5-6-7--------|
|--------10---------------5-----------------5--------------7-7--------------|
|-----7------7---------3------3---------3-------3-------0~------------------|
|--5------------5---0------------0---1-------------1------------------------|
|---------------------------------------------------------------------------|
|
|---------------------------------------------------------------------------|
|---------------------------------------------------------------------------|
|--1414141414141414-1010101010101010--7-7-7--9-9-9-1010--9-9-9-9-9-9-9-9----|
|---------------------------------------------------------------------------|
|--1212121212121212--8-8-8-8-8-8-8-8--5-5-5--7-7-7--8-8--7-7-7-7-7-7-7-7----|
|---------------------------------------------------------------------------|

|---------------------------------------------------------------------------|
|---------------------------------------------------------------------------|
|--------10---------------5-----------------5------------------5------------|
|-----7------7---------3------3---------3-------3----------5-------5--------|
|--5------------5---0------------0---1-------------1----3-------------3-----|
|---------------------------------------------------------------------------|
|
|---------------------------------------------------------------------------|
|---------------------------------------------------------------------------|
|--1414141414141414-1010101010101010-151515-141414-1010-15151515-14141414---|
|---------------------------------------------------------------------------|
|--1212121212121212--8-8-8-8-8-8-8-8-131313-121212--8-8-10101010-12121212---|
|---------------------------------------------------------------------------|

|---------------------------------------------------------------------------|
|--------------------------------------------------------------5-6-7--------|
|--------10---------------5-----------------5--------------7-7--------------|
|-----7------7---------3------3---------3-------3-------0~------------------|
|--5------------5---0------------0---1-------------1------------------------|
|---------------------------------------------------------------------------|
|
|---------------------------------------------------------------------------|
|---------------------------------------------------------------------------|
|--1414141414141414-1010101010101010--7-7-7--9-9-9-1010--9-9-9-9-9-9-9-9----|
|---------------------------------------------------------------------------|
|--1212121212121212--8-8-8-8-8-8-8-8--5-5-5--7-7-7--8-8--7-7-7-7-7-7-7-7----|
|---------------------------------------------------------------------------|

|---------------------------------------------------------------------------|
|---------------------------------------------------------------------------|
|--------10---------------5-----------------5------------------5------------|
|-----7------7---------3------3---------3-------3----------5-------5--------|
|--5------------5---0------------0---1-------------1----3-------------3-----|
|---------------------------------------------------------------------------|
|
|---------------------------------------------------------------------------|
|---------------------------------------------------------------------------|
|--1414141414141414-1010101010101010-151515-141414-1010-12121212-14141414---|
|---------------------------------------------------------------------------|
|--1212121212121212--8-8-8-8-8-8-8-8-131313-121212--8-8-10101010-12121212---|
|---------------------------------------------------------------------------|

|---------------------------------------------------------------------------|
|--------------------------------------------------------------5-6-7--------|
|--------10---------------5-----------------5--------------7-7--------------|
|-----7------7---------3------3---------3-------3-------0~------------------|
|--5------------5---0------------0---1-------------1------------------------|
|---------------------------------------------------------------------------|
|
|---------------------------------------------------------------------------|
|---------------------------------------------------------------------------|
|--1414141414141414-1010101010101010--7-7-7--9-9-9-1010--9-9-9-9-9-9-9-9----|
|---------------------------------------------------------------------------|
|--1212121212121212--8-8-8-8-8-8-8-8--5-5-5--7-7-7--8-8--7-7-7-7-7-7-7-7----|
|---------------------------------------------------------------------------|

|---------------------------------------------------------------------------|
|---------------------------------------------------------------------------|
|--------10---------------5-----------------5------------------5------------|
|-----7------7---------3------3---------3-------3----------5-------5--------|
|--5------------5---0------------0---1-------------1----3-------------3-----|
|---------------------------------------------------------------------------|
|
|---------------------------------------------------------------------------|
|---------------------------------------------------------------------------|
|--1414141414141414-1010101010101010-151515-141414-1010-15151515-14141414---|
|---------------------------------------------------------------------------|
|--1212121212121212--8-8-8-8-8-8-8-8-131313-121212--8-8-10101010-12121212---|
|---------------------------------------------------------------------------|

|---------------------------------------------------------------------------|
|--------------------------------------------------------------5-6-7--------|
|--------10---------------5-----------------5--------------7-7--------------|
|-----7------7---------3------3---------3-------3-------0~------------------|
|--5------------5---0------------0---1-------------1------------------------|
|---------------------------------------------------------------------------|
|
|---------------------------------------------------------------------------|
|---------------------------------------------------------------------------|
|--1414141414141414-1010101010101010--7-7-7--9-9-9-1010--9-9-9-9-9-9-9-9----|
|---------------------------------------------------------------------------|
|--1212121212121212--8-8-8-8-8-8-8-8--5-5-5--7-7-7--8-8--7-7-7-7-7-7-7-7----|
|---------------------------------------------------------------------------|

=====
Outro
=====

|---------------------------------------------------------------------------|
|---------------------------------------------------------------------------|
|---------------------------------------------------------------------------|
|------------------------------5h7------------------------------5h7---------|
|------5-5-5-5-----7-----8--------------5-5-5-5-----7-----8-----------------|
|--0-0---------0-0---0-0---0-0------0-0---------0-0---0-0---0-0-------------|
|
|---------------------------------------------------------------------------|
|---------------------------------------------------------------------------|
|---------------------------------------------------------------------------|
|---------------------------------------------------------------------------|
|------5-5-5-5-----3-----5-----7h8------5-5-5-5-----3-----5-----7h8---------|
|--0-0---------0-0---0-0---0-0------0-0---------0-0---0-0---0-0-------------|

|---------------------------------------------------------------------------|
|---------------------------------------------------------------------------|
|---------------------------------------------------------------------------|
|------------------------------5h7------------------------------------------|
|------5-5-5-5-----7-----8--------------5-5-5-5-0-0-7-8-0-7-8-0-7-8---------|
|--0-0---------0-0---0-0---0-0------0-0-------------------------------------|
|
|---------------------------------------------------------------------------|
|---------------------------------------------------------------------------|
|---------------------------------------------------------------------------|
|---------------------------------------------------------------------------|
|------5-5-5-5-----3-----5-----7h8------5-5-5-5-0-0-3-5-0-3-5-0-3-5---------|
|--0-0---------0-0---0-0---0-0------0-0-------------------------------------|

|---------------------------------------------------------------------------|
|---------------------------------------------------------------------------|
|---------------------------------------------------------------------------|
|------------------------------5h7------------------------------------0~----|
|------5-5-5-5-----7-----8--------------5-5-5-5-0-0-7-8-0-7-8-0-7-8---0~----|
|--0-0---------0-0---0-0---0-0------0-0-------------------------------0~----|
|
|---------------------------------------------------------------------------|
|---------------------------------------------------------------------------|
|---------------------------------------------------------------------------|
|---------------------------------------------------------------------0~----|
|------5-5-5-5-----3-----5-----7h8------5-5-5-5-0-0-3-5-0-3-5-0-3-5---0~----|
|--0-0---------0-0---0-0---0-0------0-0-------------------------------0~----|

| b  bend
| r  release
| /  slide up
| \  slide down
| h  hammer-on
| p  pull-off
| ~  vibrato
| +  harmonic
| x  Mute note
===============================================================================
comments
We did not receive enough feedback on this tab! Please rate:
print report bad tab
1 2 3 4 5
I want to post or [tab]
guest
You may want to rate the tab now too:
select rating
Please do not post tabs as comments. Select "correction" instead!