Oops, an error
Loading. Please wait.

Moonshield Tab

ver3
ver3

Whole song

More versions @911Tabs.com
22,695 views 63 this week
6 commentsread comments
1 2 3 4 5
accurate
x 11
Autoscroll
+/-
esc
set tempo
stop
Contributor
Difficulty
intermediate
WARNING: You are trying to view
                                    content from Ultimate-Guitar.com
                                    in an unauthorized application,
                                    which is prohibited.

                                    Please use an official Ultimate
                                    Guitar Tabs application for iPhone,
                                    iPad or Android to access legitimate
                                    chords, guitar, bass, and drum tabs
                                    from Ultimate-Guitar.com database.

                                    Type "ultimate guitar tabs" in Apple
                                    App Store's or Android Market's
                                    search to find the application.
In Flames - Moonshield

Standard tuning
Tempo: between 168 and 176
Timing: 6/8

| = mute strings/silence the guitar
~ = vibrato
b = bend
r = return
h = hammer on
p = pull off
X = pick through muted strings to get a percussive sound
(x) = string is bent to pitch of fret x
####  = delineates which multiple guitar parts go together
-==<  = volume swell
>==-  = reverse volume swell

First off i just want to say that NONE of the tabs i've seen online for this song are 
and this one

isn't going to be either. This song is played in Eb, not standard tuning. (Check time 
4:06 to 4:08) But

since all the other tabs claim it's in standard tuning, this is the way i learned it. In 
is one of my

favorite bands, and this is one of their best songs. This tab won't be perfect, but i'll 
my best to do

the song justice.

################################################################################################
0:00 - 0:08

Guitar 1
e-----------------------------------------------------------------------------------------------|
B-----------------------------------------------------------------------------------------------|
G-1---1---1---1---3---1---0---0---0---------------1---1---1---1---3---1---0---0---0-------------|
D---3---3---3---3---3---3---1---1---1-1---3---5-----3---3---3---3---3---3---1---1---1-1---3---5-|
A-----------------------------------------------------------------------------------------------|
E-----------------------------------------------------------------------------------------------|
  1   2   3   4   5   6   1   2   3   4   5   6   1   2   3   4   5   6   1   2   3   4   5   6


These notes aren't always repeated exactly as they're tabbed, but i'm pretty sure he sticks to these two

variations
          \______________________________________________________________________
                                 _\_                                            _\_
Guitar 2                        /   \                                          /   \
e------------------------------------------------------------------------------------------------|
B---------------------------------------------------------------------------------4--------------|
G------------------------------------------------------------------------------------------------|
D-----------------------------------5-----8-----------------------------------------------8------|
A-----------3-----------3-3-----6-6-----------8-------------3-----------3-3-----6-------------8--|
E-1-----4-4---1-----4-4---------------6-----------1-----4-4---1-----4-4---------------6----------|
  1   2   3   4   5   6   1   2   3   4   5   6   1   2   3   4   5   6   1   2   3   4   5   6

                                      \_______/
For these three notes you could try using this instead:e------------|
                                                       B---4--- <=--|
                                                       G-----3- <=--|
                                                       D-1----------|
                                                       A------------|
                                                       E------------|
i'm not positive about this Guitar 2 part, but this does make sense because these two notes are the same

pitch as the open e and B strings of a guitar tuned to Eb.

For the first 2/3 of the intro, there's an alternating synthy kind of tone... you could 
it with the

right effect and some controlled volume swells. If you want to try it, here're the notes:

Synth:
  -===<                  |-===<                  |-===<                  |-===<
e-----------------------------------------------------------------------------------------------|
B-----------------------------------------------------------------------------------------------|
G-----------------------------------------------------------------------------------------------|
D-----------------------------------------------------------------------------------------------|
A-------------------------3-----------------------------------------------3---------------------|
E-1-----------------------------------------------1---------------------------------------------|
  1   2   3   4   5   6   1   2   3   4   5   6   1   2   3   4   5   6   1   2   3   4   5   6

Just one more thing to note before i continue to the next section. Look at the end of 
second measure and

beginning of the third measure. If you had two guitars play exactly what i tabbed you'd notice that both

guitars pause briefly in between those beats, when in fact you hear steady, continuous 
at the same

point in the studio recording. i can't be sure, but it may be that Guitar 2 in the intro 
actually playing

something closer to Guitar 1's part at time index 0:48 - 0:57. i was going to add that 
the end of the tab,

but i've run out of patience.

################################################################################################
0:08 - 0:16

Guitar 1
e-----------------------------------------------------------------------------------------------|
B-----------------------------------------------------------------------------------------------|
G-1---1---1---1---3---1---0---0---0---------------1---1---1---1---3---1---0---0---0-------------|
D---3---3---3---3---3---3---1---1---1-1---3---5-----3---3---3---3---3---3---1---1---1-1---3---5-|
A-----------------------------------------------------------------------------------------------|
E-----------------------------------------------------------------------------------------------|
  1   2   3   4   5   6   1   2   3   4   5   6   1   2   3   4   5   6   1   2   3   4   5   6

Guitar 2
e------------------------------------------------------------------------------------------------|
B---------------------------------------------------------------------------------4--------------|
G------------------------------------------------------------------------------------------------|
D-----------------------------------5-----8-----------------------------------------------8------|
A-----------3-----------3-3-----6-6-----------8-------------3-----------3-3-----6-------------8--|
E-1-----4-4---1-----4-4---------------6-----------1-----4-4---1-----4-4---------------6----------|
  1   2   3   4   5   6   1   2   3   4   5   6   1   2   3   4   5   6   1   2   3   4   5   6

Synth:
  -===<                  |-===<                  |-===<                  |-===<
e-----------------------------------------------------------------------------------------------|
B-----------------------------------------------------------------------------------------------|
G-----------------------------------------------------------------------------------------------|
D-----------------------------------------------------------------------------------------------|
A-------------------------3-----------------------------------------------3---------------------|
E-1-----------------------------------------------1---------------------------------------------|
  1   2   3   4   5   6   1   2   3   4   5   6   1   2   3   4   5   6   1   2   3   4   5   6

################################################################################################
0:16 - 0:24

Guitar 1
e-----------------------------------------------------------------------------------------------|
B-----------------------------------------------------------------------------------------------|
G-1---1---1---1---3---1---0---0---0---------------1---1---1---1---3---1---0---0---0-------------|
D---3---3---3---3---3---3---1---1---1-1---3---5-----3---3---3---3---3---3---1---1---1-1---3---5-|
A-----------------------------------------------------------------------------------------------|
E-----------------------------------------------------------------------------------------------|
  1   2   3   4   5   6   1   2   3   4   5   6   1   2   3   4   5   6   1   2   3   4   5   6

Guitar 2
e------------------------------------------------------------------------------------------------|
B---------------------------------------------------------------------------------4--------------|
G------------------------------------------------------------------------------------------------|
D-----------------------------------5-----8-----------------------------------------------8------|
A-----------3-----------3-3-----6-6----------8-------------3-----------3-3-----6-------------8---|
E-1-----4-4---1-----4-4---------------6-----------1-----4-4---1-----4-4---------------6----------|
  1   2   3   4   5   6   1   2   3   4   5   6   1   2   3   4   5   6   1   2   3   4   5   6


Guitar 3
e------------------------------------------------------------------------------------------------|
B------------------------------------------------------------------------------------------------|
G-5---5---5---5---6---5---3---3---3---0---1---3---5---5---5---5---6---5---3---3---3---0---1---3--|
D------------------------------------------------------------------------------------------------|
A------------------------------------------------------------------------------------------------|
E------------------------------------------------------------------------------------------------|
  1   2   3   4   5   6   1   2   3   4   5   6   1   2   3   4   5   6   1   2   3   4   5   6

Synth:
  -===<                  |-===<                  |-===<                  |-===<
e-----------------------------------------------------------------------------------------------|
B-----------------------------------------------------------------------------------------------|
G-----------------------------------------------------------------------------------------------|
D-------------------------1-----------------------------------------------1---------------------|
A-----------------------------------------------------------------------------------------------|
E-1-----------------------------------------------1---------------------------------------------|
  1   2   3   4   5   6   1   2   3   4   5   6   1   2   3   4   5   6   1   2   3   4   5   6

################################################################################################
0:24 - 0:32

Guitar 1
e-----------------------------------------------------------------------------------------------|
B-----------------------------------------------------------------------------------------------|
G-1---1---1---1---3---1---0---0---0---------------1---1---1---1---3---1---0---0---0-------------|
D---3---3---3---3---3---3---1---1---1-1---3---5-----3---3---3---3---3---3---1---1---1-1---3---5-|
A-----------------------------------------------------------------------------------------------|
E-----------------------------------------------------------------------------------------------|
  1   2   3   4   5   6   1   2   3   4   5   6   1   2   3   4   5   6   1   2   3   4   5   6

Guitar 2
e------------------------------------------------------------------------------------------------|
B---------------------------------------------------------------------------------4--------------|
G------------------------------------------------------------------------------------------------|
D-----------------------------------5-----8-----------------------------------------------8------|
A-----------3-----------3-3-----6-6----------8-------------3-----------3-3-----6-------------8---|
E-1-----4-4---1-----4-4---------------6-----------1-----4-4---1-----4-4---------------6----------|
  1   2   3   4   5   6   1   2   3   4   5   6   1   2   3   4   5   6   1   2   3   4   5   6


Guitar 3
e------------------------------------------------------------------------------------------------|
B------------------------------------------------------------------------------------------------|
G-5---5---5---5---6---5---3---3---3---0---1---3---5---5---5---5---6---5---3---3---3---0---1---3--|
D------------------------------------------------------------------------------------------------|
A------------------------------------------------------------------------------------------------|
E------------------------------------------------------------------------------------------------|
  1   2   3   4   5   6   1   2   3   4   5   6   1   2   3   4   5   6   1   2   3   4   5   6

Synth:
  -===<                  |-===<                  |-===<                  |-===<
e-----------------------------------------------------------------------------------------------|
B-----------------------------------------------------------------------------------------------|
G-----------------------------------------------------------------------------------------------|
D-------------------------1-----------------------------------------------1---------------------|
A-----------------------------------------------------------------------------------------------|
E-1-----------------------------------------------1---------------------------------------------|
  1   2   3   4   5   6   1   2   3   4   5   6   1   2   3   4   5   6   1   2   3   4   5   6

################################################################################################
0:32 - 0:40

i'm not positive about this (guitars 2 & 3) part from here until the electrics kick 
the bass confuses

me.

Guitar 1
e-------------------------------------------------------------------------------------------------|
B-------------------------------------------------------------------------4-----------------------|
Gh1-----0---------------------------------------0-1-----0-------------------3-1-0---------------0-|
D---------3-1-------1---------1---3---1~~---3-3-----------3-1-------1-------------3-1-1h3-3~~-3---|
A-------------3-------3--/4-----------------------------------3-------3---------------------------|
E-------------------------------------------------------------------------------------------------|
  1   2   3   4   5   6   1   2   3   4   5   6   1   2   3   4   5   6   1   2   3   4   5   6

Guitar 2
e-----------------------------------------------------------------------------------------------|
B-----------------------------------------------------------------------------------------------|
G-------------5-----------------------5-----------------------5-----------3---------------------|
D-6-----------3-----------6-----------3-----------6-----------3-----------1-----------3---------|
A-4-----------------------4-----------------------4-----------------------------------1---------|
E-----------------------------------------------------------------------------------------------|
  1   2   3   4   5   6   1   2   3   4   5   6   1   2   3   4   5   6   1   2   3   4   5   6

Guitar 3
e-----------------------------------------------------------------------------------------------|
B-----------------------------------------------------------------------------------------------|
G-------------------------------------------------------------------------3---------------------|
D-6-----------------------6-----------------------6-----------------------1-----------3---------|
A-4-----------3-----------4-----------3-----------4-----------3-----------------------1---------|
E-------------1-----------------------1-----------------------1---------------------------------|
  1   2   3   4   5   6   1   2   3   4   5   6   1   2   3   4   5   6   1   2   3   4   5   6

#################################################################################################
0:40 - 0:48

Guitar 1
e-------------------------------------------------------------------------------------------------|
B-------------------------------------------------------------------------4-----------------------|
Gh1-----0---------------------------------------0-1-----0-------------------3-1-0-----------------|
D---------3-1-------1---------1---3---1~~---3-3-----------3-1-------1-------------3-1-1h3-3~~-----|
A-------------3-------3--/4-----------------------------------3-------3---------------------------|
E-------------------------------------------------------------------------------------------------|
  1   2   3   4   5   6   1   2   3   4   5   6   1   2   3   4   5   6   1   2   3   4   5   6

Guitar 2
e-----------------------------------------------------------------------------------------------|
B-----------------------------------------------------------------------------------------------|
G-------------5-----------------------5-----------------------5-----------3---------------------|
D-6-----------3-----------6-----------3-----------6-----------3-----------1-----------3---------|
A-4-----------------------4-----------------------4-----------------------------------1---------|
E-----------------------------------------------------------------------------------------------|
  1   2   3   4   5   6   1   2   3   4   5   6   1   2   3   4   5   6   1   2   3   4   5   6

Guitar 3
e-----------------------------------------------------------------------------------------------|
B-----------------------------------------------------------------------------------------------|
G-------------------------------------------------------------------------3---------------------|
D-6-----------------------6-----------------------6-----------------------1-----------3---------|
A-4-----------3-----------4-----------3-----------4-----------3-----------------------1---------|
E-------------1-----------------------1-----------------------1---------------------------------|
  1   2   3   4   5   6   1   2   3   4   5   6   1   2   3   4   5   6   1   2   3   4   5   6

#################################################################################################
0:48 - 0:57

Again, these notes won't always be repeated exactly the way they're tabbed, but he plays 
very close

to one of these two variations each time.
     \
      \______________________________________________________________________________
                           __________\_________                            __________\_________
Guitar 1                  /                    \                          /                    \
e------------------------------------------------------------------------------------------------|
B------------------------------------------------------------------------------------------------|
G-------------------------------5---------10--------------------------------------------------10-|
D-----------------------------5-----5---10----10------------------------------5-----------10-----|
A-3---3-3-3-3-3---3-3-3-3-3-----------8-----------3---3-3-3-3-3---3-3-3-3-3-------3---8----------|
E-1---1-4-4-1-1---1-4-4-1-------------------------1---1-4-4-1-1---1-4-4-1------------------------|
  1   2   3   4   5   6   1   2   3   4   5   6   1   2   3   4   5   6   1   2   3   4   5   6
\
 This could easily be at least two guitars, but i can't tell for sure.
#################################################################################################
0:57 - 1:05

Guitar 1
e------------------------------------------------------------------------------------------------|
B------------------------------------------------------------------------------------------------|
G-------------------------------5---------10--------------------------------------------------10-|
D-----------------------------5-----5---10----10------------------------------5-----------10-----|
A-3---3-3-3-3-3---3-3-3-3-3-----------8-----------3---3-3-3-3-3---3-3-3-3-3-------3---8----------|
E-1---1-4-4-1-1---1-4-4-1-------------------------1---1-4-4-1-1---1-4-4-1------------------------|
  1   2   3   4   5   6   1   2   3   4   5   6   1   2   3   4   5   6   1   2   3   4   5   6

Guitar 2
e-------------------------------------------------------------------------------------------------|
B-----------------------------------------------------------------------------------------4-------|
G-------------------------0---0-------1-0---------------------------------0---0-------0h1---3-1-0-|
D-3---3-------3---3-----------------------3-1---1-3---3-------3---3-------------------------------|
A-------3-1-3-------3-1-3-------3-1-3---------3---------3-1-3-------3-1-3-------3-1-3-------------|
E-------------------------------------------------------------------------------------------------|
  1   2   3   4   5   6   1   2   3   4   5   6   1   2   3   4   5   6   1   2   3   4   5   6

#################################################################################################
1:05 - 1:12

Guitar 1
e------------------------------------------------------------------------------------------------|
B------------------------------------------------------------------------------------------------|
G-------------------------------5---------10--------------------------------------------------10-|
D-----------------------------5-----5---10----10------------------------------5-----------10-----|
A-3---3-3-3-3-3---3-3-3-3-3-----------8-----------3---3-3-3-3-3---3-3-3-3-3-------3---8----------|
E-1---1-4-4-1-1---1-4-4-1-------------------------1---1-4-4-1-1---1-4-4-1------------------------|
  1   2   3   4   5   6   1   2   3   4   5   6   1   2   3   4   5   6   1   2   3   4   5   6

Guitar 2
e-------------------------------------------------------------------------------------------------|
B-----------------------------------------------------------------------------------------4-------|
G-------------------------0---0-------1-0---------------------------------0---0-------0h1---3-1-0-|
D-3---3-------3---3-----------------------3-1---1-3---3-------3---3-------------------------------|
A-------3-1-3-------3-1-3-------3-1-3---------3---------3-1-3-------3-1-3-------3-1-3-------------|
E-------------------------------------------------------------------------------------------------|
  1   2   3   4   5   6   1   2   3   4   5   6   1   2   3   4   5   6   1   2   3   4   5   6

i really can't be sure if these notes are played or not, but i am pretty sure that this 
doesn't continue

with the last three beats, unless it's mirroring Guitar 2.
   \_____________________________________________________________________________
Guit. 3__\__       __\__       __\__                   __\__       __\__       __\___
      /     \     /     \     /     \                 /     \     /     \     /      \
e-------------------------------------------------------------------------------------------------|
B-------------------------------------1-----------------------------------------------------------|
G-1---1-------1---1-------3---3---------3---------1---1-------1---1-------3---3-------------------|
D-------1---1-------1---1-------1---1-----1-0---1-------1---1-------1---1-------1---1-------------|
A---------3-----------3-----------3-----------3-----------3-----------3-----------3---------------|
E-------------------------------------------------------------------------------------------------|
  1   2   3   4   5   6   1   2   3   4   5   6   1   2   3   4   5   6   1   2   3   4   5   6

##################################################################################################
1:12 - 1:20

Begin verse 1

Guitars 1 & 2
e------------------------------------------------------------------------------------------------|
B------------------------------------------------------------------------------------------------|
G-------------------------------5---------10--------------------------------------------------10-|
D-----------------------------5-----5---10----10------------------------------5-----------10-----|
A-3---3-3-3-3-3---3-3-3-3-3-----------8-----------3---3-3-3-3-3---3-3-3-3-3-------3---8----------|
E-1---1-4-4-1-1---1-4-4-1-------------------------1---1-4-4-1-1---1-4-4-1------------------------|
  1   2   3   4   5   6   1   2   3   4   5   6   1   2   3   4   5   6   1   2   3   4   5   6

#################################################################################################
1:20 - 1:28

End verse 1

Guitars 1 & 2
e------------------------------------------------------------------------------------------------|
B------------------------------------------------------------------------------------------------|
G-------------------------------5---------10--------------------------------------------------10-|
D-----------------------------5-----5---10----10------------------------------5-----------10-----|
A-3---3-3-3-3-3---3-3-3-3-3-----------8-----------3---3-3-3-3-3---3-3-3-3-3-------3---8----------|
E-1---1-4-4-1-1---1-4-4-1-------------------------1---1-4-4-1-1---1-4-4-1------------------------|
  1   2   3   4   5   6   1   2   3   4   5   6   1   2   3   4   5   6   1   2   3   4   5   6

#################################################################################################
1:28 - 1:36

Begin chorus

Guitar 1
e-----------------------------------------------------------------------------------------------|
B-----------------------------------------------------------------------------------------------|
G-------------------------------------------------------------------------3---------------------|
D-6-----------------------6-----------------------6-----------------------1-----------3---------|
A-4-----------3-----------4-----------3-----------4-----------3-----------------------1---------|
E-------------1-----------------------1-----------------------1---------------------------------|
  1   2   3   4   5   6   1   2   3   4   5   6   1   2   3   4   5   6   1   2   3   4   5   6

Guitar 2
e-------------------------------------------------------------------------------------------------|
B-------------------------------------------------------------------------4-----------------------|
Gh1-----0---------------------------------------0-1-----0-------------------3-1-0---------------0-|
D---------3-1-----------------1---3---1~~---3-3-----------3-1---------------------3-1-1h3-3~~-3---|
A-------------3~~~--------4-----------------------------------3~~~--------------------------------|
E-------------------------------------------------------------------------------------------------|
  1   2   3   4   5   6   1   2   3   4   5   6   1   2   3   4   5   6   1   2   3   4   5   6

##################################################################################################
1:36 - 1:43

Continue chorus

TIME CHANGE!_____The_end_of_this_measure_is_cut_off.______________________________
                                                                                  \
Guitar 1                                                                           |
e-----------------------------------------------------------------------------------|
B-----------------------------------------------------------------------------------|
G-------------------------------------------------------------------------3---------|
D-6-----------------------6-----------------------6-----------------------1---------|
A-4-----------3-----------4-----------3-----------4-----------3---------------------|
E-------------1-----------------------1-----------------------1---------------------|
  1   2   3   4   5   6   1   2   3   4   5   6   1   2   3   4   5   6   1   2   3

Guitar 2
e-------------------------------------------------------------------------------------|
B-------------------------------------------------------------------------4-----------|
Gh1-----0---------------------------------------0-1-----0-------------------3-1-0-----|
D---------3-1-----------------1---3---1~~---3-3-----------3-1---------------------3-1-|
A-------------3~~~--------4-----------------------------------3~~~--------------------|
E-------------------------------------------------------------------------------------|
  1   2   3   4   5   6   1   2   3   4   5   6   1   2   3   4   5   6   1   2   3

##################################################################################################
1:43 - 1:47

End chorus

Guitar 1
e------------------------------------------------|
B------------------------------------------------|
G------------------------------------------------|
D-3-----------5-----------3-----------5----------|
A-1-----------3-----------1-----------3----------|
E------------------------------------------------|
  1   2   3   4   5   6   1   2   3   4   5   6

Guitar 2
e-------------------------------------------------|
B-------------------------------------------------|
G-------------------------------------------------|
D-1h3-3~~-1---1h3-3/5-5/6-1h3-3~~-1---1h3-3/5-5/6-|
A----------h3----------------------h3-------------|
E-------------------------------------------------|
  1   2   3   4   5   6   1   2   3   4   5   6

##################################################################################################
1:47 - 1:55

Begin verse 2

Guitars 1 & 2
e------------------------------------------------------------------------------------------------|
B------------------------------------------------------------------------------------------------|
G-------------------------------5---------10--------------------------------------------------10-|
D-----------------------------5-----5---10----10------------------------------5-----------10-----|
A-3---3-3-3-3-3---3-3-3-3-3-----------8-----------3---3-3-3-3-3---3-3-3-3-3-------3---8----------|
E-1---1-4-4-1-1---1-4-4-1-------------------------1---1-4-4-1-1---1-4-4-1------------------------|
  1   2   3   4   5   6   1   2   3   4   5   6   1   2   3   4   5   6   1   2   3   4   5   6

#################################################################################################
1:55 - 2:03

End verse 2

Guitars 1 & 2
e------------------------------------------------------------------------------------------------|
B------------------------------------------------------------------------------------------------|
G-------------------------------5---------10--------------------------------------------------10-|
D-----------------------------5-----5---10----10------------------------------5-----------10-----|
A-3---3-3-3-3-3---3-3-3-3-3-----------8-----------3---3-3-3-3-3---3-3-3-3-3-------3---8----------|
E-1---1-4-4-1-1---1-4-4-1-------------------------1---1-4-4-1-1---1-4-4-1------------------------|
  1   2   3   4   5   6   1   2   3   4   5   6   1   2   3   4   5   6   1   2   3   4   5   6

#################################################################################################
2:03 - 2:11

Begin solo

i had to stretch the tab a bit in a couple of places for the solo so that the numbers 
bunch up; just

remember that the timing is still governed by the count from 1 to 6...
             \____________________________________________________
                            \_                                   _\_
Guitar 1                   /  \                                 /   \
e--------------------------------------------------------------------------------------------------|
B--------------------------------------------------------------------------------------------------|
G--------------------------------------------------------------------------------------------------|
D-3-----------5-----------6------------8-----------3-----------5-------------6-----------8---------|
A-1-----------3-----------4------------6-----------1-----------3-------------4-----------6---------|
E--------------------------------------------------------------------------------------------------|
  1   2   3   4   5   6   1    2   3   4   5   6   1   2   3   4     5   6   1   2   3   4   5   6

Guitar 2
e--------------------------------------------------------------------------------------------------|
B-------9-8-9-------9-8-9-11-9-8---------------------------1-2-1h2p1-----1-----------1-------------|
G-------------8~~~~--------------8-----------------------3-----------1-3---0-1-----3---1-3~~-------|
D----------------------------------8-6-5~~~~~----------3-------------------------------------------|
A--------------------------------------------------1-4---------------------------------------------|
E--------------------------------------------------------------------------------------------------|
  1   2   3   4   5   6   1    2   3   4   5   6   1   2   3   4     5   6   1   2   3   4   5   6

Guitar 3
e--------------------------------------------------------------------------------------------------|
B--------------------------------------------------------------------------------------------------|
G----------------------------------0-1-3~~~~~------------------0h1p0-0-1-3-0-------0-1-------------|
D----------------------------------------------------------------------------3---------3-5~~-------|
A--------------------------------------------------------------------------------------------------|
E--------------------------------------------------------------------------------------------------|
  1   2   3   4   5   6   1    2   3   4   5   6   1   2   3   4     5   6   1   2   3   4   5   6

###################################################################################################
2:11 - 2:18

End solo

Guitar 1
e--------------------------------------------------------------------------------------------------|
B--------------------------------------------------------------------------------------------------|
G--------------------------------------------------------------------------------------------------|
D-3-----------5-----------6------------8-----------3-----------5-------------6-----------8---------|
A-1-----------3-----------4------------6-----------1-----------3-------------4-----------6---------|
E--------------------------------------------------------------------------------------------------|
  1   2   3   4   5   6   1    2   3   4   5   6   1   2   3   4     5   6   1   2   3   4   5   6

Guitar 2
e--------------------------------------------------------------------------------------------------|
B-------9-8-9-------9-8-9-11-9-8---------------------------1-2-1h2p1-----1-----------1-------------|
G-------------8~~~~--------------8-----------------------3-----------1-3---0-1-----3---1-3~~-------|
D----------------------------------8-6-5~~~~~----------3-------------------------------------------|
A--------------------------------------------------1-4---------------------------------------------|
E--------------------------------------------------------------------------------------------------|
  1   2   3   4   5   6   1    2   3   4   5   6   1   2   3   4     5   6   1   2   3   4   5   6

Guitar 3
e--------------------------------------------------------------------------------------------------|
B---------------------------------------------------------------------------/6----8-9-6-8~~--------|
G----------------------------------0-1-3~~~~~------------------0h1p0-0-1-3-0-----------------------|
D-3~~----------------------------------------------------------------------------------------------|
A--------------------------------------------------------------------------------------------------|
E--------------------------------------------------------------------------------------------------|
  1   2   3   4   5   6   1    2   3   4   5   6   1   2   3   4     5   6   1   2   3   4   5   6

i'm not 100% sure about Guitar 3 on this solo, so email me any corrections/suggestions.

###################################################################################################
2:18 - 2:26

Begin bridge 1

Guitars 1 & 2
e-----------------------------------------------------------------------------------------------|
B-----------------------------------------------------------------------------------------------|
G-----------------------------------------------------------------------------------------------|
D-------6-----------4-----------4-----------------6---6---X-X-4---4-|-----4---------------------|
A-------------1-----------2-----------------------6---6---X-X-1---1-|-----2---------------------|
E-4-----------------------------------------------4---4---X-X-------|---------------------------|
  1   2   3   4   5   6   1   2   3   4   5   6   1   2   3   4   5   6   1   2   3   4   5   6

################################################################################################
2:26 - 2:34

Continue bridge 1

Guitars 1 & 2
e-----------------------------------------------------------------------------------------------|
B-----------------------------------------------------------------------------------------------|
G-----------------------------------------------------------------------------------------------|
D-------6-----------4-----------4-----------------6---6---X-X-4---4-|-----4---------------------|
A-------------1-----------2-----------------------6---6---X-X-1---1-|-----2---------------------|
E-4-----------------------------------------------4---4---X-X-------|---------------------------|
  1   2   3   4   5   6   1   2   3   4   5   6   1   2   3   4   5   6   1   2   3   4   5   6

################################################################################################
2:34 - 2:42

Continue bridge 1

Guitar 1
e------------------------------------------------------------------------------------------------|
B------------------------------------------------------------------------------------------------|
G-------------------------------5---------10--------------------------------------------------10-|
D-----------------------------5-----5---10----10------------------------------5-----------10-----|
A-3---3-3-3-3-3---3-3-3-3-3-----------8-----------3---3-3-3-3-3---3-3-3-3-3-------3---8----------|
E-1---1-4-4-1-1---1-4-4-1-------------------------1---1-4-4-1-1---1-4-4-1------------------------|
  1   2   3   4   5   6   1   2   3   4   5   6   1   2   3   4   5   6   1   2   3   4   5   6

Guitar 2
e-------------------------------------------------------------------------------------------------|
B-----------------------------------------------------------------------------------------4-------|
G-------------------------0---0-------1-0---------------------------------0---0-------0h1---3-1-0-|
D-3---3-------3---3-----------------------3-1---1-3---3-------3---3-------------------------------|
A-------3-1-3-------3-1-3-------3-1-3---------3---------3-1-3-------3-1-3-------3-1-3-------------|
E-------------------------------------------------------------------------------------------------|
  1   2   3   4   5   6   1   2   3   4   5   6   1   2   3   4   5   6   1   2   3   4   5   6

##################################################################################################
2:42 - 2:50

End bridge 1

Guitar 1 (guitar -1 in the next section)
e------------------------------------------------------------------------------------------------|
B------------------------------------------------------------------------------------------------|
G-------------------------------5---------10--------------------------------------------------10-|
D-----------------------------5-----5---10----10------------------------------5-----------10-----|
A-3---3-3-3-3-3---3-3-3-3-3-----------8-----------3---3-3-3-3-3---3-3-3-3-3-------3---8----------|
E-1---1-4-4-1-1---1-4-4-1-------------------------1---1-4-4-1-1---1-4-4-1------------------------|
  1   2   3   4   5   6   1   2   3   4   5   6   1   2   3   4   5   6   1   2   3   4   5   6

Guitar 2 (guitar -2 in the next section)
e-------------------------------------------------------------------------------------------------|
B-----------------------------------------------------------------------------------------4-------|
G-------------------------0---0-------1-0---------------------------------0---0-------0h1---3-1-0-|
D-3---3-------3---3-----------------------3-1---1-3---3-------3---3-------------------------------|
A-------3-1-3-------3-1-3-------3-1-3---------3---------3-1-3-------3-1-3-------3-1-3-------------|
E-------------------------------------------------------------------------------------------------|
  1   2   3   4   5   6   1   2   3   4   5   6   1   2   3   4   5   6   1   2   3   4   5   6

Guitar 3
e-------------------------------------------------------------------------------------------------|
B-------------------------------------1-----------------------------------------------------------|
G-1---1-------1---1-------3---3---------3---------1---1-------1---1-------3---3-------------------|
D-------1---1-------1---1-------1---1-----1-0---1-------1---1-------1---1-------1---1-------------|
A---------3-----------3-----------3-----------3-----------3-----------3-----------3---------------|
E-------------------------------------------------------------------------------------------------|
  1   2   3   4   5   6   1   2   3   4   5   6   1   2   3   4   5   6   1   2   3   4   5   6

##################################################################################################
2:50 - 2:58

Begin acoustic interlude (vibrato and sliding are ultimately up to you; this is just the way i play it)

Guitar -1
  >===================-|
e------------------------|
B------------------------|
G------------------------|
D-3~~~~~~~~~~~~~~~~~~~~--
A------------------------|
E------------------------|
  1   2   3   4   5   6

Guitar -2
  >===================-|
e------------------------|
B------------------------|
G-1~~~~~~~~~~~~~~~~~~~~--
D------------------------|
A------------------------|
E------------------------|
  1   2   3   4   5   6

*** You have to repeat this part ***

        \
         \ |
        __\|


Guitar 1
e-----------------------------------------------------------------------------------------------|
B---------------------------------6-------------------------------------------------------------|
G/5~------5---3-------3-5-6-----------5~----------3-------3---3---1---3--/5~--------------1---3-|
D-----------------------------------------------------------------------------------------------|
A-----------------------------------------------------------------------------------------------|
E-----------------------------------------------------------------------------------------------|
  1   2   3   4   5   6   1   2   3   4   5   6   1   2   3   4   5   6   1   2   3   4   5   6

Guitar 2
e----------------------------------------------------------------------------------------------|
B-1~-------------------------------------------------------------------------------------------|
G-1~----------3~----------6~----------5~----------3~----------6~----------5~-------------------|
D-------------5~----------8~----------6~----------5~----------8~----------6~-------------------|
A----------------------------------------------------------------------------------------------|
E----------------------------------------------------------------------------------------------|
  1   2   3   4   5   6   1   2   3   4   5   6   1   2   3   4   5   6   1   2   3   4   5   6

###############################################################################################
2:58 - 3:06

Continue acoustic interlude

Guitar 1
e-----------------------------------------------------------------------------------------------|
B---------------------------------6-------------------------------------------------------------|
G/5~------5---3-------3-5-6-----------5~---------/5---3---1---3-----5-6-3-5~~-------------------|
D-----------------------------------------------------------------------------------------------|
A-----------------------------------------------------------------------------------------------|
E-----------------------------------------------------------------------------------------------|
  1   2   3   4   5   6   1   2   3   4   5   6   1   2   3   4   5   6   1   2   3   4   5   6

Guitar 2
e-----------------------------------------------------------------------------------------------|
B-1~--------------------------------------------------------------------------------------------|
G-1~----------3~----------6~----------5~---------/6---5---3---5-----6-8-5-6~~-------------------|
D-------------5~----------8~----------6~--------------------------------------------------------|
A-----------------------------------------------------------------------------------------------|
E-----------------------------------------------------------------------------------------------|
  1   2   3   4   5   6   1   2   3   4   5   6   1   2   3   4   5   6   1   2   3   4   5   6

       __
        /|
       / |
      /
*** You have to repeat this part ***

Repeat these 4 bars of the acoustic interlude all the way until 3:53.
################################################################################################
3:53 - 4:01

Begin bridge 2

Guitars 1 & 2
e-----------------------------------------------------------------------------------------------|
B-----------------------------------------------------------------------------------------------|
G-------------------3---------------------------------------------------------------------------|
D-------6-----------------------4-----------------6---6---X-X-4---4-|-----4---------------------|
A-------------1-----------2-----------------------6---6---X-X-1---1-|-----2---------------------|
E-4-----------------------------------------------4---4---X-X-------|---------------------------|
  1   2   3   4   5   6   1   2   3   4   5   6   1   2   3   4   5   6   1   2   3   4   5   6

################################################################################################
4:01 - 4:08

End bridge 2

This is by no means an exact strumming pattern; i'm just trying to get the notes right. 
that second to

last power chord here is an octave lower in the studio recording -- the same pitch as an 
E power chord

on a guitar tuned to Eb.
                 \____________________________________________________
Guitars 1 & 2                                                         |
e----------------------------------------------------------------------------------|
B----------------------------------------------------------------------------------|
G-------------------3-----------4-----6-----6-6-6-6-----6-6-6---------8|-----------|
D-------6-----------4-----------4-----6-----6-6-6-6-----6-6-6-6---6|--8|--6|-------|
A-------------1-----------2-----------4-----4-4-4-4-----4-4-4-6---6|--6|--6|-------|
E-4-----------------------------------------------------------4---4|------4|-------|
  1   2   3   4   5   6   1   2   3   4   5   6   1   2   3   4   5   6   1   2   3
                                                                                   ^
TIME CHANGE! The_end_of_this_measure_is_cut_off.___________________________________/

######################################################################################
4:08 - 4:16

Guitar 1
e------------------------------------------------------------------------------------------------|
B------------------------------------------------------------------------------------------------|
G-------------------------------5---------10--------------------------------------------------10-|
D-----------------------------5-----5---10----10------------------------------5-----------10-----|
A-3---3-3-3-3-3---3-3-3-3-3-----------8-----------3---3-3-3-3-3---3-3-3-3-3-------3---8----------|
E-1---1-4-4-1-1---1-4-4-1-------------------------1---1-4-4-1-1---1-4-4-1------------------------|
  1   2   3   4   5   6   1   2   3   4   5   6   1   2   3   4   5   6   1   2   3   4   5   6

Guitar 2
e-------------------------------------------------------------------------------------------------|
B-----------------------------------------------------------------------------------------4-------|
G-------------------------0---0-------1-0---------------------------------0---0-------0h1---3-1-0-|
D-3---3-------3---3-----------------------3-1---1-3---3-------3---3-------------------------------|
A-------3-1-3-------3-1-3-------3-1-3---------3---------3-1-3-------3-1-3-------3-1-3-------------|
E-------------------------------------------------------------------------------------------------|
  1   2   3   4   5   6   1   2   3   4   5   6   1   2   3   4   5   6   1   2   3   4   5   6

##################################################################################################
4:16 - 4:24

Guitar 1
e------------------------------------------------------------------------------------------------|
B------------------------------------------------------------------------------------------------|
G-------------------------------5---------10--------------------------------------------------10-|
D-----------------------------5-----5---10----10------------------------------5-----------10-----|
A-3---3-3-3-3-3---3-3-3-3-3-----------8-----------3---3-3-3-3-3---3-3-3-3-3-------3---8----------|
E-1---1-4-4-1-1---1-4-4-1-------------------------1---1-4-4-1-1---1-4-4-1------------------------|
  1   2   3   4   5   6   1   2   3   4   5   6   1   2   3   4   5   6   1   2   3   4   5   6

Guitar 2
e-------------------------------------------------------------------------------------------------|
B-----------------------------------------------------------------------------------------4-------|
G-------------------------0---0-------1-0---------------------------------0---0-------0h1---3-1-0-|
D-3---3-------3---3-----------------------3-1---1-3---3-------3---3-------------------------------|
A-------3-1-3-------3-1-3-------3-1-3---------3---------3-1-3-------3-1-3-------3-1-3-------------|
E-------------------------------------------------------------------------------------------------|
  1   2   3   4   5   6   1   2   3   4   5   6   1   2   3   4   5   6   1   2   3   4   5   6

Guitar 3
e-------------------------------------------------------------------------------------------------|
B-------------------------------------1-----------------------------------------------------------|
G-1---1-------1---1-------3---3---------3---------1---1-------1---1-------3---3-------------------|
D-------1---1-------1---1-------1---1-----1-0---1-------1---1-------1---1-------1---1-------------|
A---------3-----------3-----------3-----------3-----------3-----------3-----------3---------------|
E-------------------------------------------------------------------------------------------------|
  1   2   3   4   5   6   1   2   3   4   5   6   1   2   3   4   5   6   1   2   3   4   5   6

##################################################################################################
4:24 - 4:32

Begin final chorus

Guitar 1
e-----------------------------------------------------------------------------------------------|
B-----------------------------------------------------------------------------------------------|
G-------------------------------------------------------------------------3---------------------|
D-6-----------------------6-----------------------6-----------------------1-----------3---------|
A-4-----------3-----------4-----------3-----------4-----------3-----------------------1---------|
E-------------1-----------------------1-----------------------1---------------------------------|
  1   2   3   4   5   6   1   2   3   4   5   6   1   2   3   4   5   6   1   2   3   4   5   6

Guitar 2
e-------------------------------------------------------------------------------------------------|
B-------------------------------------------------------------------------4-----------------------|
Gh1-----0---------------------------------------0-1-----0-------------------3-1-0---------------0-|
D---------3-1-----------------1---3---1~~---3-3-----------3-1---------------------3-1-1h3-3~~-3---|
A-------------3~~~--------4-----------------------------------3~~~--------------------------------|
E-------------------------------------------------------------------------------------------------|
  1   2   3   4   5   6   1   2   3   4   5   6   1   2   3   4   5   6   1   2   3   4   5   6

##################################################################################################
4:32 - 4:40

Continue final chorus

TIME CHANGE! The_end_of_this_measure_is_cut_off.__________________________________
                                                                                  \
Guitar 1                                                                           |
e-----------------------------------------------------------------------------------|
B-----------------------------------------------------------------------------------|
G-------------------------------------------------------------------------3---------|
D-6-----------------------6-----------------------6-----------------------1---------|
A-4-----------3-----------4-----------3-----------4-----------3---------------------|
E-------------1-----------------------1-----------------------1---------------------|
  1   2   3   4   5   6   1   2   3   4   5   6   1   2   3   4   5   6   1   2   3

Guitar 2
e-------------------------------------------------------------------------------------|
B-------------------------------------------------------------------------4-----------|
Gh1-----0---------------------------------------0-1-----0-------------------3-1-0-----|
D---------3-1-----------------1---3---1~~---3-3-----------3-1---------------------3-1-|
A-------------3~~~--------4-----------------------------------3~~~--------------------|
E-------------------------------------------------------------------------------------|
  1   2   3   4   5   6   1   2   3   4   5   6   1   2   3   4   5   6   1   2   3

#################################################################################################
4:40 - 4:48

End final chorus

Guitar 1
e------------------------------------------------------------------------------------------------|
B------------------------------------------------------------------------------------------------|
G------------------------------------------------------------------------------------------------|
D-3-----------5-----------3-----------5-----------3-----------5-----------3-----------5----------|
A-1-----------3-----------1-----------3-----------1-----------3-----------1-----------3----------|
E------------------------------------------------------------------------------------------------|
  1   2   3   4   5   6   1   2   3   4   5   6   1   2   3   4   5   6   1   2   3   4   5   6

Guitar 2
e--------------------------------------------------------------------------------------------------|
B--------------------------------------------------------------------------------------------------|
G--------------------------------------------------------------------------------------------------|
D-1h3-3~~-1---1h3-3/5-5/6-1h3-3~~-1---1h3-3/5-5/6-1h3-3~~-1---1h3-3/5-5/6-1h3-3~~-1---1h3-3/5-5/6--|
A----------h3----------------------h3----------------------h3----------------------h3--------------|
E--------------------------------------------------------------------------------------------------|
  1   2   3   4   5   6   1   2   3   4   5   6   1   2   3   4   5   6   1   2   3   4   5   6

#################################################################################################
4:48 - End

Guitar 1
e-----
B-----
G-1---
D-----
A-----
E-----

Guitar 2
e-----
B-----
G-----
D-3---
A-----
E-----

Let ring until feedback, then let fade

##############################################################################################

-tab by Dysthymia
http://dysthymia.cjb.net/
email dysthymia_@hotmail.com

Tab version 1.0. All updates will be posted on my site.
comments
print report bad tab
6 comments total. Showing first comments.
0 reply
Dysthymia wrote on December 2 2005, 11:20 am

The melody of Guitar 1 for 0:32 - 0:40 is wrong. i fixed that and a few other things in the latest version on my site: http://dysthymia.cjb.net/

0 reply
eXiGe wrote on August 14 2007, 12:22 pm

Guitar 1 at 32 - 40 should be 1-3-1~ at G not on D. That's the only problem I could find.

0 reply
ComeClarity wrote on August 29 2007, 06:30 pm

tab not clear... you should write the number of times the riffs are played instead of the time when it changes. That's how people learn songs. MOreover I think they play it in C. You don't see them switch guitar or tune it during a live. I don't see either why they would have changed their tuning whereas they can play it in C.

I want to post or [tab]
guest
You may want to rate the tab now too:
select rating
Please do not post tabs as comments. Select "correction" instead!