Oops, an error
Loading. Please wait.

Only For The Weak Tab

ver3
ver3
More versions @911Tabs.com
10,155 views 12 this week
1 commentread comment
1 2 3 4 5
worth learning
x 4
Autoscroll
+/-
esc
set tempo
stop
Contributor
Difficulty
intermediate
NEW! There's an official Ultimate Guitar app which is ideal
for learning songs when you're away from computer. Get the app
WARNING: You are trying to view
                                    content from Ultimate-Guitar.com
                                    in an unauthorized application,
                                    which is prohibited.

                                    Please use an official Ultimate
                                    Guitar Tabs application for iPhone,
                                    iPad or Android to access legitimate
                                    chords, guitar, bass, and drum tabs
                                    from Ultimate-Guitar.com database.

                                    Type "ultimate guitar tabs" in Apple
                                    App Store's or Android Market's
                                    search to find the application.
                             IN FLAMES
                         ONLY FOR THE WEAK

          
            b - bend
            r - release
            ~ - vibrato
            . - paml mute

            Tempo - 105 bpm
            Rhythm - 4/4
            Tuning - C G D# A# F C
            Guitars - gtr 1 - dist
                      gtr 2 - dist


Intro
 gtr 1 
|-----------------|--------------------|
|-----------------|--------------------|
|-----------------|-5-5-5-5-7-7-7-7----|
|-----------------|-3-3-3-3-5-5-5-5----|
|-2-2-2-2-7-7-7-7-|--------------------|
|-0-0-0-0-5-5-5-5-|--------------------|
|
|gtr 2
|-----------------|-------------------|--------------------|-----------|
|-----------------|-------------------|--------------------|-----------|
|----9-----7-9-10-|--9-7-------7------|-----9----7---------|-----------|
|-10---10---------|------10-10---9----|--10---10---10-9-7--|-9---------|
|-----------------|----------------10-|--------------------|----10-----|
|-----------------|-------------------|--------------------|-----------|x2

|-------|
|-------|
|-------|
|-------|
|-3-----|
|-------|
|
|-------|
|-------|
|-------|
|-------|
|-7-----|
|-------|

 Pre-Verse
 gtr 1
 
|---------------------|---------------------|
|---------------------|---------------------|
|---------------------|---------------------|
|---------------------|---5-----------------|
|---2---2---2-----5h7-|---3---2---2-----5h7-|
|-0-0-0-0-0-0-0-0-----|-0---0-0-0-0-0-0-----|
| .   .   .   . .       .    .   .   . .
| gtr 2
|---------------------|-----------------------|
|---------------------|-----------------------|
|---------------------|-----------------------|
|-----------------4h5-|---5h7-------------4h5-|
|---2---2---2---------|---------2---2---------|
|-0-0-0-0-0-0-0-0-----|-0-----0-0-0-0-0-0-----|
  .   .   .   . .       .     .   .   . .

|---------------------|----------------|
|---------------------|----------------|
|---------------------|----------------|
|---7-----------------|---5------------|
|---5---2---2-----5h7-|---3---2---2----|
|-0---0-0-0-0-0-0-----|-0---0-0-0-0----|
| .   .   .   . .       .   .   .
|
|-----------------------|--------------------|
|-----------------------|--------------------|
|-----------------------|--------------------|
|---4h5-------------4h5-|---5h7--------------|
|---------2---2---------|---------2---2------|
|-0-----0-0-0-0-0-0-----|-0-----0-0-0-0-0000-|
  .     .   .   . .       .     .   .   ....

 Verse 1
 gtr 1
|----------------------|--------|----------------------|--------|
|----------------------|--------|----------------------|--------|
|-12-11h12p11-9---11-7-|--------|-12-11h12p11-9---7-11-|--------|
|----------------------|--------|----------------------|--------|
|----------------------|--------|----------------------|--------|
|----------------------|--------|----------------------|--------|
|
|gtr 2
|-----------------|-----------------|-----------------|-----------------|
|-----------------|-----------------|-----------------|-----------------|
|-----------------|-----------------|-----------------|-----------------|
|-----------------|-----------------|-----------------|---4---4---4---4-|
|---2---2---2---2-|---5---5---5---5-|---2---2---2---2-|-2-2-2-2-2-2-2-2-|
|-0-0-0-0-0-0-0-0-|-3-3-3-3-3-3-3-3-|-0-0-0-0-0-0-0-0-|-----------------|x2
  .   .   .   .   .   .   .   .   .   .   .   .   .   .   .   .

|-----------------|-------------------|
|-----------------|-------------------|
|-----------------|-------------------|
|-----------------|---4---4----5----7-|
|---2---2---5---5-|-2-2-2-2-33-3-55-5-|
|-0-0-0-0-3-3-3-3-|-------------------|
| .   .   .   .     .   .   ..   ..
|
|-----------------|-------------------|
|-----------------|-------------------|
|-----------------|-------------------|
|-----------------|---4---4----5----7-|
|---2---2---5---5-|-2-2-2-2-33-3-55-5-|
|-0-0-0-0-3-3-3-3-|-------------------|
  .   .   .   .     .   .   ..   ..

 Pre-Chorus
 gtr 1
|----------------------|------------|------------------------|------------|
|----------------------|------------|------------------------|------------|
|-----9-12-9h11p9------|----7-9-7-4-|-------9-12-9h11p9------|----7-9-7-4-|
|---12------------12-9-|------------|-5---12------------12-9-|------------|
|----------------------|------------|------------------------|------------|
|----------------------|------------|------------------------|------------|
|
|gtr 2
|------------|---------|------------|---------|
|------------|---------|------------|---------|
|------------|---------|------------|---------|
|-5----------|----7----|-5----------|----4----|
|-3----2---5-|----5----|-3----2---5-|----2----|
|------0---3-|---------|------0---3-|---------|


|----------------------------|----------------|
|-------17-19-17h19p17-------|----------------|
|-----19---------------19-16-|----17-19-17-14-|
|-5--------------------------|----------------|
|----------------------------|----------------|
|----------------------------|----------------|
|
|
|------------|---------|
|------------|---------|
|------------|---------|
|------5-----|----7----|
|-2----3---5-|----5----|
|-0--------3-|---------|

|-----------------------------|----------------|
|--------17-19-17h19p17-------|----------------|
|-16---19---------------19----|----17-19-17-14-|
|--------------------------16-|----------------|
|-----------------------------|----------------|
|-----------------------------|----------------|
|
|
|------------|---------|
|------------|---------|
|-5----------|---------|
|-3----------|----7----|
|------2---5-|----5----|
|------0---3-|---------|


 Chorus
 gtr 1
|-----------------|--------------------|
|-----------------|--------------------|
|-----------------|-5-5-5-5-7-7-7-7----|
|-----------------|-3-3-3-3-5-5-5-5----|
|-2-2-2-2-7-7-7-7-|--------------------|
|-0-0-0-0-5-5-5-5-|--------------------|
|
|gtr 2
|-----------------|-------------------|--------------------|-----------|
|-----------------|-------------------|--------------------|-----------|
|----9-----7-9-10-|--9-7-------7------|-----9----7---------|-----------|
|-10---10---------|------10-10---9----|--10---10---10-9-7--|-9---------|
|-----------------|----------------10-|--------------------|----10-----|
|-----------------|-------------------|--------------------|-----------|x2


|-------|
|-------|
|-------|
|-------|
|-3-----|
|-------|
|
|-------|
|-------|
|-------|
|-------|
|-7-----|
|-------|


 Verse 2
 gtr 1
|----------------------|--------|----------------------|--------|
|----------------------|--------|----------------------|--------|
|-12-11h12p11-9---11-7-|--------|-12-11h12p11-9---7-11-|--------|
|----------------------|--------|----------------------|--------|
|----------------------|--------|----------------------|--------|
|----------------------|--------|----------------------|--------|
|
|gtr 2
|-----------------|-----------------|-----------------|-----------------|
|-----------------|-----------------|-----------------|-----------------|
|-----------------|-----------------|-----------------|-----------------|
|-----------------|-----------------|-----------------|---4---4---4---4-|
|---2---2---2---2-|---5---5---5---5-|---2---2---2---2-|-2-2-2-2-2-2-2-2-|
|-0-0-0-0-0-0-0-0-|-3-3-3-3-3-3-3-3-|-0-0-0-0-0-0-0-0-|-----------------|x2
  .   .   .   .   .   .   .   .   .   .   .   .   .   .   .   .

|-----------------|-------------------|
|-----------------|-------------------|
|-----------------|-------------------|
|-----------------|---4---4----5----7-|
|---2---2---5---5-|-2-2-2-2-33-3-55-5-|
|-0-0-0-0-3-3-3-3-|-------------------|
| .   .   .   .     .   .   ..   ..
|
|-----------------|-------------------|
|-----------------|-------------------|
|-----------------|-------------------|
|-----------------|---4---4----5----7-|
|---2---2---5---5-|-2-2-2-2-33-3-55-5-|
|-0-0-0-0-3-3-3-3-|-------------------|
  .   .   .   .     .   .   ..   ..


Pre-Chorus
 gtr 1
|----------------------|------------|------------------------|------------|
|----------------------|------------|------------------------|------------|
|-----9-12-9h11p9------|----7-9-7-4-|-------9-12-9h11p9------|----7-9-7-4-|
|---12------------12-9-|------------|-5---12------------12-9-|------------|
|----------------------|------------|------------------------|------------|
|----------------------|------------|------------------------|------------|
|
|gtr 2
|------------|---------|------------|---------|
|------------|---------|------------|---------|
|------------|---------|------------|---------|
|-5----------|----7----|-5----------|----4----|
|-3----2---5-|----5----|-3----2---5-|----2----|
|------0---3-|---------|------0---3-|---------|


|----------------------------|----------------|
|-------17-19-17h19p17-------|----------------|
|-----19---------------19-16-|----17-19-17-14-|
|-5--------------------------|----------------|
|----------------------------|----------------|
|----------------------------|----------------|
|
|
|------------|---------|
|------------|---------|
|------------|---------|
|------5-----|----7----|
|-2----3---5-|----5----|
|-0--------3-|---------|

|-----------------------------|----------------|
|--------17-19-17h19p17-------|----------------|
|-16---19---------------19----|----17-19-17-14-|
|--------------------------16-|----------------|
|-----------------------------|----------------|
|-----------------------------|----------------|
|
|
|------------|---------|
|------------|---------|
|-5----------|---------|
|-3----------|----7----|
|------2---5-|----5----|
|------0---3-|---------|


 Dubble Chorus
 gtr 1
|-----------------|--------------------|
|-----------------|--------------------|
|-----------------|-5-5-5-5-7-7-7-7----|
|-----------------|-3-3-3-3-5-5-5-5----|
|-2-2-2-2-7-7-7-7-|--------------------|
|-0-0-0-0-5-5-5-5-|--------------------|
|
|gtr 2
|-----------------|-------------------|--------------------|-----------|
|-----------------|-------------------|--------------------|-----------|
|----9-----7-9-10-|--9-7-------7------|-----9----7---------|-----------|
|-10---10---------|------10-10---9----|--10---10---10-9-7--|-9---------|
|-----------------|----------------10-|--------------------|----10-----|
|-----------------|-------------------|--------------------|-----------|x4

 Solo
 gtr 1
|-------------------|------------|--------------|
|----12---10-8-7-8~-|-----12----13-12h13p12-10-8|
|--9----9-----------|--12----12-----------------|
|-------------------|---------------------------|
|-------------------|---------------------------|
|-------------------|---------------------------|
|
|gtr 2
|-----------------|-----------------|
|-----------------|-----------------|
|-----------------|-----------------|
|-----------------|-----------------|
|---2---2---2---2-|---5---5---5---5-|
|-0-0-0-0-0-0-0-0-|-3-3-3-3-3-3-3-3-|
  .   .   .   .     .   .   .   .

|----------------------|-------------|-------------------|
|----12---10-8-7-7h8p7-|-5-3-5-5~----|----12---10-8-7-8~-|
|--9----9--------------|-------------|--9----9-----------|
|----------------------|-------------|-------------------|
|----------------------|-------------|-------------------|
|----------------------|-------------|-------------------|
|
|
|--------|----------------|
|--------|----------------|
|--------|----------------|
|--------|-4-------5----7-|
|-2----5-|-2----33-3-55-5-|
|-0----3-|----------------|
                ..   ..
                                                      full    
|---------------------------|-12-15-17-19-15----15-19-20b-r19-15-|
|----12----13-12h13p12-10-8-|----------------17------------------|
|-12----12------------------|------------------------------------|
|---------------------------|------------------------------------|
|---------------------------|------------------------------------|
|---------------------------|------------------------------------|
|
|
|-----------------|-----------|
|-----------------|-----------|
|-----------------|-----------|
|-----------------|-----------|
|---5---5---5---5-|-2----5----|
|-3-3-3-3-3-3-3-3-|-0----3----|
  .   .   .   .
                                   |----Play this very fast---|
|----19-15----15-19-15----20-19-17----------------------------|
|-15-------17----------17----------20-19-17-------------------|
|-------------------------------------------19-17-16----------|
|----------------------------------------------------17-16-14-|
|-------------------------------------------------------------|
|-------------------------------------------------------------|
|
|
|----------------|
|----------------|
|----------------|
|-4-------5----7-|
|-2----33-3-55-5-|
|----------------|
       ..   ..

|-15-------15-19----19-20-|----20-22-15-17-15h17p15-------|
|----12-13-------17-------|-20----------------------19-17-|
|-------------------------|-------------------------------|
|-------------------------|-------------------------------|
|-------------------------|-------------------------------|
|-------------------------|-------------------------------|
|
|
|------------|---------|
|------------|---------|
|------------|---------|
|-5----------|----7----|
|-3----2---5-|----5----|
|------0---3-|---------|

|-15-------15-------------|-----------------|-15-------15-19----19-20-|
|----12-13----15-13-12-15-|-15-13-12--------|----12-13-------17-------|
|-------------------------|----------14-----|-------------------------|
|-------------------------|-----------------|-------------------------|
|-------------------------|-----------------|-------------------------|
|-------------------------|-----------------|-------------------------|
|
|
|------------|---------|------------|
|------------|---------|------------|
|------------|---------|------------|
|-5----------|----7----|-5----------|
|-3----2---5-|----5----|-3----2---5-|
|------0---3-|---------|------0---3-|
                                                               full
|----20-22-15-17-15h17p15-------|-15-------15-19-20-|-20-19-17-22b----|
|-20----------------------19-17-|----12-13----------|-----------------|
|-------------------------------|-------------------|-----------------|
|-------------------------------|-------------------|-----------------|
|-------------------------------|-------------------|-----------------|
|-------------------------------|-------------------|-----------------|
|
|
|---------|------------|---------|
|---------|------------|---------|
|---------|------------|---------|
|----7----|-5----------|----4----|
|----5----|-3----2---5-|----2----|
|---------|------0---3-|---------|

 Pre-Chorus
 gtr 1
|--------|--------|
|--------|--------|
|--------|--------|
|--------|--------|
|--------|--------|
|--------|--------|
|
|gtr 2
|--------|--------|
|--------|--------|
|--------|--------|
|--------|--------|
|--------|--------|
|--------|--------|

 Chorus
 gtr 1
|-----------------|--------------------|
|-----------------|--------------------|
|-----------------|-5-5-5-5-7-7-7-7----|
|-----------------|-3-3-3-3-5-5-5-5----|
|-2-2-2-2-7-7-7-7-|--------------------|
|-0-0-0-0-5-5-5-5-|--------------------|
|
|gtr 2
|-----------------|-------------------|--------------------|-----------|
|-----------------|-------------------|--------------------|-----------|
|----9-----7-9-10-|--9-7-------7------|-----9----7---------|-----------|
|-10---10---------|------10-10---9----|--10---10---10-9-7--|-9---------|
|-----------------|----------------10-|--------------------|----10-----|
|-----------------|-------------------|--------------------|-----------|x4
 



 
 
comments
print report bad tab
1 comment total.
0 reply
jackson.d.abbot wrote on March 18 2014, 06:27 pm

Finally the right tab for this song *5

I want to post or [tab]
guest
You may want to rate the tab now too:
select rating
Please do not post tabs as comments. Select "correction" instead!