Oops, an error
Loading. Please wait.

Scream Tab

ver1
ver1

Whole song

Interactive

More versions @911Tabs.com
7,356 views 3 this week
7 commentsread comments
1 2 3 4 5
accurate
x 3
Autoscroll
+/-
esc
set tempo
stop
Difficulty
intermediate
Hey! There's an official Ultimate Guitar app which is ideal
for learning songs when you're away from computer. Get the app
WARNING: You are trying to view
                                    content from Ultimate-Guitar.com
                                    in an unauthorized application,
                                    which is prohibited.

                                    Please use an official Ultimate
                                    Guitar Tabs application for iPhone,
                                    iPad or Android to access legitimate
                                    chords, guitar, bass, and drum tabs
                                    from Ultimate-Guitar.com database.

                                    Type "ultimate guitar tabs" in Apple
                                    App Store's or Android Market's
                                    search to find the application.
                            IN FLAMES - SCREAM
                               Come Clarity


/ - Slide              
~ - Vibrato       
h - Hammer On           Flipp - flipp1@hotmail.co.uk for corrections please
p - Pull Off
. - Palm Mute

       Intro Riff
   GtrI
C |---||----------------|----------------|----------------|----------------|
G |---||----------------|----------------|----------------|----------------|
D#|---||----------------|----------------|----------------|----------------|
A#|---||----------------|----------------|----------------|----------------|
F |---||0---0---0-------|0---0---0-----8~|0---0---0-------|0---0---0---1p0-|
A#|17/||0000000005558~7-|0000000005558---|0000000005558~7-|000000000555---3|
  |GtrII                |                |                |                |
C |---||----------------|----------------|----------------|----------------|
G |---||----------------|----------------|----------------|----------------|
D#|---||----------------|----------------|----------------|----------------|
A#|---||----------------|----------------|----------------|---------550----|
F |---||----------------|----------------|----------------|---------5501p0-|
A#|---||----------------|----------------|----------------|---------550---3|




        Riff 1
    GtrI
C ||----------------|----------------|----------------|----------------|
G ||----------------|----------------|----------------|----------------|
D#||----------------|----------------|----------------|----------------|
A#||----------------|----------------|----------------|----------------|
F ||0---0---0-------|0---0---0-----8~|0---0---0-------|0---0---0---1p0-|
A#||0000000005558~7-|0000000005558---|0000000005558~7-|000000000555---3|
  ||GtrII           |                |                |                | 
C ||----------------|----------------|----------------|----------------|
G ||----------------|----------------|----------------|----------------|
D#||----------------|----------------|----------------|----------------|
A#||----------------|--------------7~|----------------|---------550----|
F ||0---0---0---5~4-|0---0---0---5~--|0---0---0---5~4-|0---0---05501p0-|
A#||000000000555----|000000000555----|000000000555----|000000000550---3|

C ||----------------|----------------|----------------|----------------|
G ||----------------|----------------|----------------|----------------|
D#||----------------|----------------|----------------|----------------|
A#||----------------|----------------|----------------|----------8-88--|
F ||0---0---0-------|0---0---0-----8~|0---0---0-------|0---0---0-6-66--|
A#||0000000005558~7-|0000000005558---|0000000005558~7-|000000000-------|
  ||                |                |                |                | 
C ||----------------|----------------|----------------|----------------|
G ||----------------|----------------|----------------|----------------|
D#||----------------|----------------|----------------|----------------|
A#||----------------|--------------7~|----------------|----------8-88--|
F ||0---0---0---5~4-|0---0---0---5~--|0---0---0---5~4-|0---0---0-6-66--|
A#||000000000555----|000000000555----|000000000555----|000000000-------|

C ||----------|
G ||----------|
D#||----------|
A#||1-1111111-|
F ||1-1111111-|
A#||1-1111111-|
  ||  ....... |   
C ||----------|
G ||----------|
D#||----------|
A#||1-1111111-|
F ||1-1111111-|
A#||1-1111111-|
     ....... 



"WE ARE..."  Riff 2
         GtrI
     C ||----------|----------|----------|-------|
     G ||----------|----------|----------|-------|
     D#||--1p0-----|--1p0-----|--1p0-----|-------|
     A#||2------0h2|-------0h2|-------0h2|2-22-22|
     F ||2---------|----------|----------|2-22-22|
     A#||2---------|----------|----------|2-22-22|
       ||GtrII     |          |          |       |
     C ||----------|----------|----------|-------|
     G ||----------|----------|----------|-------|
     D#||--1p0--5h6|--1h0-----|--1h0--5h6|-------|
     A#||2---------|-------0h2|----------|2-22-22|
     F ||2---------|----------|----------|2-22-22|
     A#||2---------|----------|----------|2-22-22|


C ||----------|----------|----------|-------|
G ||----------|----------|----------|-------|
D#||--1p0-----|--1p0-----|--1p0-----|-------|
A#||2------0h2|-------0h2|-------0h2|2--5555|
F ||2---------|----------|----------|2--5555|
A#||2---------|----------|----------|2--5555|
  ||          |          |          |       |
C ||----------|----------|----------|-------|
G ||----------|----------|----------|-------|
D#||--1p0--5h6|--1h0-----|--1h0--5h6|-------|
A#||2---------|-------0h2|----------|2--5555|
F ||2---------|----------|----------|2--5555|
A#||2---------|----------|----------|2--5555|



        Riff 3
    GtrI
C ||----------------|---------------|----------------|-------|
G ||----------------|---------------|----------------|-------|
D#||----------------|---------------|----------------|------7|
A#||----------------|---------------|----------------|0-0-0-7|
F ||1111111155553333|111111155553333|1111111155553333|0-0-0-5|
A#||----------------|---------------|----------------|0-0-0--|
  ||GtrII           |               |                |       |
C ||----------------|---------------|----------------|-------|
G ||----------------|---------------|----------------|-------|
D#||----------------|---------------|----------------|------7|
A#||----------------|---------------|----------------|0-0-0-7|
F ||----------------|---------------|----------------|0-0-0-5|
A#||5555555599997777|555555599997777|5555555599997777|0-0-0--|


C ||----------------|---------------|----------------|-------|
G ||----------------|---------------|----------------|-------|
D#||----------------|---------------|----------------|-------|
A#||----------------|---------------|----------------|0-0-0--|
F ||1111111155553333|111111155553333|1111111155553333|0-0-0--|
A#||----------------|---------------|----------------|0-0-0--|
  ||GtrII           |               |                |       |
C ||----------------|---------------|----------------|-------|
G ||----------------|---------------|----------------|-------|
D#||----------------|---------------|----------------|-------|
A#||----------------|---------------|----------------|0-0-0--|
F ||----------------|---------------|----------------|0-0-0--|
A#||5555555599997777|555555599997777|5555555599997777|0-0-0--|



        Riff 4
    GtrI
C ||-------------|--------------|
G ||-------------|--------------|
D#||-------------|--------------|
A#||8/7--0-1--3--|8/7--0-1------|
F ||6/5--0-1--3--|6/5--0-1------|
A#||-----0-1--3--|-----0-1-3201-|
  ||GtrII        |         .... | X4
C ||-------------|--------------|
G ||-------------|--------------|
D#||-------------|--------------|
A#||8/7--0-1--3--|8/7--0-1------|
F ||6/5--0-1--3--|6/5--0-1------|
A#||-----0-1--3--|-----0-1-3201-|
                           ....
                   

        Bridge 1
    GtrI
C ||------------------|
G ||------------------|
D#||------------------|
A#||------------------|
F ||2---2---2---1p0---|
A#||222222222023---1h3|
  ||GtrII             |
C ||------------------|
G ||------------------|
D#||------------------|
A#||------------------|
F ||---------22-1p0---|
A#||---------223---1h3|



        Riff 2
    GtrI
C ||----------|----------|----------|-------|
G ||----------|----------|----------|-------|
D#||--1p0-----|--1p0-----|--1p0-----|-------|
A#||2------0h2|-------0h2|-------0h2|2-22-22|
F ||2---------|----------|----------|2-22-22|
A#||2---------|----------|----------|2-22-22|
  ||GtrII     |          |          |       |
C ||----------|----------|----------|-------|
G ||----------|----------|----------|-------|
D#||--1p0--5h6|--1h0-----|--1h0--5h6|-------|
A#||2---------|-------0h2|----------|2-22-22|
F ||2---------|----------|----------|2-22-22|
A#||2---------|----------|----------|2-22-22|


C ||----------|----------|----------|-------|
G ||----------|----------|----------|-------|
D#||--1p0-----|--1p0-----|--1p0-----|-------|
A#||2------0h2|-------0h2|-------0h2|2--5555|
F ||2---------|----------|----------|2--5555|
A#||2---------|----------|----------|2--5555|
  ||          |          |          |       |
C ||----------|----------|----------|-------|
G ||----------|----------|----------|-------|
D#||--1p0--5h6|--1h0-----|--1h0--5h6|-------|
A#||2---------|-------0h2|----------|2--5555|
F ||2---------|----------|----------|2--5555|
A#||2---------|----------|----------|2--5555|



        Riff 3
    GtrI
C ||----------------|---------------|----------------|-------|
G ||----------------|---------------|----------------|-------|
D#||----------------|---------------|----------------|------7|
A#||----------------|---------------|----------------|0-0-0-7|
F ||1111111155553333|111111155553333|1111111155553333|0-0-0-5|
A#||----------------|---------------|----------------|0-0-0--|
  ||GtrII           |               |                |       |
C ||----------------|---------------|----------------|-------|
G ||----------------|---------------|----------------|-------|
D#||----------------|---------------|----------------|------7|
A#||----------------|---------------|----------------|0-0-0-7|
F ||----------------|---------------|----------------|0-0-0-5|
A#||5555555599997777|555555599997777|5555555599997777|0-0-0--|


C ||----------------|---------------|----------------|-------|
G ||----------------|---------------|----------------|-------|
D#||----------------|---------------|----------------|-------|
A#||----------------|---------------|----------------|0-0-0--|
F ||1111111155553333|111111155553333|1111111155553333|0-0-0--|
A#||----------------|---------------|----------------|0-0-0--|
  ||GtrII           |               |                |       |
C ||----------------|---------------|----------------|-------|
G ||----------------|---------------|----------------|-------|
D#||----------------|---------------|----------------|-------|
A#||----------------|---------------|----------------|0-0-0--|
F ||----------------|---------------|----------------|0-0-0--|
A#||5555555599997777|555555599997777|5555555599997777|0-0-0--|



        Riff 4
    GtrI
C ||-------------|--------------|
G ||-------------|--------------|
D#||-------------|--------------|
A#||8/7--0-1--3--|8/7--0-1------|
F ||6/5--0-1--3--|6/5--0-1------|
A#||-----0-1--3--|-----0-1-3201-|
  ||GtrII        |         .... | X2
C ||-------------|--------------|
G ||-------------|--------------|
D#||-------------|--------------|
A#||8/7--0-1--3--|8/7--0-1------|
F ||6/5--0-1--3--|6/5--0-1------|
A#||-----0-1--3--|-----0-1-3201-|
                           ....



        Riff 5
    GtrI
C ||-------------|--------------|
G ||-------------|--------------|
D#||-------------|--------------|
A#||0----0-1--3--|8/7--0-1------|
F ||0----0-1--3--|6/5--0-1------|
A#||0----0-1--3--|-----0-1-3201-|
  ||.GtrII       |         .... | X2
C ||-------------|--------------|
G ||-------------|--------------|
D#||-------------|--------------|
A#||8/7--0-1--3--|8/7--0-1------|
F ||6/5--0-1--3--|6/5--0-1------|
A#||-----0-1--3--|-----0-1-3201-|
                           ....



        Bridge 2
    GtrI
C ||------------------|
G ||------------------|
D#||------------------|
A#||00-000-000-0------|
F ||------------2p0---|
A#||---------------3p0|
  ||GtrII             | X2
C ||------------------|
G ||------------------|
D#||------------------|
A#||------------------|
F ||------------2p0---|
A#||---------------3p0|


C ||------------------|
G ||------------------|
D#||------------------|
A#||00-000-000-0------|
F ||------------2p0---|
A#||---------------3p0|
  ||                  | X4
C ||------------------|
G ||------------------|
D#||------------------|
A#||00-000-000-0------|
F ||00-000-000-02p0---|
A#||00-000-000-0---3p0|



        Riff 7 (Solo?)
    GtrI
C ||-----------------|
G ||-----------------|
D#||-----------------|
A#||55-555-555-55555-|
F ||55-555-555-55555-|
A#||55-555-555-55555-|
  ||GtrII                 |
C ||---------------------------|
G ||---------------------------|
D#||---------------------------|
A#||--15--17--12--12--15--15h17|
F ||---------------------------|
A#||---------------------------|


C ||-----------------|
G ||-----------------|
D#||-----------------|
A#||55-555-555-55555-|
F ||55-555-555-55555-|
A#||55-555-555-55555-|\_______
  ||GtrII                     \
C ||---------------------------|
G ||---------------------------|
D#||---------------------------|
A#||--15--17--15--15--15--15h17|
F ||---------------------------|
A#||---------------------------|



        Bridge 3
    GtrI
C ||------------------|-----------|
G ||------------------|-----------|
D#||------------------|-----------|
A#||------------------|-----------|
F ||2---2---2---1p0---|-----1h0---|
A#||222222222023---1h3|--223---1h3|
  ||GtrII             |
C ||------------------|-----------|
G ||------------------|-----------|
D#||------------------|-----------|
A#||------------------|-----------|
F ||---------22-1p0---|--22-1p0---|
A#||---------223---1h3|--223---1h3|



        Riff 3
    GtrI
C ||----------------|---------------|----------------|-------|
G ||----------------|---------------|----------------|-------|
D#||----------------|---------------|----------------|------7|
A#||----------------|---------------|----------------|0-0-0-7|
F ||1111111155553333|111111155553333|1111111155553333|0-0-0-5|
A#||----------------|---------------|----------------|0-0-0--|
  ||GtrII           |               |                |       |
C ||----------------|---------------|----------------|-------|
G ||----------------|---------------|----------------|-------|
D#||----------------|---------------|----------------|------7|
A#||----------------|---------------|----------------|0-0-0-7|
F ||----------------|---------------|----------------|0-0-0-5|
A#||5555555599997777|555555599997777|5555555599997777|0-0-0--|


C ||----------------|---------------|----------------|-------|
G ||----------------|---------------|----------------|-------|
D#||----------------|---------------|----------------|-------|
A#||----------------|---------------|----------------|0-0-0--|
F ||1111111155553333|111111155553333|1111111155553333|0-0-0--|
A#||----------------|---------------|----------------|0-0-0--|
  ||GtrII           |               |                |       |
C ||----------------|---------------|----------------|-------|
G ||----------------|---------------|----------------|-------|
D#||----------------|---------------|----------------|-------|
A#||----------------|---------------|----------------|0-0-0--|
F ||----------------|---------------|----------------|0-0-0--|
A#||5555555599997777|555555599997777|5555555599997777|0-0-0--|



        Riff 4
    GtrI
C ||-------------|--------------|
G ||-------------|--------------|
D#||-------------|--------------|
A#||8/7--0-1--3--|8/7--0-1------|
F ||6/5--0-1--3--|6/5--0-1------|
A#||-----0-1--3--|-----0-1-3201-|
  ||GtrII        |         .... | X2
C ||-------------|--------------|
G ||-------------|--------------|
D#||-------------|--------------|
A#||8/7--0-1--3--|8/7--0-1------|
F ||6/5--0-1--3--|6/5--0-1------|
A#||-----0-1--3--|-----0-1-3201-|
                           ....




        Riff 1
    GtrI
C ||----------------|----------------|----------------|----------------|
G ||----------------|----------------|----------------|----------------|
D#||----------------|----------------|----------------|----------------|
A#||----------------|----------------|----------------|----------------|
F ||0---0---0-------|0---0---0-----8~|0---0---0-------|0---0---0---1p0-|
A#||0000000005558~7-|0000000005558---|0000000005558~7-|000000000555---3|
  ||GtrII           |                |                |                | 
C ||----------------|----------------|----------------|----------------|
G ||----------------|----------------|----------------|----------------|
D#||----------------|----------------|----------------|----------------|
A#||----------------|--------------7~|----------------|---------550----|
F ||0---0---0---5~4-|0---0---0---5~--|0---0---0---5~4-|0---0---05501p0-|
A#||000000000555----|000000000555----|000000000555----|000000000550---3|

C ||----------------|----------------|----------------|----------------|
G ||----------------|----------------|----------------|----------------|
D#||----------------|----------------|----------------|----------------|
A#||----------------|----------------|----------------|----------8-88--|
F ||0---0---0-------|0---0---0-----8~|0---0---0-------|0---0---0-6-66--|
A#||0000000005558~7-|0000000005558---|0000000005558~7-|000000000-------|
  ||                |                |                |                | 
C ||----------------|----------------|----------------|----------------|
G ||----------------|----------------|----------------|----------------|
D#||----------------|----------------|----------------|----------------|
A#||----------------|--------------7~|----------------|----------8-88--|
F ||0---0---0---5~4-|0---0---0---5~--|0---0---0---5~4-|0---0---0-6-66--|
A#||000000000555----|000000000555----|000000000555----|000000000-------|

C ||----------|
G ||----------|
D#||----------|
A#||1-1111111-|
F ||1-1111111-|
A#||1-1111111-|
  ||  ....... |   
C ||----------|
G ||----------|
D#||----------|
A#||1-1111111-|
F ||1-1111111-|
A#||1-1111111-|
     ....... 
comments
We did not receive enough feedback on this tab! Please rate:
print report bad tab
1 2 3 4 5
7 comments total. Showing first comments.
+1 reply
bodom murderer wrote on October 29 2006, 03:51 am

this is a gtreat tab ! 100% right ! but if someone can help me :
I need a bass tab and drum tab for this song before december.Please help me fellowtabfinders

0 reply
Leef wrote on November 18 2006, 01:31 pm

r u def? this doesnt make any damn sense at all m8....

0 reply
FoxBox wrote on July 27 2008, 03:32 pm

I can't even play this since I have no clue what tuning this damn tab is in...

I want to post or [tab]
guest
You may want to rate the tab now too:
select rating
Please do not post tabs as comments. Select "correction" instead!