Oops, an error
Loading. Please wait.

Sleepless Again Tab

ver1
ver1

Whole song

Interactive

More versions @911Tabs.com
16,601 views 37 this week
2 commentsread comments
1 2 3 4 5
excellent!
x 3
Autoscroll
+/-
esc
set tempo
stop
Contributor
NEW! There's an official Ultimate Guitar app which is ideal
for learning songs when you're away from computer. Get the app
WARNING: You are trying to view
                                    content from Ultimate-Guitar.com
                                    in an unauthorized application,
                                    which is prohibited.

                                    Please use an official Ultimate
                                    Guitar Tabs application for iPhone,
                                    iPad or Android to access legitimate
                                    chords, guitar, bass, and drum tabs
                                    from Ultimate-Guitar.com database.

                                    Type "ultimate guitar tabs" in Apple
                                    App Store's or Android Market's
                                    search to find the application.
                                Sleepless Again - In Flames                               


                                                                       
Acoustic Guitar I
Tempo=180 bpm

Tuning For all guitars low to high :
 A# F A# D# G C




       Intro                                                              
       H         H           H         H            H        E  E  Q      
C ||----------------------|---------------------|------------------------|
G ||----------------------|---------------------|------------------------|
D#||--10~-----------------|--9--------10--------|------------7--9--7~----|
A#||-------------7--------|---------------------|--10--------------------|
F ||----------------------|---------------------|------------------------|
A#||----------------------|---------------------|------------------------|


  H.           Q        H         H           H         H         
--------------------|----------------------|---------------------|
--------------------|----------------------|---------------------|
--L------------9----|--10~-----------------|--9--------10--------|
--------------------|-------------7--------|---------------------|
--------------------|----------------------|---------------------|
--------------------|----------------------|---------------------|


  S  E.  H.              H.           E                                       
----------------------|------------------|-----------|-----------|-----------|
----------------------|------------------|-----------|-----------|-----------|
--5s-7---5------------|--L------------L--|-----------|-----------|-----------|
----------------------|------------------|-----------|-----------|-----------|
----------------------|------------------|-----------|-----------|-----------|
----------------------|------------------|-----------|-----------|-----------|




______________________________________________________________________________
******************************************************************************
______________________________________________________________________________



Acoustic Guitar II

      Intro                                                               
      Q     Q    Q    Q       Q    Q    Q    Q       Q    Q    Q    Q     
C ||-----------------------|----------------------|----------------------|
G ||-----------------------|----------------------|----------------------|
D#||-----------------------|------------0---------|------------2---------|
A#||-------------0---------|-------3---------3----|-------2---------2----|
F ||--------0---------0----|--3-------------------|--0-------------------|
A#||--0--------------------|----------------------|----------------------|


  Q    Q    Q    Q       Q    Q    Q    Q       Q    Q    Q    Q     
----------------------|----------------------|----------------------|
----------------------|----------------------|----------------------|
------------3---------|----------------------|------------0---------|
-------3---------3----|------------0---------|-------3---------3----|
--1-------------------|-------0---------0----|--3-------------------|
----------------------|--0-------------------|----------------------|


  W                   H.           E                                           
-------------------|------------------|-------------------|-------------------|
-------------------|------------------|-------------------|-------------------|
--3----------------|--L------------L--|-------------------|-------------------|
--3----------------|--L------------L--|-------------------|-------------------|
--1----------------|--L------------L--|-------------------|-------------------|
-------------------|------------------|-------------------|-------------------|




______________________________________________________________________________
******************************************************************************
______________________________________________________________________________



Rhythm guitar I(Distortion)



      Intro                                                     
      W                   W                   W                 
C ||-------------------|-------------------|-------------------|
G ||-------------------|-------------------|-------------------|
D#||-------------------|-------------------|-------------------|
A#||-------------------|-------------------|-------------------|
F ||-------------------|-------------------|-------------------|
A#||-------------------|-------------------|-------------------|


  W                   W                   W                   W                 
-------------------|-------------------|-------------------|-------------------|
-------------------|-------------------|-------------------|-------------------|
-------------------|-------------------|-------------------|-------------------|
-------------------|-------------------|-------------------|-------------------|
-------------------|-------------------|-------------------|-------------------|
-------------------|-------------------|-------------------|-------------------|


  H        Q    E     Q    E  E  E  E  E  E     Q    E  E  E  E  E  E   
-------------------|-------------------------|-------------------------|
-------------------|-------------------------|-------------------------|
-------------------|-------------------------|-------------------------|
-------------------|-------------------------|----------------7--3--5--|
-------------------|--0----0--------5--1-----|--0----0-----------------|
-------------------|--0----0--0--0--------3--|--0----0--0--0-----------|


  Q    E  E  E  E  E  E     Q    E  E  E  E  E  E     Q    E  E  E  E  E  E   
-------------------------|-------------------------|-------------------------|
-------------------------|-------------------------|-------------------------|
-------------------------|-------------------------|-------------------------|
-------------------------|-------------------------|-------------------------|
--0----0--------5--1-----|--0----0--------5--7--8--|--0----0--------5--1-----|
--0----0--0--0--------3--|--0----0--0--0--5--7--8--|--0----0--0--0--------3--|


  Q    E  E  E  E  E  E     E  E  E  E  E  E  E  E     W                 
-------------------------|--------------------------|-------------------|
-------------------------|--------------------------|-------------------|
-------------------------|--------------------------|-------------------|
----------------7--3--5--|--------------------------|-------------------|
--0----0-----------------|--0-----3-----5-----7-----|--8----------------|
--0----0--0--0-----------|--0-----3-----5-----7-----|--8----------------|


  Verse I                                              
  Q       E  E  E  E  E  E     Q    E  E  E  E  E  E   
----------------------------|-------------------------|
----------------------------|-------------------------|
----------------------------|-------------------------|
----------------------------|----------------7--3--5--|
--0-------0--------5--1-----|--0----0-----------------|
--0-------0--0--0--------3--|--0----0--0--0-----------|


  Q    E  E  E  E  E  E     Q    E  E  E  E  E  E     Q    E  E  E  E  E  E   
-------------------------|-------------------------|-------------------------|
-------------------------|-------------------------|-------------------------|
-------------------------|-------------------------|-------------------------|
-------------------------|-------------------------|-------------------------|
--0----0--------5--1-----|--0----0--------5--7--8--|--0----0--------5--1-----|
--0----0--0--0--------3--|--0----0--0--0--5--7--8--|--0----0--0--0--------3--|


  Q    E  E  E  E  E  E     E  E  E  E  E  E  E  E     H         H         
-------------------------|--------------------------|---------------------|
-------------------------|--------------------------|---------------------|
-------------------------|--------------------------|---------------------|
----------------7--3--5--|--------------------------|---------------------|
--0----0-----------------|--0-----3-----5-----7-----|--8--------10--------|
--0----0--0--0-----------|--0-----3-----5-----7-----|--8--------10--------|


  Pre-Chorus                                              
             |-3-|                                        
  Q          S S S E  E  E  E  E     Q    Q    Q    Q     
----------------------------------|----------------------|
----------------------------------|----------------------|
----------------------------------|----------------------|
--7----------5-7-5-3--5--3--2--0--|--3----3----5----5----|
----------------------------------|--1----1----3----3----|
----------------------------------|----------------------|


                               Chorus                       
  Q    E  E  E  E  E  E  E     E      E  E  E  E  E  E  E   
----------------------------|------------------------------|
----------------------------|------------------------------|
----------------------------|------------------------------|
--7-------------------------|--0------0--0--0--0--0--0--0--|
----------------------------|--0------0--0--0--0--0--0--0--|
-------0--0--0--0--0--0--0--|--0------0--0--0--0--0--0--0--|


  E  E  E  E  E  E  E  E     E  E  E  E  E  E  E  E   
--------------------------|--------------------------|
--------------------------|--------------------------|
--------------------------|--------------------------|
--0--0--0--0--7--7--7--7--|--8--8--8--8--8--8--8--8--|
--0--0--0--0--7--7--7--7--|--8--8--8--8--8--8--8--8--|
--0--0--0--0--7--7--7--7--|--8--8--8--8--8--8--8--8--|


  E  E  E  E   E   E   E   E      E   E   E   E   E   E   E   E   
------------------------------|----------------------------------|
------------------------------|----------------------------------|
------------------------------|----------------------------------|
--8--8--8--8--10--10--10--10--|--12--12--12--12--12--12--12--12--|
--8--8--8--8--10--10--10--10--|--12--12--12--12--12--12--12--12--|
--8--8--8--8--10--10--10--10--|--12--12--12--12--12--12--12--12--|


   E   E   E   E  E  E  E  E     E  E  E  E  E  E  E  E   
------------------------------|--------------------------|
------------------------------|--------------------------|
------------------------------|--------------------------|
--12--12--12--12--7--7--7--7--|--8--8--8--8--8--8--8--8--|
--12--12--12--12--7--7--7--7--|--8--8--8--8--8--8--8--8--|
--12--12--12--12--7--7--7--7--|--8--8--8--8--8--8--8--8--|


  E  E  E  E   E   E   E   E     E  E  E  Q    E  E  E     H        E  E  Q     
------------------------------|-------------------------|----------------------|
------------------------------|-------------------------|----------------------|
------------------------------|-------------------------|----------------------|
--8--8--8--8--10--10--10--10--|--0--0--0-------0--0--0--|-----------7--7--7----|
--8--8--8--8--10--10--10--10--|--0--0--0-------0--0--0--|-----------7--7--7----|
--8--8--8--8--10--10--10--10--|--0--0--0-------0--0--0--|-----------7--7--7----|


  E  E  E  Q    E  E  E     H         E   E   E   E   
-------------------------|---------------------------|
-------------------------|---------------------------|
-------------------------|---------------------------|
--8--8--8-------8--8--8--|-----------10--10--10--10--|
--8--8--8-------8--8--8--|-----------10--10--10--10--|
--8--8--8-------8--8--8--|-----------10--10--10--10--|


   E   E   E  Q     E   E   E     H        E  E  Q     
-------------------------------|----------------------|
-------------------------------|----------------------|
-------------------------------|----------------------|
--12--12--12-------12--12--12--|-----------7--7--7----|
--12--12--12-------12--12--12--|-----------7--7--7----|
--12--12--12-------12--12--12--|-----------7--7--7----|


  E  E  E  Q    E  E  E     H         E   E   E   E   
-------------------------|---------------------------|
-------------------------|---------------------------|
-------------------------|---------------------------|
--8--8--8-------8--8--8--|-----------10--10--10--10--|
--8--8--8-------8--8--8--|-----------10--10--10--10--|
--8--8--8-------8--8--8--|-----------10--10--10--10--|


   E   E   E   E   E   E   E   E     E   E   E   E   E   E   E   E   
----------------------------------|---------------------------------|
----------------------------------|---------------------------------|
----------------------------------|---------------------------------|
--12--12--12--12--12--12--12--12--|-----10--10--10--10--10--10--10--|
--12--12--12--12--12--12--12--12--|-----10--10--10--10--10--10--10--|
--12--12--12--12--12--12--12--12--|-----10--10--10--10--10--10--10--|


  E  E  E  E  E  E  E  E     E  E  E  E  E  E  Q     
--------------------------|-------------------------|
--------------------------|-------------------------|
--------------------------|--------------5-----L----|
--8--8--8--8--8--8--8--8--|--------3--------3--L----|
--8--8--8--8--8--8--8--8--|--------------------3----|
--8--8--8--8--8--8--8--8--|--0--0-----0-------------|


   E   E   E   E   E   E   E   E     E   E   E   E   E   E   E   E   
----------------------------------|---------------------------------|
----------------------------------|---------------------------------|
----------------------------------|---------------------------------|
--12--12--12--12--12--12--12--12--|-----10--10--10--10--10--10--10--|
--12--12--12--12--12--12--12--12--|-----10--10--10--10--10--10--10--|
--12--12--12--12--12--12--12--12--|-----10--10--10--10--10--10--10--|


  E  E  E  E  E  E  E  E     E  E  E  E  E  E  E   
--------------------------|-----------------------|
--------------------------|-----------------------|
--------------------------|-----------------------|
--8--8--8--8--8--8--8--8--|--8--8--8--8--8--8--8--|
--8--8--8--8--8--8--8--8--|--8--8--8--8--8--8--8--|
--8--8--8--8--8--8--8--8--|--8--8--8--8--8--8--8--|


  Verse II                                              
  Q        E  E  E  E  E  E     Q    E  E  E  E  E  E   
-----------------------------|-------------------------|
-----------------------------|-------------------------|
-----------------------------|-------------------------|
-----------------------------|----------------7--3--5--|
--0--------0--------5--1-----|--0----0-----------------|
--0--------0--0--0--------3--|--0----0--0--0-----------|


  Q    E  E  E  E  E  E     Q    E  E  E  E  E  E     Q    E  E  E  E  E  E   
-------------------------|-------------------------|-------------------------|
-------------------------|-------------------------|-------------------------|
-------------------------|-------------------------|-------------------------|
-------------------------|-------------------------|-------------------------|
--0----0--------5--1-----|--0----0--------5--7--8--|--0----0--------5--1-----|
--0----0--0--0--------3--|--0----0--0--0--5--7--8--|--0----0--0--0--------3--|


  Q    E  E  E  E  E  E     E  E  E  E  E  E  E  E     H         H         
-------------------------|--------------------------|---------------------|
-------------------------|--------------------------|---------------------|
-------------------------|--------------------------|---------------------|
----------------7--3--5--|--------------------------|---------------------|
--0----0-----------------|--0-----3-----5-----7-----|--8--------10--------|
--0----0--0--0-----------|--0-----3-----5-----7-----|--8--------10--------|


  Pre-Chorus                                              
             |-3-|                                        
  Q          S S S E  E  E  E  E     Q    Q    Q    Q     
----------------------------------|----------------------|
----------------------------------|----------------------|
----------------------------------|----------------------|
--7----------5-7-5-3--5--3--2--0--|--3----3----5----5----|
----------------------------------|--1----1----3----3----|
----------------------------------|----------------------|


       |-3-|                                        
  Q    S S S E  E  E  E  E     Q    Q    Q    Q     
----------------------------|----------------------|
----------------------------|----------------------|
----------------------------|----------------------|
--7----5-7-5-3--5--3--2--0--|--3----3----5----5----|
----------------------------|--1----1----3----3----|
----------------------------|----------------------|


       |-3-|                                                               
  Q    S S S E  E  E  E  E     Q    Q    Q    Q       W                E   
----------------------------|----------------------|----------------------|
----------------------------|----------------------|----------------------|
----------------------------|----------------------|-------------------L--|
--7----5-7-5-3--5--3--2--0--|--3----3----5----5----|--7----------------L--|
----------------------------|--1----1----3----3----|----------------------|
----------------------------|----------------------|----------------------|


  Chorus                                                  
  E      E  E  E  E  E  E  E     E  E  E  E  E  E  E  E   
------------------------------|--------------------------|
------------------------------|--------------------------|
------------------------------|--------------------------|
--0------0--0--0--0--0--0--0--|--0--0--0--0--7--7--7--7--|
--0------0--0--0--0--0--0--0--|--0--0--0--0--7--7--7--7--|
--0------0--0--0--0--0--0--0--|--0--0--0--0--7--7--7--7--|


  E  E  E  E  E  E  E  E     E  E  E  E   E   E   E   E   
--------------------------|------------------------------|
--------------------------|------------------------------|
--------------------------|------------------------------|
--8--8--8--8--8--8--8--8--|--8--8--8--8--10--10--10--10--|
--8--8--8--8--8--8--8--8--|--8--8--8--8--10--10--10--10--|
--8--8--8--8--8--8--8--8--|--8--8--8--8--10--10--10--10--|


   E   E   E   E   E   E   E   E      E   E   E   E  E  E  E  E   
----------------------------------|------------------------------|
----------------------------------|------------------------------|
----------------------------------|------------------------------|
--12--12--12--12--12--12--12--12--|--12--12--12--12--7--7--7--7--|
--12--12--12--12--12--12--12--12--|--12--12--12--12--7--7--7--7--|
--12--12--12--12--12--12--12--12--|--12--12--12--12--7--7--7--7--|


  E  E  E  E  E  E  E  E     E  E  E  E   E   E   E   E   
--------------------------|------------------------------|
--------------------------|------------------------------|
--------------------------|------------------------------|
--8--8--8--8--8--8--8--8--|--8--8--8--8--10--10--10--10--|
--8--8--8--8--8--8--8--8--|--8--8--8--8--10--10--10--10--|
--8--8--8--8--8--8--8--8--|--8--8--8--8--10--10--10--10--|


  E  E  E  Q    E  E  E     H        E  E  Q       E  E  E  Q    E  E  E   
-------------------------|----------------------|-------------------------|
-------------------------|----------------------|-------------------------|
-------------------------|----------------------|-------------------------|
--0--0--0-------0--0--0--|-----------7--7--7----|--8--8--8-------8--8--8--|
--0--0--0-------0--0--0--|-----------7--7--7----|--8--8--8-------8--8--8--|
--0--0--0-------0--0--0--|-----------7--7--7----|--8--8--8-------8--8--8--|


  H         E   E   E   E      E   E   E  Q     E   E   E   
---------------------------|-------------------------------|
---------------------------|-------------------------------|
---------------------------|-------------------------------|
-----------10--10--10--10--|--12--12--12-------12--12--12--|
-----------10--10--10--10--|--12--12--12-------12--12--12--|
-----------10--10--10--10--|--12--12--12-------12--12--12--|


  H        E  E  Q       E  E  E  Q    E  E  E     H         E   E   E   E   
----------------------|-------------------------|---------------------------|
----------------------|-------------------------|---------------------------|
----------------------|-------------------------|---------------------------|
-----------7--7--7----|--8--8--8-------8--8--8--|-----------10--10--10--10--|
-----------7--7--7----|--8--8--8-------8--8--8--|-----------10--10--10--10--|
-----------7--7--7----|--8--8--8-------8--8--8--|-----------10--10--10--10--|


  Interlude                                                               
  E         E  E   E   E   E   E   E      E   E   E   E   E   E   E   E   
--------------------------------------|----------------------------------|
------------------------------13--13--|--13--15--15--15--10--10--11--11--|
--9---------9--9--10--10--10----------|----------------------------------|
--------------------------------------|----------------------------------|
--------------------------------------|----------------------------------|
--------------------------------------|----------------------------------|


   E   E   E   E   E   E   E   E      E  E  E  E   E   E   E   E   
----------------------------------|-------------------------------|
--10--10--10----------------------|-------------------------------|
--------------12--12--12--10--10--|--10--9--9--9--10--10--12--12--|
----------------------------------|-------------------------------|
----------------------------------|-------------------------------|
----------------------------------|-------------------------------|


  E  E  E   E   E   E   E   E      E   E   E   E   E   E   E   E   
-------------------------------|----------------------------------|
-----------------------13--13--|--13--15--15--15--10--10--11--11--|
--9--9--9--10--10--10----------|----------------------------------|
-------------------------------|----------------------------------|
-------------------------------|----------------------------------|
-------------------------------|----------------------------------|


   E   E   E   E   E   E   E   E      E  E  E  E   E   E   E   E   
----------------------------------|-------------------------------|
--10--10--10----------------------|-------------------------------|
--------------12--12--12--10--10--|--10--9--9--9--10--10--12--12--|
----------------------------------|-------------------------------|
----------------------------------|-------------------------------|
----------------------------------|-------------------------------|


                                    |--3-|                        
   E  E  E   E   E   E   Q       E  S  S S  E  E   E  E   E   E   
------------------------------|----------------------------------|
--10------------10--11--10----|--L--8-10-8------------8--10--11--|
------7--7--10----------------|------------10--9--10-------------|
------------------------------|----------------------------------|
------------------------------|----------------------------------|
------------------------------|----------------------------------|


                                    |--3-|                        
   E  E  E   E   E   E   Q       E  S  S S  E  E   E  E   E   E   
------------------------------|----------------------------------|
--10------------10--11--10----|--L--8-10-8------------8--10--11--|
------7--7--10----------------|------------10--9--10-------------|
------------------------------|----------------------------------|
------------------------------|----------------------------------|
------------------------------|----------------------------------|


  E  E  E  E  H           W                   S S S E  E  S H         
-----------------------|-------------------|-------------------------|
-----------------------|-------------------|-------------------------|
-----------------------|-------------------|-------------------------|
--8--8--8--------------|-------------------|--8-8-8-8----------------|
--8--8--8--------------|-------------------|--8-8-8-8----------------|
--8--8--8--------------|-------------------|--8-8-8-8----------------|


  W                   E  E  E   E   E   E   E   E   
-------------------|-------------------------------|
-------------------|-----------------------13--13--|
-------------------|--9--9--9--10--10--10----------|
-------------------|-------------------------------|
-------------------|-------------------------------|
-------------------|-------------------------------|


   E   E   E   E   E   E   E   E      E   E   E   E   E   E   E   E   
----------------------------------|----------------------------------|
--13--15--15--15--10--10--11--11--|--10--10--10----------------------|
----------------------------------|--------------12--12--12--10--10--|
----------------------------------|----------------------------------|
----------------------------------|----------------------------------|
----------------------------------|----------------------------------|


   E  E  E  E   E   E   E   E      E  E  E   E   E   E   Q     
-------------------------------|------------------------------|
-------------------------------|--10------------10--11--10----|
--10--9--9--9--10--10--12--12--|------7--7--10----------------|
-------------------------------|------------------------------|
-------------------------------|------------------------------|
-------------------------------|------------------------------|


     |--3-|                                                       
  E  S  S S  E  E   E  E   E   E      E  E  E   E   E   E   Q     
----------------------------------|------------------------------|
--L--8-10-8------------8--10--11--|--10------------10--11--10----|
------------10--9--10-------------|------7--7--10----------------|
----------------------------------|------------------------------|
----------------------------------|------------------------------|
----------------------------------|------------------------------|


                                      Solo                 
     |--3-|                                                
  E  S  S S  E  E   E  E   E   E      Q.      Q.     Q     
----------------------------------|-----------------------|
--L--8-10-8------------8--10--11--|-----------------------|
------------10--9--10-------------|--10-------------------|
----------------------------------|----------10------8----|
----------------------------------|-----------------------|
----------------------------------|-----------------------|


  E  Q.     H            Q.      Q.      Q       E  Q.      H         
----------------------|-----------------------|----------------------|
----------------------|-----------------------|------------10--------|
----------------------|--9--------------------|----------------------|
--L--7----------------|---------10------/8----|--L--7----------------|
------------8~--------|-----------------------|----------------------|
----------------------|-----------------------|----------------------|


   E    Q     Q.      Q       E  Q.      Q     Q        H.            E   E   
---------------------------|------------------------|------------------------|
--11s--10~----8------------|------------------------|------------------------|
---------------------10----|--L--9------10----12----|--10~------------9--10--|
---------------------------|------------------------|------------------------|
---------------------------|------------------------|------------------------|
---------------------------|------------------------|------------------------|


             |--3--|   |--3--|                     |---3---|   
  H          E  E  E   E  E  E      H.             E   E   E   
--------------------------------|-----------------------------|
--------------------------------|-------------------------10--|
--9~----------------------7--9--|--10~------------10--12------|
----------------7--8--10--------|-----------------------------|
------------10------------------|-----------------------------|
--------------------------------|-----------------------------|


                                                  |---3---|   
   Q     S  S  E   Q     Q        H.              E   E   E   
------------------------------|------------------------------|
--11----10-11-10--------------|--------------------------10--|
------------------12----10----|--12b~------------10--12------|
------------------------------|------------------------------|
------------------------------|------------------------------|
------------------------------|------------------------------|


                                             |---3---|   |---3---|   
   Q     S  S  E   Q     Q        H          E   E   E   E   E   E   
------------------------------|-------------13--10------------------|
--11----10-11-10--------------|---------------------13--10----------|
------------------12----10----|--10~------------------------12--10--|
------------------------------|-------------------------------------|
------------------------------|-------------------------------------|
------------------------------|-------------------------------------|


                           W         
   |---3---|   |---3---|             
   E   E   E   E   E   E   H         
------------------------------------|
--13--10------------------10--------|
----------12--10--------------------|
------------------12--10------------|
------------------------------------|
------------------------------------|


   S  S  S  S  S  S  S  S  S  S  S  S  S  S  S  S  
--17-13----------------13-17-13----------------13-|
--------15----------15----------15----------15----|
-----------14----14----------------14----14-------|
--------------15----------------------15----------|
--------------------------------------------------|
--------------------------------------------------|


                                                      Break              
   S  S  S  S  S  S  S  S  S  S  S  S  S  S  S  S     W                  
--18-13-18-13----------13-17-13-17-13----------13-|--17b----------------|
--------------15----15----------------15----15----|---------------------|
-----------------14----------------------14-------|---------------------|
--------------------------------------------------|---------------------|
--------------------------------------------------|---------------------|
--------------------------------------------------|---------------------|


   W                   W                   H        E  E  Q     
---L----------------|--L----------------|--L-------------------|
---L----------------|-------------------|----------------------|
--------------------|-------------------|-----------3--3-------|
--------------------|-------------------|-----------3--3-------|
--------------------|-------------------|-----------1--1-------|
--------------------|-------------------|----------------------|


  W                   W                   W                   W                 
-------------------|-------------------|-------------------|-------------------|
-------------------|-------------------|-------------------|-------------------|
-------------------|-------------------|-------------------|-------------------|
-------------------|-------------------|-------------------|-------------------|
-------------------|-------------------|-------------------|-------------------|
-------------------|-------------------|-------------------|-------------------|


  W                   W                   W                   W                 
-------------------|-------------------|-------------------|-------------------|
-------------------|-------------------|-------------------|-------------------|
-------------------|-------------------|-------------------|-------------------|
-------------------|-------------------|-------------------|-------------------|
-------------------|-------------------|-------------------|-------------------|
-------------------|-------------------|-------------------|-------------------|


  W                   W                   E  E  E  E  E  E  E  E   
-------------------|-------------------|--5--5--5--5--5--5--5--5--|
-------------------|-------------------|--------------------------|
-------------------|-------------------|--------------------------|
-------------------|-------------------|--------------------------|
-------------------|-------------------|--------------------------|
-------------------|-------------------|--------------------------|


  E  E  E  E  E  E  E  E     E  E  E  E  E  E  E  E   
--5--5--5--5--5--5--5--5--|--------------------------|
--------------------------|--6--6--6--6--6--6--6--6--|
--------------------------|--------------------------|
--------------------------|--------------------------|
--------------------------|--------------------------|
--------------------------|--------------------------|


  E  E  E  E  E  E  E  E     W                   W                 
--------------5--5--5--5--|--5----------------|--L----------------|
--8--8--8--8--------------|-------------------|-------------------|
--------------------------|-------------------|-------------------|
--------------------------|-------------------|-------------------|
--------------------------|-------------------|-------------------|
--------------------------|-------------------|-------------------|


                                          Chorus                       
  W                   W                   E      E  E  E  E  E  E  E   
--6----------------|--8----------------|------------------------------|
-------------------|-------------------|------------------------------|
-------------------|-------------------|------------------------------|
-------------------|-------------------|--0------0--0--0--0--0--0--0--|
-------------------|-------------------|--0------0--0--0--0--0--0--0--|
-------------------|-------------------|--0------0--0--0--0--0--0--0--|


  E  E  E  E  E  E  E  E     E  E  E  E  E  E  E  E   
--------------------------|--------------------------|
--------------------------|--------------------------|
--------------------------|--------------------------|
--0--0--0--0--7--7--7--7--|--8--8--8--8--8--8--8--8--|
--0--0--0--0--7--7--7--7--|--8--8--8--8--8--8--8--8--|
--0--0--0--0--7--7--7--7--|--8--8--8--8--8--8--8--8--|


  E  E  E  E   E   E   E   E      E   E   E   E   E   E   E   E   
------------------------------|----------------------------------|
------------------------------|----------------------------------|
------------------------------|----------------------------------|
--8--8--8--8--10--10--10--10--|--12--12--12--12--12--12--12--12--|
--8--8--8--8--10--10--10--10--|--12--12--12--12--12--12--12--12--|
--8--8--8--8--10--10--10--10--|--12--12--12--12--12--12--12--12--|


   E   E   E   E  E  E  E  E     E  E  E  E  E  E  E  E   
------------------------------|--------------------------|
------------------------------|--------------------------|
------------------------------|--------------------------|
--12--12--12--12--7--7--7--7--|--8--8--8--8--8--8--8--8--|
--12--12--12--12--7--7--7--7--|--8--8--8--8--8--8--8--8--|
--12--12--12--12--7--7--7--7--|--8--8--8--8--8--8--8--8--|


  E  E  E  E   E   E   E   E     E  E  E  Q    E  E  E     H        E  E  Q     
------------------------------|-------------------------|----------------------|
------------------------------|-------------------------|----------------------|
------------------------------|-------------------------|----------------------|
--8--8--8--8--10--10--10--10--|--0--0--0-------0--0--0--|-----------7--7--7----|
--8--8--8--8--10--10--10--10--|--0--0--0-------0--0--0--|-----------7--7--7----|
--8--8--8--8--10--10--10--10--|--0--0--0-------0--0--0--|-----------7--7--7----|


  E  E  E  Q    E  E  E     H         E   E   E   E   
-------------------------|---------------------------|
-------------------------|---------------------------|
-------------------------|---------------------------|
--8--8--8-------8--8--8--|-----------10--10--10--10--|
--8--8--8-------8--8--8--|-----------10--10--10--10--|
--8--8--8-------8--8--8--|-----------10--10--10--10--|


   E   E   E  Q     E   E   E     H        E  E  Q     
-------------------------------|----------------------|
-------------------------------|----------------------|
-------------------------------|----------------------|
--12--12--12-------12--12--12--|-----------7--7--7----|
--12--12--12-------12--12--12--|-----------7--7--7----|
--12--12--12-------12--12--12--|-----------7--7--7----|


  E  E  E  Q    E  E  E     H         E   E   E   E   
-------------------------|---------------------------|
-------------------------|---------------------------|
-------------------------|---------------------------|
--8--8--8-------8--8--8--|-----------10--10--10--10--|
--8--8--8-------8--8--8--|-----------10--10--10--10--|
--8--8--8-------8--8--8--|-----------10--10--10--10--|


   E   E   E   E   E   E   E   E     E   E   E   E   E   E   E   E   
----------------------------------|---------------------------------|
----------------------------------|---------------------------------|
----------------------------------|---------------------------------|
--12--12--12--12--12--12--12--12--|-----10--10--10--10--10--10--10--|
--12--12--12--12--12--12--12--12--|-----10--10--10--10--10--10--10--|
--12--12--12--12--12--12--12--12--|-----10--10--10--10--10--10--10--|


  E  E  E  E  E  E  E  E     E  E  E  E  E  E  Q     
--------------------------|-------------------------|
--------------------------|-------------------------|
--------------------------|--------------5-----L----|
--8--8--8--8--8--8--8--8--|--------3--------3--L----|
--8--8--8--8--8--8--8--8--|--------------------3----|
--8--8--8--8--8--8--8--8--|--0--0-----0-------------|


   E   E   E   E   E   E   E   E     E   E   E   E   E   E   E   E   
----------------------------------|---------------------------------|
----------------------------------|---------------------------------|
----------------------------------|---------------------------------|
--12--12--12--12--12--12--12--12--|-----10--10--10--10--10--10--10--|
--12--12--12--12--12--12--12--12--|-----10--10--10--10--10--10--10--|
--12--12--12--12--12--12--12--12--|-----10--10--10--10--10--10--10--|


  E  E  E  E  E  E  E  E     E  E  E  E  E  E  E  E   
--------------------------|--------------------------|
--------------------------|--------------------------|
--------------------------|--------------------------|
--8--8--8--8--8--8--8--8--|--8--8--8--8--8--8--8--8--|
--8--8--8--8--8--8--8--8--|--8--8--8--8--8--8--8--8--|
--8--8--8--8--8--8--8--8--|--8--8--8--8--8--8--8--8--|


   E   E   E   E   E   E   E   E     E   E   E   E   E   E   E   E   
----------------------------------|---------------------------------|
----------------------------------|---------------------------------|
----------------------------------|---------------------------------|
--12--12--12--12--12--12--12--12--|-----10--10--10--10--10--10--10--|
--12--12--12--12--12--12--12--12--|-----10--10--10--10--10--10--10--|
--12--12--12--12--12--12--12--12--|-----10--10--10--10--10--10--10--|


  E  E  E  E  E  E  E  E     E  E  E  E  E  E  Q     
--------------------------|-------------------------|
--------------------------|-------------------------|
--------------------------|--------------5-----L----|
--8--8--8--8--8--8--8--8--|--------3--------3--L----|
--8--8--8--8--8--8--8--8--|--------------------3----|
--8--8--8--8--8--8--8--8--|--0--0-----0-------------|


   E   E   E   E   E   E   E   E     E   E   E   E   E   E   E   E   
----------------------------------|---------------------------------|
----------------------------------|---------------------------------|
----------------------------------|---------------------------------|
--12--12--12--12--12--12--12--12--|-----10--10--10--10--10--10--10--|
--12--12--12--12--12--12--12--12--|-----10--10--10--10--10--10--10--|
--12--12--12--12--12--12--12--12--|-----10--10--10--10--10--10--10--|


  E  E  E  E  E  E  E  E     E  E  E  E  E  E  E  E   
--------------------------|--------------------------|
--------------------------|--------------------------|
--------------------------|--------------------------|
--8--8--8--8--8--8--8--8--|--8--8--8--8--8--8--8--8--|
--8--8--8--8--8--8--8--8--|--8--8--8--8--8--8--8--8--|
--8--8--8--8--8--8--8--8--|--8--8--8--8--8--8--8--8--|


   Outro                                                            
                                      |--3-|                        
   E    E  E   E   E   E   Q       E  S  S S  E  E   E  E   E   E   
--------------------------------|----------------------------------|
--10--------------10--11--10----|--L--8-10-8------------8--10--11--|
--------7--7--10----------------|------------10--9--10-------------|
--------------------------------|----------------------------------|
--------------------------------|----------------------------------|
--------------------------------|----------------------------------|


                                    |--3-|                        
   E  E  E   E   E   E   Q       E  S  S S  E  E   E  E   E   E   
------------------------------|----------------------------------|
--10------------10--11--10----|--L--8-10-8------------8--10--11--|
------7--7--10----------------|------------10--9--10-------------|
------------------------------|----------------------------------|
------------------------------|----------------------------------|
------------------------------|----------------------------------|


                                    |--3-|                        
   E  E  E   E   E   E   Q       E  S  S S  E  E   E  E   E   E   
------------------------------|----------------------------------|
--10------------10--11--10----|--L--8-10-8------------8--10--11--|
------7--7--10----------------|------------10--9--10-------------|
------------------------------|----------------------------------|
------------------------------|----------------------------------|
------------------------------|----------------------------------|


                                    |--3-|                        
   E  E  E   E   E   E   Q       E  S  S S  E  E   E  E   E   E   
------------------------------|----------------------------------|
--10------------10--11--10----|--L--8-10-8------------8--10--11--|
------7--7--10----------------|------------10--9--10-------------|
------------------------------|----------------------------------|
------------------------------|----------------------------------|
------------------------------|----------------------------------|


  W                  
-------------------||
-------------------||
-------------------||
-------------------||
-------------------||
-------------------||



__________________________________________________________________
******************************************************************
__________________________________________________________________



Rhythm Guitar II (Distortion)




      Intro                                                     
      W                   W                   W                 
C ||-------------------|-------------------|-------------------|
G ||-------------------|-------------------|-------------------|
D#||-------------------|-------------------|-------------------|
A#||-------------------|-------------------|-------------------|
F ||-------------------|-------------------|-------------------|
A#||-------------------|-------------------|-------------------|


  W                   W                   W                   W                 
-------------------|-------------------|-------------------|-------------------|
-------------------|-------------------|-------------------|-------------------|
-------------------|-------------------|-------------------|-------------------|
-------------------|-------------------|-------------------|-------------------|
-------------------|-------------------|-------------------|-------------------|
-------------------|-------------------|-------------------|-------------------|


  H        Q    E     Q    E  E  E  E  E  E     Q    E  E  E  E  E  E   
-------------------|-------------------------|-------------------------|
-------------------|-------------------------|-------------------------|
-------------------|-------------------------|-------------------------|
-------------------|-------------------------|-------------------------|
-------------------|--0----0--------5--1-----|--0----0--------8--5--7--|
-------------------|--0----0--0--0--------3--|--0----0--0--0-----------|


  Q    E  E  E  E  E  E     Q    E  E  E  E  E  E     Q    E  E  E  E  E  E   
-------------------------|-------------------------|-------------------------|
-------------------------|-------------------------|-------------------------|
-------------------------|-------------------------|-------------------------|
-------------------------|-------------------------|-------------------------|
--0----0--------5--1-----|--0----0--------5--7--8--|--0----0--------5--1-----|
--0----0--0--0--------3--|--0----0--0--0--5--7--8--|--0----0--0--0--------3--|


  Q    E  E  E  E  E  E     E  E  E  E  E  E  E  E     W                 
-------------------------|--------------------------|-------------------|
-------------------------|--------------------------|-------------------|
-------------------------|--------------------------|-------------------|
-------------------------|--------------------------|-------------------|
--0----0--------8--5--7--|--0-----3-----5-----7-----|--8----------------|
--0----0--0--0-----------|--0-----3-----5-----7-----|--8----------------|


  Verse I                                              
  Q       E  E  E  E  E  E     Q    E  E  E  E  E  E   
----------------------------|-------------------------|
----------------------------|-------------------------|
----------------------------|-------------------------|
----------------------------|-------------------------|
--0-------0--------5--1-----|--0----0--------8--5--7--|
--0-------0--0--0--------3--|--0----0--0--0-----------|


  Q    E  E  E  E  E  E     Q    E  E  E  E  E  E     Q    E  E  E  E  E  E   
-------------------------|-------------------------|-------------------------|
-------------------------|-------------------------|-------------------------|
-------------------------|-------------------------|-------------------------|
-------------------------|-------------------------|-------------------------|
--0----0--------5--1-----|--0----0--------5--7--8--|--0----0--------5--1-----|
--0----0--0--0--------3--|--0----0--0--0--5--7--8--|--0----0--0--0--------3--|


  Q    E  E  E  E  E  E     E  E  E  E  E  E  E  E     H         H         
-------------------------|--------------------------|---------------------|
-------------------------|--------------------------|---------------------|
-------------------------|--------------------------|---------------------|
-------------------------|--------------------------|---------------------|
--0----0--------8--5--7--|--0-----3-----5-----7-----|--8--------10--------|
--0----0--0--0-----------|--0-----3-----5-----7-----|--8--------10--------|


  Pre-Chorus                                              
             |-3-|                                        
  Q          S S S E  E  E  E  E     Q    Q    Q    Q     
----------------------------------|----------------------|
----------------------------------|----------------------|
----------------------------------|----------------------|
--3----------2-3-2-0--2--0--------|--3----3----5----5----|
----------------------------3--1--|--1----1----3----3----|
----------------------------------|----------------------|


                               Chorus                       
  Q    E  E  E  E  E  E  E     E      E  E  E  E  E  E  E   
----------------------------|------------------------------|
----------------------------|------------------------------|
----------------------------|------------------------------|
--3-------------------------|------------7-----7-----7-----|
----------------------------|--5------5-----5-----5-----5--|
-------0--0--0--0--0--0--0--|------------------------------|


  E  E  E  E  E  E  E  E     E  E  E  E  E  E  E  E   
--------------------------|--------------------------|
--------------------------|--------------------------|
--------------------------|--------------------------|
--------7--------2-----2--|--------3-----3-----3-----|
--5--5-----5--0-----0-----|--1--1-----1-----1-----1--|
--------------------------|--------------------------|


  E  E  E  E  E  E  E  E     E  E  E  E  E  E  E  E   
--------------------------|--------------------------|
--------------------------|--------------------------|
--------------------------|--------------------------|
--------3-----------5-----|--------7-----7-----7-----|
--1--1-----1--3--3-----3--|--5--5-----5-----5-----5--|
--------------------------|--------------------------|


  E  E  E  E  E  E  E  E     E  E  E  E  E  E  E  E   
--------------------------|--------------------------|
--------------------------|--------------------------|
--------------------------|--------------------------|
--------7-----------2-----|--------3-----3-----3-----|
--5--5-----5--0--0-----0--|--1--1-----1-----1-----1--|
--------------------------|--------------------------|


  E  E  E  E  E  E  E  E     E  E  E  E  E  E  E  E   
--------------------------|--------------------------|
--------------------------|--------------------------|
--------------------------|--------------------------|
--------3-----------5-----|--------7-----7-----7-----|
--1--1-----1--3--3-----3--|--5--5-----5-----5-----5--|
--------------------------|--------------------------|


  E  E  E  E  E  E  E  E     E  E  E  E  E  E  E  E   
--------------------------|--------------------------|
--------------------------|--------------------------|
--------------------------|--------------------------|
--------7--------2-----2--|--------3-----3-----3-----|
--5--5-----5--0-----0-----|--1--1-----1-----1-----1--|
--------------------------|--------------------------|


  E  E  E  E  E  E  E  E     E  E  E  E  E  E  E  E   
--------------------------|--------------------------|
--------------------------|--------------------------|
--------------------------|--------------------------|
--------3-----------5-----|--------7-----7-----7-----|
--1--1-----1--3--3-----3--|--5--5-----5-----5-----5--|
--------------------------|--------------------------|


  E  E  E  E  E  E  E  E     E  E  E  E  E  E  E  E   
--------------------------|--------------------------|
--------------------------|--------------------------|
--------------------------|--------------------------|
--------7-----------2-----|--------3-----3-----3-----|
--5--5-----5--0--0-----0--|--1--1-----1-----1-----1--|
--------------------------|--------------------------|


  E  E  E  E  E  E  E  E      E   E   E   E   E   E   E   E   
--------------------------|----------------------------------|
--------------------------|----------------------------------|
--------------------------|----------------------------------|
--------3-----------5-----|--12--12--12--12--12--12--12--12--|
--1--1-----1--3--3-----3--|--12--12--12--12--12--12--12--12--|
--------------------------|--12--12--12--12--12--12--12--12--|


  E   E   E   E   E   E   E   E     E  E  E  E  E  E  E  E   
---------------------------------|--------------------------|
---------------------------------|--------------------------|
---------------------------------|--------------------------|
-----10--10--10--10--10--10--10--|--8--8--8--8--8--8--8--8--|
-----10--10--10--10--10--10--10--|--8--8--8--8--8--8--8--8--|
-----10--10--10--10--10--10--10--|--8--8--8--8--8--8--8--8--|


  E  E  E  E  E  E  Q        E   E   E   E   E   E   E   E   
-------------------------|----------------------------------|
-------------------------|----------------------------------|
--------------5-----L----|----------------------------------|
--------3--------3--L----|--12--12--12--12--12--12--12--12--|
--------------------3----|--12--12--12--12--12--12--12--12--|
--0--0-----0-------------|--12--12--12--12--12--12--12--12--|


  E   E   E   E   E   E   E   E     E  E  E  E  E  E  E  E   
---------------------------------|--------------------------|
---------------------------------|--------------------------|
---------------------------------|--------------------------|
-----10--10--10--10--10--10--10--|--8--8--8--8--8--8--8--8--|
-----10--10--10--10--10--10--10--|--8--8--8--8--8--8--8--8--|
-----10--10--10--10--10--10--10--|--8--8--8--8--8--8--8--8--|


                          Verse II                                              
  E  E  E  E  E  E  E     Q        E  E  E  E  E  E     Q    E  E  E  E  E  E   
-----------------------|-----------------------------|-------------------------|
-----------------------|-----------------------------|-------------------------|
-----------------------|-----------------------------|-------------------------|
--8--8--8--8--8--8--8--|--------------------0--------|----------------3--0--2--|
--8--8--8--8--8--8--8--|--0--------0-----------1-----|--0----0-----------------|
--8--8--8--8--8--8--8--|--0--------0--0--0--------3--|--0----0--0--0-----------|


  Q    E  E  E  E  E  E     Q    E  E  E  E  E  E     Q    E  E  E  E  E  E   
-------------------------|-------------------------|-------------------------|
-------------------------|-------------------------|-------------------------|
-------------------------|-------------------------|-------------------------|
----------------0--------|----------------0--2--3--|----------------0--------|
--0----0-----------1-----|--0----0-----------0--1--|--0----0-----------1-----|
--0----0--0--0--------3--|--0----0--0--0--5--------|--0----0--0--0--------3--|


  Q    E  E  E  E  E  E     E  E  E  E  E  E  E  E     H        H         
-------------------------|--------------------------|--------------------|
-------------------------|--------------------------|--------------------|
-------------------------|--------------------------|-----------0--------|
----------------3--0--2--|--------------0-----2-----|--3-----------------|
--0----0-----------------|--0-----3-----------0-----|--1--------3--------|
--0----0--0--0-----------|--0-----3-----5-----------|--------------------|


  Pre-Chorus                                              
             |-3-|                                        
  Q          S S S E  E  E  E  E     Q    Q    Q    Q     
----------------------------------|----------------------|
----------------------------------|----------------------|
----------------------------------|----------------------|
--3----------2-3-2-0--2--0--------|--3----3----5----5----|
----------------------------3--1--|--1----1----3----3----|
----------------------------------|----------------------|


       |-3-|                                        
  Q    S S S E  E  E  E  E     Q    Q    Q    Q     
----------------------------|----------------------|
----------------------------|----------------------|
----------------------------|----------------------|
--3----2-3-2-0--2--0--------|--3----3----5----5----|
----------------------3--1--|--1----1----3----3----|
----------------------------|----------------------|


       |-3-|                                                               
  Q    S S S E  E  E  E  E     Q    Q    Q    Q       W                E   
----------------------------|----------------------|----------------------|
----------------------------|----------------------|----------------------|
----------------------------|----------------------|----------------------|
--3----2-3-2-0--2--0--------|--3----3----5----5----|--3----------------L--|
----------------------3--1--|--1----1----3----3----|----------------------|
----------------------------|----------------------|----------------------|


  Chorus                                                  
  E      E  E  E  E  E  E  E     E  E  E  E  E  E  E  E   
------------------------------|--------------------------|
------------------------------|--------------------------|
------------------------------|--------------------------|
------------7-----7-----7-----|--------7--------2-----2--|
--5------5-----5-----5-----5--|--5--5-----5--0-----0-----|
------------------------------|--------------------------|


  E  E  E  E  E  E  E  E     E  E  E  E  E  E  E  E   
--------------------------|--------------------------|
--------------------------|--------------------------|
--------------------------|--------------------------|
--------3-----3-----3-----|--------3-----------5-----|
--1--1-----1-----1-----1--|--1--1-----1--3--3-----3--|
--------------------------|--------------------------|


  E  E  E  E  E  E  E  E     E  E  E  E  E  E  E  E   
--------------------------|--------------------------|
--------------------------|--------------------------|
--------------------------|--------------------------|
--------7-----7-----7-----|--------7-----------2-----|
--5--5-----5-----5-----5--|--5--5-----5--0--0-----0--|
--------------------------|--------------------------|


  E  E  E  E  E  E  E  E     E  E  E  E  E  E  E  E   
--------------------------|--------------------------|
--------------------------|--------------------------|
--------------------------|--------------------------|
--------3-----3-----3-----|--------3-----------5-----|
--1--1-----1-----1-----1--|--1--1-----1--3--3-----3--|
--------------------------|--------------------------|


  E  E  E  E  E  E  E  E     E  E  E  E  E  E  E  E   
--------------------------|--------------------------|
--------------------------|--------------------------|
--------------------------|--------------------------|
--------7-----7-----7-----|--------7--------2-----2--|
--5--5-----5-----5-----5--|--5--5-----5--0-----0-----|
--------------------------|--------------------------|


  E  E  E  E  E  E  E  E     E  E  E  E  E  E  E  E   
--------------------------|--------------------------|
--------------------------|--------------------------|
--------------------------|--------------------------|
--------3-----3-----3-----|--------3-----------5-----|
--1--1-----1-----1-----1--|--1--1-----1--3--3-----3--|
--------------------------|--------------------------|


  E  E  E  E  E  E  E  E     E  E  E  E  E  E  E  E   
--------------------------|--------------------------|
--------------------------|--------------------------|
--------------------------|--------------------------|
--------7-----7-----7-----|--------7-----------2-----|
--5--5-----5-----5-----5--|--5--5-----5--0--0-----0--|
--------------------------|--------------------------|


  E  E  E  E  E  E  E  E     E  E  E  E  E  E  E  E   
--------------------------|--------------------------|
--------------------------|--------------------------|
--------------------------|--------------------------|
--------3-----3-----3-----|--------3-----------5-----|
--1--1-----1-----1-----1--|--1--1-----1--3--3-----3--|
--------------------------|--------------------------|


  Interlude                                                                
  E         E  E  E  H           W                   E  E  E  E  H         
------------------------------|-------------------|-----------------------|
------------------------------|-------------------|-----------------------|
------------------------------|-------------------|-----------------------|
--0---------0--0--------------|-------------------|--7--7--7--------------|
--0---------0--0--------------|-------------------|--7--7--7--------------|
--0---------0--0--------------|-------------------|--7--7--7--------------|


  W                    E  E  E  E  E  E  E   E     E   E   E  E  E  E  E  E   
-------------------|----------------------------|----------------------------|
-------------------|----------------------------|----------------------------|
-------------------|----------------------------|----------------------------|
-------------------|----------------------------|----------------------------|
-------------------|--12--------8--7--3-----12--|-----12--12-----8--7--5--3--|
-------------------|--12--0--0--8--7--3--0--12--|--0--12--12--0--8--7--5--3--|


   E  E  E  E  E  E  E   E     E   E   E  E  E  E  E  E   
----------------------------|----------------------------|
----------------------------|----------------------------|
----------------------------|----------------------------|
----------------------------|----------------------------|
--12--------8--7--3-----12--|-----12--12-----8--7--5--3--|
--12--0--0--8--7--3--0--12--|--0--12--12--0--8--7--5--3--|


  E  E  E  E  E  E  Q       W                   E  E  E  E  E  E  Q     
-------------------------|-------------------|-------------------------|
-------------------------|-------------------|-------------------------|
--------------------7----|--L----------------|--------------------7----|
--3--3--3--3--3--x--7----|--L----------------|--3--3--3--3--3--x--7----|
--3--3--3--3--3--x--5----|--L----------------|--3--3--3--3--3--x--5----|
--3--3--3--3--3--x-------|-------------------|--3--3--3--3--3--x-------|


  W                   E  E  E  E  H           W                 
-------------------|-----------------------|-------------------|
-------------------|-----------------------|-------------------|
--L----------------|-----------------------|-------------------|
--L----------------|--8--8--8--------------|-------------------|
--L----------------|--8--8--8--------------|-------------------|
-------------------|--8--8--8--------------|-------------------|


  S S S E  E  S H           W                    E  E  E  E  E  E  E   E   
-------------------------|-------------------|----------------------------|
-------------------------|-------------------|----------------------------|
-------------------------|-------------------|----------------------------|
--8-8-8-8----------------|-------------------|----------------------------|
--8-8-8-8----------------|-------------------|--12--------8--7--3-----12--|
--8-8-8-8----------------|-------------------|--12--0--0--8--7--3--0--12--|


  E   E   E  E  E  E  E  E      E  E  E  E  E  E  E   E   
----------------------------|----------------------------|
----------------------------|----------------------------|
----------------------------|----------------------------|
----------------------------|----------------------------|
-----12--12-----8--7--5--3--|--12--------8--7--3-----12--|
--0--12--12--0--8--7--5--3--|--12--0--0--8--7--3--0--12--|


  E   E   E  E  E  E  E  E     E  E  E  E  E  E  Q       W                 
----------------------------|-------------------------|-------------------|
----------------------------|-------------------------|-------------------|
----------------------------|--------------------7----|--L----------------|
----------------------------|--3--3--3--3--3--x--7----|--L----------------|
-----12--12-----8--7--5--3--|--3--3--3--3--3--x--5----|--L----------------|
--0--12--12--0--8--7--5--3--|--3--3--3--3--3--x-------|-------------------|


                                                Solo              
  E  E  E  E  E  E  Q       W                   W                 
-------------------------|-------------------|-------------------|
-------------------------|-------------------|-------------------|
--------------------7----|--L----------------|-------------------|
--3--3--3--3--3--x--7----|--L----------------|--3----------------|
--3--3--3--3--3--x--5----|--L----------------|--3----------------|
--3--3--3--3--3--x-------|-------------------|--3----------------|


  W                   W                   H        Q    Q     
-------------------|-------------------|---------------------|
-------------------|-------------------|---------------------|
-------------------|-------------------|---------------------|
--L----------------|--7----------------|--L--------7----3----|
--L----------------|--7----------------|--L--------7----3----|
--L----------------|--7----------------|--L--------7----3----|


  W                   W                   W                   W                 
-------------------|-------------------|-------------------|-------------------|
-------------------|-------------------|-------------------|-------------------|
--7----------------|--L----------------|--5----------------|--L----------------|
--7----------------|--L----------------|--5----------------|--L----------------|
--5----------------|--L----------------|--3----------------|--L----------------|
-------------------|-------------------|-------------------|-------------------|


  W                   W                   W                   W                 
-------------------|-------------------|-------------------|-------------------|
-------------------|-------------------|-------------------|-------------------|
-------------------|-------------------|-------------------|-------------------|
--3----------------|--L----------------|--7----------------|--L----------------|
--3----------------|--L----------------|--7----------------|--L----------------|
--3----------------|--L----------------|--7----------------|--L----------------|


  W                   W                   W                   W                 
-------------------|-------------------|-------------------|-------------------|
-------------------|-------------------|-------------------|-------------------|
--7----------------|--L----------------|--5----------------|--L----------------|
--7----------------|--L----------------|--5----------------|--L----------------|
--5----------------|--L----------------|--3----------------|--L----------------|
-------------------|-------------------|-------------------|-------------------|


   Break                                                     
   W                   W                   W                 
--10----------------|--L----------------|--L----------------|
--------------------|-------------------|-------------------|
--------------------|-------------------|-------------------|
--------------------|-------------------|-------------------|
--------------------|-------------------|-------------------|
--------------------|-------------------|-------------------|


  W                    W                   W                 
--L----------------|---L----------------|--L----------------|
-------------------|--------------------|-------------------|
-------------------|--------------------|-------------------|
-------------------|--------------------|-------------------|
-------------------|--------------------|-------------------|
-------------------|--------------------|-------------------|


   W                   W                   W                 
--10----------------|--L----------------|--8----------------|
--------------------|-------------------|-------------------|
--------------------|-------------------|-------------------|
--------------------|-------------------|-------------------|
--------------------|-------------------|-------------------|
--------------------|-------------------|-------------------|


  W                    W                   W                 
--L----------------|--------------------|-------------------|
-------------------|--10----------------|--L----------------|
-------------------|--------------------|-------------------|
-------------------|--------------------|-------------------|
-------------------|--------------------|-------------------|
-------------------|--------------------|-------------------|


  W                   W                    E   E   E   E   E   E   E   E   
-------------------|-------------------|--10--10--10--10--13--13--13--13--|
--6----------------|--8----------------|----------------------------------|
-------------------|-------------------|----------------------------------|
-------------------|-------------------|----------------------------------|
-------------------|-------------------|----------------------------------|
-------------------|-------------------|----------------------------------|


   E   E   E   E   E   E   E   E     E  E  E  E  E  E  E  E   
--12--12--12--12--10--10--10--10--|--6--6--6--6--6--6--6--6--|
----------------------------------|--------------------------|
----------------------------------|--------------------------|
----------------------------------|--------------------------|
----------------------------------|--------------------------|
----------------------------------|--------------------------|


  E  E  E  E  E  E  E  E      E   E   E   E   E   E   E   E   
--8--8--8--8--8--8--8--8--|--10--10--10--10--13--13--13--13--|
--------------------------|----------------------------------|
--------------------------|----------------------------------|
--------------------------|----------------------------------|
--------------------------|----------------------------------|
--------------------------|----------------------------------|


   E   E   E   E   E   E   E   E     E  E  E  E  E  E  E  E   
--12--12--12--12--10--10--10--10--|--6--6--6--6--6--6--6--6--|
----------------------------------|--------------------------|
----------------------------------|--------------------------|
----------------------------------|--------------------------|
----------------------------------|--------------------------|
----------------------------------|--------------------------|


                             Chorus                       
  E  E  E  E  E  E  E  E     E      E  E  E  E  E  E  E   
--8--8--8--8--8--8--8--8--|------------------------------|
--------------------------|------------------------------|
--------------------------|------------------------------|
--------------------------|------------7-----7-----7-----|
--------------------------|--5------5-----5-----5-----5--|
--------------------------|------------------------------|


  E  E  E  E  E  E  E  E     E  E  E  E  E  E  E  E   
--------------------------|--------------------------|
--------------------------|--------------------------|
--------------------------|--------------------------|
--------7--------2-----2--|--------3-----3-----3-----|
--5--5-----5--0-----0-----|--1--1-----1-----1-----1--|
--------------------------|--------------------------|


  E  E  E  E  E  E  E  E     E  E  E  E  E  E  E  E   
--------------------------|--------------------------|
--------------------------|--------------------------|
--------------------------|--------------------------|
--------3-----------5-----|--------7-----7-----7-----|
--1--1-----1--3--3-----3--|--5--5-----5-----5-----5--|
--------------------------|--------------------------|


  E  E  E  E  E  E  E  E     E  E  E  E  E  E  E  E   
--------------------------|--------------------------|
--------------------------|--------------------------|
--------------------------|--------------------------|
--------7-----------2-----|--------3-----3-----3-----|
--5--5-----5--0--0-----0--|--1--1-----1-----1-----1--|
--------------------------|--------------------------|


  E  E  E  E  E  E  E  E     E  E  E  E  E  E  E  E   
--------------------------|--------------------------|
--------------------------|--------------------------|
--------------------------|--------------------------|
--------3-----------5-----|--------7-----7-----7-----|
--1--1-----1--3--3-----3--|--5--5-----5-----5-----5--|
--------------------------|--------------------------|


  E  E  E  E  E  E  E  E     E  E  E  E  E  E  E  E   
--------------------------|--------------------------|
--------------------------|--------------------------|
--------------------------|--------------------------|
--------7--------2-----2--|--------3-----3-----3-----|
--5--5-----5--0-----0-----|--1--1-----1-----1-----1--|
--------------------------|--------------------------|


  E  E  E  E  E  E  E  E     E  E  E  E  E  E  E  E   
--------------------------|--------------------------|
--------------------------|--------------------------|
--------------------------|--------------------------|
--------3-----------5-----|--------7-----7-----7-----|
--1--1-----1--3--3-----3--|--5--5-----5-----5-----5--|
--------------------------|--------------------------|


  E  E  E  E  E  E  E  E     E  E  E  E  E  E  E  E   
--------------------------|--------------------------|
--------------------------|--------------------------|
--------------------------|--------------------------|
--------7-----------2-----|--------3-----3-----3-----|
--5--5-----5--0--0-----0--|--1--1-----1-----1-----1--|
--------------------------|--------------------------|


  E  E  E  E  E  E  E  E      E   E   E   E   E   E   E   E   
--------------------------|----------------------------------|
--------------------------|----------------------------------|
--------------------------|----------------------------------|
--------3-----------5-----|--12--12--12--12--12--12--12--12--|
--1--1-----1--3--3-----3--|--12--12--12--12--12--12--12--12--|
--------------------------|--12--12--12--12--12--12--12--12--|


  E   E   E   E   E   E   E   E     E  E  E  E  E  E  E  E   
---------------------------------|--------------------------|
---------------------------------|--------------------------|
---------------------------------|--------------------------|
-----10--10--10--10--10--10--10--|--8--8--8--8--8--8--8--8--|
-----10--10--10--10--10--10--10--|--8--8--8--8--8--8--8--8--|
-----10--10--10--10--10--10--10--|--8--8--8--8--8--8--8--8--|


  E  E  E  E  E  E  Q        E   E   E   E   E   E   E   E   
-------------------------|----------------------------------|
-------------------------|----------------------------------|
--------------5-----L----|----------------------------------|
--------3--------3--L----|--12--12--12--12--12--12--12--12--|
--------------------3----|--12--12--12--12--12--12--12--12--|
--0--0-----0-------------|--12--12--12--12--12--12--12--12--|


  E   E   E   E   E   E   E   E     E  E  E  E  E  E  E  E   
---------------------------------|--------------------------|
---------------------------------|--------------------------|
---------------------------------|--------------------------|
-----10--10--10--10--10--10--10--|--8--8--8--8--8--8--8--8--|
-----10--10--10--10--10--10--10--|--8--8--8--8--8--8--8--8--|
-----10--10--10--10--10--10--10--|--8--8--8--8--8--8--8--8--|


  E  E  E  E  E  E  E  E      E   E   E   E   E   E   E   E   
--------------------------|----------------------------------|
--------------------------|----------------------------------|
--------------------------|----------------------------------|
--8--8--8--8--8--8--8--8--|--12--12--12--12--12--12--12--12--|
--8--8--8--8--8--8--8--8--|--12--12--12--12--12--12--12--12--|
--8--8--8--8--8--8--8--8--|--12--12--12--12--12--12--12--12--|


  E   E   E   E   E   E   E   E     E  E  E  E  E  E  E  E   
---------------------------------|--------------------------|
---------------------------------|--------------------------|
---------------------------------|--------------------------|
-----10--10--10--10--10--10--10--|--8--8--8--8--8--8--8--8--|
-----10--10--10--10--10--10--10--|--8--8--8--8--8--8--8--8--|
-----10--10--10--10--10--10--10--|--8--8--8--8--8--8--8--8--|


  E  E  E  E  E  E  Q        E   E   E   E   E   E   E   E   
-------------------------|----------------------------------|
-------------------------|----------------------------------|
--------------5-----L----|----------------------------------|
--------3--------3--L----|--12--12--12--12--12--12--12--12--|
--------------------3----|--12--12--12--12--12--12--12--12--|
--0--0-----0-------------|--12--12--12--12--12--12--12--12--|


  E   E   E   E   E   E   E   E     E  E  E  E  E  E  E  E   
---------------------------------|--------------------------|
---------------------------------|--------------------------|
---------------------------------|--------------------------|
-----10--10--10--10--10--10--10--|--8--8--8--8--8--8--8--8--|
-----10--10--10--10--10--10--10--|--8--8--8--8--8--8--8--8--|
-----10--10--10--10--10--10--10--|--8--8--8--8--8--8--8--8--|


                             Outro                                          
  E  E  E  E  E  E  E  E     E     E  E  E  E  E  Q       W                 
--------------------------|----------------------------|-------------------|
--------------------------|----------------------------|-------------------|
--------------------------|-----------------------7----|--L----------------|
--8--8--8--8--8--8--8--8--|--3-----3--3--3--3--x--7----|--L----------------|
--8--8--8--8--8--8--8--8--|--3-----3--3--3--3--x--5----|--L----------------|
--8--8--8--8--8--8--8--8--|--3-----3--3--3--3--x-------|-------------------|


  E  E  E  E  E  E  Q       W                   E  E  E  E  E  E  Q     
-------------------------|-------------------|-------------------------|
-------------------------|-------------------|-------------------------|
--------------------7----|--L----------------|--------------------7----|
--3--3--3--3--3--x--7----|--L----------------|--3--3--3--3--3--x--7----|
--3--3--3--3--3--x--5----|--L----------------|--3--3--3--3--3--x--5----|
--3--3--3--3--3--x-------|-------------------|--3--3--3--3--3--x-------|


  W                   E  E  E  E  E  E  Q       W                 
-------------------|-------------------------|-------------------|
-------------------|-------------------------|-------------------|
--L----------------|--------------------7----|--L----------------|
--L----------------|--3--3--3--3--3--x--7----|--L----------------|
--L----------------|--3--3--3--3--3--x--5----|--L----------------|
-------------------|--3--3--3--3--3--x-------|-------------------|


  W                  
-------------------||
-------------------||
-------------------||
-------------------||
-------------------||
-------------------||



____________________________________________________________________
********************************************************************
____________________________________________________________________




Lead Guitar





      W                   W                   W                 
C ||-------------------|-------------------|-------------------|
G ||-------------------|-------------------|-------------------|
D#||-------------------|-------------------|-------------------|
A#||-------------------|-------------------|-------------------|
F ||-------------------|-------------------|-------------------|
A#||-------------------|-------------------|-------------------|


  W                   W                   W                   W                 
-------------------|-------------------|-------------------|-------------------|
-------------------|-------------------|-------------------|-------------------|
-------------------|-------------------|-------------------|-------------------|
-------------------|-------------------|-------------------|-------------------|
-------------------|-------------------|-------------------|-------------------|
-------------------|-------------------|-------------------|-------------------|


  H        Q    E     W                   W                   W                 
-------------------|-------------------|-------------------|-------------------|
-------------------|-------------------|-------------------|-------------------|
-------------------|-------------------|-------------------|-------------------|
-------------------|-------------------|-------------------|-------------------|
-------------------|-------------------|-------------------|-------------------|
-------------------|-------------------|-------------------|-------------------|


  W                   W                   W                   W                 
-------------------|-------------------|-------------------|-------------------|
-------------------|-------------------|-------------------|-------------------|
-------------------|-------------------|-------------------|-------------------|
-------------------|-------------------|-------------------|-------------------|
-------------------|-------------------|-------------------|-------------------|
-------------------|-------------------|-------------------|-------------------|


  W                   W                   W                   W                 
-------------------|-------------------|-------------------|-------------------|
-------------------|-------------------|-------------------|-------------------|
-------------------|-------------------|-------------------|-------------------|
-------------------|-------------------|-------------------|-------------------|
-------------------|-------------------|-------------------|-------------------|
-------------------|-------------------|-------------------|-------------------|


  W                   W                   W                   W                 
-------------------|-------------------|-------------------|-------------------|
-------------------|-------------------|-------------------|-------------------|
-------------------|-------------------|-------------------|-------------------|
-------------------|-------------------|-------------------|-------------------|
-------------------|-------------------|-------------------|-------------------|
-------------------|-------------------|-------------------|-------------------|


  W                   W                   W                 
-------------------|-------------------|-------------------|
-------------------|-------------------|-------------------|
-------------------|-------------------|-------------------|
-------------------|-------------------|-------------------|
-------------------|-------------------|-------------------|
-------------------|-------------------|-------------------|


  W                E     W                   W                 
----------------------|-------------------|-------------------|
----------------------|-------------------|-------------------|
----------------------|-------------------|-------------------|
----------------------|-------------------|-------------------|
----------------------|-------------------|-------------------|
----------------------|-------------------|-------------------|


  W                   W                   W                   W                 
-------------------|-------------------|-------------------|-------------------|
-------------------|-------------------|-------------------|-------------------|
-------------------|-------------------|-------------------|-------------------|
-------------------|-------------------|-------------------|-------------------|
-------------------|-------------------|-------------------|-------------------|
-------------------|-------------------|-------------------|-------------------|


  W                   W                   W                   W                 
-------------------|-------------------|-------------------|-------------------|
-------------------|-------------------|-------------------|-------------------|
-------------------|-------------------|-------------------|-------------------|
-------------------|-------------------|-------------------|-------------------|
-------------------|-------------------|-------------------|-------------------|
-------------------|-------------------|-------------------|-------------------|


  W                   W                   W                   W                 
-------------------|-------------------|-------------------|-------------------|
-------------------|-------------------|-------------------|-------------------|
-------------------|-------------------|-------------------|-------------------|
-------------------|-------------------|-------------------|-------------------|
-------------------|-------------------|-------------------|-------------------|
-------------------|-------------------|-------------------|-------------------|


  W                   W                   W                   W                 
-------------------|-------------------|-------------------|-------------------|
-------------------|-------------------|-------------------|-------------------|
-------------------|-------------------|-------------------|-------------------|
-------------------|-------------------|-------------------|-------------------|
-------------------|-------------------|-------------------|-------------------|
-------------------|-------------------|-------------------|-------------------|


  W                   W                   W                   W                 
-------------------|-------------------|-------------------|-------------------|
-------------------|-------------------|-------------------|-------------------|
-------------------|-------------------|-------------------|-------------------|
-------------------|-------------------|-------------------|-------------------|
-------------------|-------------------|-------------------|-------------------|
-------------------|-------------------|-------------------|-------------------|


  W                   H        Q    E     W                   W                 
-------------------|-------------------|-------------------|-------------------|
-------------------|-------------------|-------------------|-------------------|
-------------------|-------------------|-------------------|-------------------|
-------------------|-------------------|-------------------|-------------------|
-------------------|-------------------|-------------------|-------------------|
-------------------|-------------------|-------------------|-------------------|


  W                   W                   W                   W                 
-------------------|-------------------|-------------------|-------------------|
-------------------|-------------------|-------------------|-------------------|
-------------------|-------------------|-------------------|-------------------|
-------------------|-------------------|-------------------|-------------------|
-------------------|-------------------|-------------------|-------------------|
-------------------|-------------------|-------------------|-------------------|


  W                   W                   W                   W                 
-------------------|-------------------|-------------------|-------------------|
-------------------|-------------------|-------------------|-------------------|
-------------------|-------------------|-------------------|-------------------|
-------------------|-------------------|-------------------|-------------------|
-------------------|-------------------|-------------------|-------------------|
-------------------|-------------------|-------------------|-------------------|


  W                   W                   W                   W                 
-------------------|-------------------|-------------------|-------------------|
-------------------|-------------------|-------------------|-------------------|
-------------------|-------------------|-------------------|-------------------|
-------------------|-------------------|-------------------|-------------------|
-------------------|-------------------|-------------------|-------------------|
-------------------|-------------------|-------------------|-------------------|


  W                E     W                   W                 
----------------------|-------------------|-------------------|
----------------------|-------------------|-------------------|
----------------------|-------------------|-------------------|
----------------------|-------------------|-------------------|
----------------------|-------------------|-------------------|
----------------------|-------------------|-------------------|


  W                   W                   W                   W                 
-------------------|-------------------|-------------------|-------------------|
-------------------|-------------------|-------------------|-------------------|
-------------------|-------------------|-------------------|-------------------|
-------------------|-------------------|-------------------|-------------------|
-------------------|-------------------|-------------------|-------------------|
-------------------|-------------------|-------------------|-------------------|


  W                   W                   W                   W                 
-------------------|-------------------|-------------------|-------------------|
-------------------|-------------------|-------------------|-------------------|
-------------------|-------------------|-------------------|-------------------|
-------------------|-------------------|-------------------|-------------------|
-------------------|-------------------|-------------------|-------------------|
-------------------|-------------------|-------------------|-------------------|


  W                   W                   W                   W                 
-------------------|-------------------|-------------------|-------------------|
-------------------|-------------------|-------------------|-------------------|
-------------------|-------------------|-------------------|-------------------|
-------------------|-------------------|-------------------|-------------------|
-------------------|-------------------|-------------------|-------------------|
-------------------|-------------------|-------------------|-------------------|


                                          Interlude                             
  W                   W                   W                   W                 
-------------------|-------------------|-------------------|-------------------|
-------------------|-------------------|-------------------|-------------------|
-------------------|-------------------|-------------------|-------------------|
-------------------|-------------------|-------------------|-------------------|
-------------------|-------------------|-------------------|-------------------|
-------------------|-------------------|-------------------|-------------------|


   E   E   E  E  E  E  E  E     E   E   E   E  E  E  E  E     W                 
-----------------------------|-----------------------------|-------------------|
-----------------------------|-----------------------------|-------------------|
--10--10--10--9--9--9--7--7--|--7--------------7--7--9--9--|-------------------|
-----------------------------|-----10--10--10--------------|-------------------|
-----------------------------|-----------------------------|-------------------|
-----------------------------|-----------------------------|-------------------|


  W                    E   E   E  E  E  E  E  E     E   E   E   E  E  E  E  E   
-------------------|-----------------------------|-----------------------------|
-------------------|-----------------------------|-----------------------------|
-------------------|--10--10--10--9--9--9--7--7--|--7--------------7--7--9--9--|
-------------------|-----------------------------|-----10--10--10--------------|
-------------------|-----------------------------|-----------------------------|
-------------------|-----------------------------|-----------------------------|


                                    |--3-|                         
   E  E  E   E   E   E   Q       E  S  S S  E   E   E  E   E   E   
------------------------------|-----------------------------------|
------------------------------|-----------------------------------|
--10------------10--12--10----|--L--9-10-9-------------9--10--12--|
------8--8--12----------------|------------12--10--12-------------|
------------------------------|-----------------------------------|
------------------------------|-----------------------------------|


                                    |--3-|                         
   E  E  E   E   E   E   Q       E  S  S S  E   E   E  E   E   E   
------------------------------|-----------------------------------|
------------------------------|-----------------------------------|
--10------------10--12--10----|--L--9-10-9-------------9--10--12--|
------8--8--12----------------|------------12--10--12-------------|
------------------------------|-----------------------------------|
------------------------------|-----------------------------------|


  W                   W                   W                   W                 
-------------------|-------------------|-------------------|-------------------|
-------------------|-------------------|-------------------|-------------------|
-------------------|-------------------|-------------------|-------------------|
-------------------|-------------------|-------------------|-------------------|
-------------------|-------------------|-------------------|-------------------|
-------------------|-------------------|-------------------|-------------------|


  W                   W                    E   E   E  E  E  E  E  E   
-------------------|-------------------|-----------------------------|
-------------------|-------------------|-----------------------------|
-------------------|-------------------|--10--10--10--9--9--9--7--7--|
-------------------|-------------------|-----------------------------|
-------------------|-------------------|-----------------------------|
-------------------|-------------------|-----------------------------|


  E   E   E   E  E  E  E  E      E  E  E   E   E   E   Q     
-----------------------------|------------------------------|
-----------------------------|------------------------------|
--7--------------7--7--9--9--|--10------------10--12--10----|
-----10--10--10--------------|------8--8--12----------------|
-----------------------------|------------------------------|
-----------------------------|------------------------------|


     |--3-|                                                        
  E  S  S S  E   E   E  E   E   E      E  E  E   E   E   E   Q     
-----------------------------------|------------------------------|
-----------------------------------|------------------------------|
--L--9-10-9-------------9--10--12--|--10------------10--12--10----|
------------12--10--12-------------|------8--8--12----------------|
-----------------------------------|------------------------------|
-----------------------------------|------------------------------|


     |--3-|                                                                 
  E  S  S S  E   E   E  E   E   E     W                   W                 
-----------------------------------|-------------------|-------------------|
-----------------------------------|-------------------|-------------------|
--L--9-10-9-------------9--10--12--|-------------------|-------------------|
------------12--10--12-------------|-------------------|-------------------|
-----------------------------------|-------------------|-------------------|
-----------------------------------|-------------------|-------------------|


  W                   W                   W                   W                 
-------------------|-------------------|-------------------|-------------------|
-------------------|-------------------|-------------------|-------------------|
-------------------|-------------------|-------------------|-------------------|
-------------------|-------------------|-------------------|-------------------|
-------------------|-------------------|-------------------|-------------------|
-------------------|-------------------|-------------------|-------------------|


  W                   W                   W                   W                 
-------------------|-------------------|-------------------|-------------------|
-------------------|-------------------|-------------------|-------------------|
-------------------|-------------------|-------------------|-------------------|
-------------------|-------------------|-------------------|-------------------|
-------------------|-------------------|-------------------|-------------------|
-------------------|-------------------|-------------------|-------------------|


  W                   W                   W                   W                 
-------------------|-------------------|-------------------|-------------------|
-------------------|-------------------|-------------------|-------------------|
-------------------|-------------------|-------------------|-------------------|
-------------------|-------------------|-------------------|-------------------|
-------------------|-------------------|-------------------|-------------------|
-------------------|-------------------|-------------------|-------------------|


                                          Break                                 
  W                   W                   W                   W                 
-------------------|-------------------|-------------------|-------------------|
-------------------|-------------------|-------------------|-------------------|
-------------------|-------------------|-------------------|--L----------------|
-------------------|-------------------|--8----------------|--L----------------|
-------------------|-------------------|--8----------------|--L----------------|
-------------------|-------------------|--8----------------|--L----------------|


  W                   H        E  E  Q       Q     Q     Q     Q     
-------------------|----------------------|-------------------------|
-------------------|----------------------|-------------11----------|
-------------------|-----------------7----|-------10----------10----|
--L----------------|--L--------8--8-------|--8----------------------|
--L----------------|--L-------------------|-------------------------|
--L----------------|--L-------------------|-------------------------|


   Q     Q     Q     Q       E  E   E  E   E  Q    E   
--------------------------|---------------------------|
--13----------11----------|--------10-----10----------|
--------10----------10----|--7--7--10--7--10--7----7--|
--------------------------|---------------------------|
--------------------------|---------------------------|
--------------------------|---------------------------|


  E  E   E  E   E  Q    E     E  E  E  E  E  Q    E     E  E  E  E  E  Q    E   
---------------------------|-------------------------|-------------------------|
--------10-----10----------|--------6-----6----------|--------6-----6----------|
--L--7--10--7--10--7----7--|--------7-----7----------|--------7-----7----------|
---------------------------|--8--8-----8-----8----8--|--L--8-----8-----8----8--|
---------------------------|-------------------------|-------------------------|
---------------------------|-------------------------|-------------------------|


  E  E   E  E   E  Q    E     E  E   E  E   E  Q    E   
---------------------------|---------------------------|
--------10-----10----------|--------10-----10----------|
--7--7--10--7--10--7----7--|--L--7--10--7--10--7----7--|
---------------------------|---------------------------|
---------------------------|---------------------------|
---------------------------|---------------------------|


  E  E  E  E  E  Q    E      E   E  E   E  E   Q     E     W                 
-------------------------|------------------------------|-------------------|
--------6-----6----------|----------8------8------------|-------------------|
--------7-----7----------|----------9------9------------|-------------------|
--8--8-----8-----8----8--|--10--10-----10-----10----10--|-------------------|
-------------------------|------------------------------|-------------------|
-------------------------|------------------------------|-------------------|


  W                   W                   W                   W                 
-------------------|-------------------|-------------------|-------------------|
-------------------|-------------------|-------------------|-------------------|
-------------------|-------------------|-------------------|-------------------|
-------------------|-------------------|-------------------|-------------------|
-------------------|-------------------|-------------------|-------------------|
-------------------|-------------------|-------------------|-------------------|


  W                   W                   W                   W                 
-------------------|-------------------|-------------------|-------------------|
-------------------|-------------------|-------------------|-------------------|
-------------------|-------------------|-------------------|-------------------|
-------------------|-------------------|-------------------|-------------------|
-------------------|-------------------|-------------------|-------------------|
-------------------|-------------------|-------------------|-------------------|


  W                   W                   W                   W                 
-------------------|-------------------|-------------------|-------------------|
-------------------|-------------------|-------------------|-------------------|
-------------------|-------------------|-------------------|-------------------|
-------------------|-------------------|-------------------|-------------------|
-------------------|-------------------|-------------------|-------------------|
-------------------|-------------------|-------------------|-------------------|


  W                   W                   W                   W                 
-------------------|-------------------|-------------------|-------------------|
-------------------|-------------------|-------------------|-------------------|
-------------------|-------------------|-------------------|-------------------|
-------------------|-------------------|-------------------|-------------------|
-------------------|-------------------|-------------------|-------------------|
-------------------|-------------------|-------------------|-------------------|


  W                   W                   W                   W                 
-------------------|-------------------|-------------------|-------------------|
-------------------|-------------------|-------------------|-------------------|
-------------------|-------------------|-------------------|-------------------|
-------------------|-------------------|-------------------|-------------------|
-------------------|-------------------|-------------------|-------------------|
-------------------|-------------------|-------------------|-------------------|


  W                   W                   W                   W                 
-------------------|-------------------|-------------------|-------------------|
-------------------|-------------------|-------------------|-------------------|
-------------------|-------------------|-------------------|-------------------|
-------------------|-------------------|-------------------|-------------------|
-------------------|-------------------|-------------------|-------------------|
-------------------|-------------------|-------------------|-------------------|


  W                   W                   W                   W                 
-------------------|-------------------|-------------------|-------------------|
-------------------|-------------------|-------------------|-------------------|
-------------------|-------------------|-------------------|-------------------|
-------------------|-------------------|-------------------|-------------------|
-------------------|-------------------|-------------------|-------------------|
-------------------|-------------------|-------------------|-------------------|


  W                   W                   W                   W                 
-------------------|-------------------|-------------------|-------------------|
-------------------|-------------------|-------------------|-------------------|
-------------------|-------------------|-------------------|-------------------|
-------------------|-------------------|-------------------|-------------------|
-------------------|-------------------|-------------------|-------------------|
-------------------|-------------------|-------------------|-------------------|


  W                   W                   W                   W                 
-------------------|-------------------|-------------------|-------------------|
-------------------|-------------------|-------------------|-------------------|
-------------------|-------------------|-------------------|-------------------|
-------------------|-------------------|-------------------|-------------------|
-------------------|-------------------|-------------------|-------------------|
-------------------|-------------------|-------------------|-------------------|


  W                   W                   W                 
-------------------|-------------------|-------------------|
-------------------|-------------------|-------------------|
-------------------|-------------------|-------------------|
-------------------|-------------------|-------------------|
-------------------|-------------------|-------------------|
-------------------|-------------------|-------------------|


   Outro                                                             
                                      |--3-|                         
   E    E  E   E   E   E   Q       E  S  S S  E   E   E  E   E   E   
--------------------------------|-----------------------------------|
--------------------------------|-----------------------------------|
--10--------------10--12--10----|--L--9-10-9-------------9--10--12--|
--------8--8--12----------------|------------12--10--12-------------|
--------------------------------|-----------------------------------|
--------------------------------|-----------------------------------|


                                    |--3-|                         
   E  E  E   E   E   E   Q       E  S  S S  E   E   E  E   E   E   
------------------------------|-----------------------------------|
------------------------------|-----------------------------------|
--10------------10--12--10----|--L--9-10-9-------------9--10--12--|
------8--8--12----------------|------------12--10--12-------------|
------------------------------|-----------------------------------|
------------------------------|-----------------------------------|


                                    |--3-|                         
   E  E  E   E   E   E   Q       E  S  S S  E   E   E  E   E   E   
------------------------------|-----------------------------------|
------------------------------|-----------------------------------|
--10------------10--12--10----|--L--9-10-9-------------9--10--12--|
------8--8--12----------------|------------12--10--12-------------|
------------------------------|-----------------------------------|
------------------------------|-----------------------------------|


                                    |--3-|                         
   E  E  E   E   E   E   Q       E  S  S S  E   E   E  E   E   E   
------------------------------|-----------------------------------|
------------------------------|-----------------------------------|
--10------------10--12--10----|--L--9-10-9-------------9--10--12--|
------8--8--12----------------|------------12--10--12-------------|
------------------------------|-----------------------------------|
------------------------------|-----------------------------------|


  W                  
-------------------||
-------------------||
-------------------||
-------------------||
-------------------||
-------------------||




Duration Legend
---------------
W - whole
H - half
Q - quarter
E - 8th
S - 16th
T - 32nd
X - 64th
. - note dotted
|-n-|  - n-tuplets


Tablature Legend
----------------
L - tied note
x - dead note
g - grace note
(n) - ghost note
> - accentuded note
NH - natural harmonic
AH - artificial harmonic
TH - tapped harmonic
SH - semi harmonic
PH - pitch harmonic
h - hammer on
p - pull off
b - bend
br - bendRelease
pb - preBend
pbr - preBendRelease
brb - bendReleaseBend
\n/ - tremolo bar dip
\n - tremolo bar dive
-/n - tremolo bar Release up
/n\ - tremolo bar inverted dip
/n - tremolo bar return
-\n - tremolo bar Release down
S - shift slide
s - legato slide
/ -  slide into from below or out of upwards
\ -  slide into from above or out of downwards
~ - vibrato
W - wide vibrato
tr - trill
TP - tremolo picking
T - tapping
S - slap
P - pop
< - fade in
^ - brush up
v - brush down


Special thanks to "Everdyer" who made that guitar pro tab.
comments
We did not receive enough feedback on this tab! Please rate:
print report bad tab
1 2 3 4 5
2 comments total.
0 reply
lucasbzerbe wrote on October 3 2010, 05:56 pm

what Time is this in Cut Time or what time sig

0 reply
nighttwolf wrote on October 7 2010, 11:20 am

I'm pretty sure the the intro lead is this.. (I'm gonna crappily tab it, because I'm no good at tabbing with text)

|-------------------------|------------------------------|
|-------------------------|------------------------------|
|10-14~--9-10~------7h9-7~|-(9)-10-14~--9-10--5/7-5~~~~--|
|--------------10~--------|------------------------------|
|-------------------------|------------------------------|
|-------------------------|------------------------------|

I want to post or [tab]
guest
You may want to rate the tab now too:
select rating
Please do not post tabs as comments. Select "correction" instead!