Oops, an error
Loading. Please wait.

Sober And Irrelevant Tab

ver1
ver1

Whole song

Interactive

More versions @911Tabs.com
1,783 views 3 this week
no commentswrite comment
1 2 3 4 5
excellent!
x 2
Autoscroll
+/-
esc
set tempo
stop
Contributor
Difficulty
intermediate
Hey! There's an official Ultimate Guitar app which is ideal
for learning songs when you're away from computer. Get the app
WARNING: You are trying to view
                                    content from Ultimate-Guitar.com
                                    in an unauthorized application,
                                    which is prohibited.

                                    Please use an official Ultimate
                                    Guitar Tabs application for iPhone,
                                    iPad or Android to access legitimate
                                    chords, guitar, bass, and drum tabs
                                    from Ultimate-Guitar.com database.

                                    Type "ultimate guitar tabs" in Apple
                                    App Store's or Android Market's
                                    search to find the application.
Artist - In Flames
Song - Sober And Irrelevant
Album - A Sense Of Purpose
Genre - Heavy Metal

Things to know,,,

Tuning - Drop A# 

h - Hammer on
p - Pull off
T - Tap note
b - Bend note
~ - Let ring
\ - slide
x - times played


Enjoy!


Guitar 1 and 2
|-----------------------------------------------------------------------|
|-----------------------------------------------------------------------|
|-----------------------------------------------------------------------|
|----------7------------8---------------------7------------------8\7----|
|--000-5-0----0-000-5-0----0-0-0---8--000-5-0----0-000-10-0----0--------|
|--000---0----0-000---0----0-0-0-8----000---0----0-000----0-10-0--------|

Guitar 1 and 2
|-----------------------------------------------------------------------|
|-----------------------------------------------------------------------|
|-----------------------------------------------------------------------|
|----------7------------8-----------------------------------------------|
|--000-5-0----0-000-5-0----0-0-0---8--0-0-3-0-5-3-2---------------------|
|--000---0----0-000---0----0-0-0-8----0-0-3-0-5-3-2-0--7p5p3p0-7p5p3h5--|

Guitar 1 and 2
|-----------------------------------------------------------------------|
|-----------------------------------------------------------------------|
|-----------------------------------------------------------------------|
|----------7------------8---------------------7------------------8\7----|
|--000-5-0----0-000-5-0----0-0-0---8--000-5-0----0-000-10-0----0--------|
|--000---0----0-000---0----0-0-0-8----000---0----0-000----0-10-0--------|

Guitar 1 and 2
|-----------------------------------------------------------------------|
|-----------------------------------------------------------------------|
|-----------------------------------------------------------------------|
|----------7------------8-----------------------------------------------|
|--000-5-0----0-000-5-0----0-0-0---8--0-0-3-0-5-3-2---------------------|
|--000---0----0-000---0----0-0-0-8----0-0-3-0-5-3-2-0--7p5p3p0-7p5p3h5--|

Guitar 1 and 2
|--------------------------------------------------------|
|--------------------------------------------------------|
|--------------------------------------------------------|
|--------------------------------------------------------|
|--8-888888-555-7-8--33333333333-5-7--8-888888-333-5-7---|
|--8-888888-555-7-8--33333333333-5-7--8-888888-333-5-7---|

Guitar 1 and 2
|---------------------------------------------------------------|
|---------------------------------------------------------------|
|---------------------------------------------------------------|
|---------------------------------------------------------------|
|--0000000-00000000--8-888888-55555-77777--333333333333-55555---|
|--0000000-00000000--8-888888-55555-77777--333333333333-55555---|

Guitar 1 and 2
|------------------------------------------------------|
|------------------------------------------------------|
|------------------------------------------------7-5---|
|--------------------------------------------7---------|
|--8-888888-33333-55555--0000000000--0-5-8-0---0-------|
|--8-888888-33333-55555--0000000000--0-----0---0-------|

Guitar 1 Tremolo pick.
|------------------------------|
|------------------------------|
|------------------------------| 
|------------------------------|
|--0--3--5--8--0--3--10--8-----|
|--0--3--5--8--0--3--10--8-----|

Guitar 2
|-----------------------------------------------|
|-----------------------------------------------|
|--------------------------------------77-55----|
|-------777777-------77-5555-888888-------------|
|--5555--------88-55----------------88----------|
|-----------------------------------------------|

Guitar 2
|-----------------------------------------------|
|-----------------------------------------------|
|-----------------------------------------------|
|-------777777-------77-55555555--------55------|
|--5555--------88-55-------------888888---------|
|-----------------------------------------------|

Guitar 1 Tremolo pick.
|------------------------------|
|------------------------------|
|------------------------------|
|------------------------------|
|--0--3--5--8--0--3--10--8-----|
|--0--3--5--8--0--3--10--8-----|

Guitar 2
|------------------------10~-8~----------------------------------|
|--10~-10-8----8-10~-11~--------11-8--10~-10-8----8-10~----------|
|-----------10---------------------------------10-------9~-10~---|
|----------------------------------------------------------------|
|----------------------------------------------------------------|
|----------------------------------------------------------------|

Guitar 1 
|---------------------------------------------------------------------|
|---------------------------------------------------------------------|
|---------------------------------------------------------------------|
|------3---6-------------------------3---6----------6-5-3---3-5-3-----|
|--333---3---3--333-333-333-333--333---3---3--3-333-------3-------6---|
|--333---3---3--333-333-333-333--333---3---3--3-333-------3-----------|

Guitar 2 solo
|---------------------------------------------------------------|
|-------------9-8-9-8-------------------------------------------|
|---------10~---------10-8-10~-----15-17-------17-17------------|
|-----10~-----------------------18-------18-20-------20-18-20---|
|--8~-----------------------------------------------------------|
|---------------------------------------------------------------|

Guitar 1 
|---------------------------------------------------------------------|
|---------------------------------------------------------------------|
|---------------------------------------------------------------------|
|------3---6-------------------------3---6----------6-5-3---3-5-3-----|
|--333---3---3--333-333-333-333--333---3---3--3-333-------3-------6---|
|--333---3---3--333-333-333-333--333---3---3--3-333-------3-----------|

Guitar 2
|---------------------------------20202020-18181818------------------------|
|---------------------------------------------------21212121-20202020-21~--|
|--------17-------17-17----------------------------------------------------|
|--18-20----18-20-------20-18-20-------------------------------------------|
|--------------------------------------------------------------------------|
|--------------------------------------------------------------------------|

Guitar 1 and 2
|-----------------------------------------------------------------------|
|-----------------------------------------------------------------------|
|-----------------------------------------------------------------------|
|----------7------------8---------------------7------------------8\7----|
|--000-5-0----0-000-5-0----0-0-0---8--000-5-0----0-000-10-0----0--------|
|--000---0----0-000---0----0-0-0-8----000---0----0-000----0-10-0--------|

Guitar 1 and 2
|-----------------------------------------------------------------------|
|-----------------------------------------------------------------------|
|-----------------------------------------------------------------------|
|----------7------------8-----------------------------------------------|
|--000-5-0----0-000-5-0----0-0-0---8--0-0-3-0-5-3-2---------------------|
|--000---0----0-000---0----0-0-0-8----0-0-3-0-5-3-2-0--7p5p3p0-7p5p3h5--|

Guitar 1 and 2
|-----------------------------------------------------------------------|
|-----------------------------------------------------------------------|
|-----------------------------------------------------------------------|
|----------7------------8---------------------7------------------8\7----|
|--000-5-0----0-000-5-0----0-0-0---8--000-5-0----0-000-10-0----0--------|
|--000---0----0-000---0----0-0-0-8----000---0----0-000----0-10-0--------|

Guitar 1 and 2
|-----------------------------------------------------------------------|
|-----------------------------------------------------------------------|
|-----------------------------------------------------------------------|
|----------7------------8-----------------------------------------------|
|--000-5-0----0-000-5-0----0-0-0---8--0-0-3-0-5-3-2---------------------|
|--000---0----0-000---0----0-0-0-8----0-0-3-0-5-3-2-0--7p5p3p0-7p5p3h5--|

Guitar 1 and 2
|--------------------------------------------------------|
|--------------------------------------------------------|
|--------------------------------------------------------|
|--------------------------------------------------------|
|--8-888888-555-7-8--33333333333-5-7--8-888888-333-5-7---|
|--8-888888-555-7-8--33333333333-5-7--8-888888-333-5-7---|

Guitar 1 and 2
|---------------------------------------------------------------|
|---------------------------------------------------------------|
|---------------------------------------------------------------|
|---------------------------------------------------------------|
|--0000000-00000000--8-888888-55555-77777--333333333333-55555---|
|--0000000-00000000--8-888888-55555-77777--333333333333-55555---|

Guitar 1 and 2
|------------------------------------------------------|
|------------------------------------------------------|
|------------------------------------------------7-5---|
|--------------------------------------------7---------|
|--8-888888-33333-55555--0000000000--0-5-8-0---0-------|
|--8-888888-33333-55555--0000000000--0-----0---0-------|

Guitar 1 Tremolo pick.
|------------------------------|
|------------------------------|
|------------------------------| 
|------------------------------|
|--0--3--5--8--0--3--10--8-----|
|--0--3--5--8--0--3--10--8-----|

Guitar 2
|-----------------------------------------------|
|-----------------------------------------------|
|--------------------------------------77-55----|
|-------777777-------77-5555-888888-------------|
|--5555--------88-55----------------88----------|
|-----------------------------------------------|

Guitar 2
|-----------------------------------------------|
|-----------------------------------------------|
|-----------------------------------------------|
|-------777777-------77-55555555--------55------|
|--5555--------88-55-------------888888---------|
|-----------------------------------------------|

Guitar 1 Tremolo pick.
|------------------------------|
|------------------------------|
|------------------------------|
|------------------------------|
|--0--3--5--8--0--3--10--8-----|
|--0--3--5--8--0--3--10--8-----|

Guitar 2
|------------------------10~-8~----------------------------------|
|--10~-10-8----8-10~-11~--------11-8--10~-10-8----8-10~----------|
|-----------10---------------------------------10-------9~-10~---|
|----------------------------------------------------------------|
|----------------------------------------------------------------|
|----------------------------------------------------------------|


Guitar 1 you will find guitar 2 under all guitar 1...

|---------------------------|
|---------------------------|
|---------------------------|
|---------------------------|
|--5-5-5-5-5----5-5-5-5-5---|
|--5-5-5-5-5----5-5-5-5-5---|

Guitar 1
|------------------------------------------|
|------------------------------------------|
|------------------------------------------|
|------------------------------------------|
|--111-1-1-1----------111-1-1-1------------|
|--111-1-1-1-1h3p1-1--111-1-1-1-1h3p1-1----|

Guitar 1
|----------------------------------------------|
|----------------------------------------------|
|----------------------------------------------|
|----------------------------------------------|
|--555-5-5-5-5h7-7p5-5--555-5-5-5-5h7-7p5-5----|
|--555-5-5-5------------555-5-5-5--------------|

Guitar 1
|----------------------------------|
|----------------------------------|
|----------------------------------|
|----------------------------------|
|--55555555-5-6-5-5-6-5-6-8--------|
|--55555555-5---5-5---5------------|

Guitar 1
|----------------------------------|
|----------------------------------|
|----------------------------------| (2x)
|-------------------------7--------|
|--55555555-5-6-5-5-8-6-8----------|
|--55555555-5---5-5----------------|

Guitar 1
|--------------------------------|
|--------------------------------|
|--------------------------------|
|--------------------------------|
|--5-5-5-5-5-5-5-5-5-5-5-5-5-----|
|--5-5-5-5-5-5-5-5-5-5-5-5-5-----|

Guitar 2 solo
|-----------------------------------------------------------------|
|-----------------------------------------------------------------|
|--------------12~-14-15-14-14h15p14-12---------------------------|
|----------12~--------------------------13~-15-13h15p13-12-13~----|
|--10~-13~--------------------------------------------------------|
|-----------------------------------------------------------------|

Guitar 2
|--------------------------------------11-13-15-17-15b~-15-13-15~----|
|-----------------------------11-13-15-------------------------------|
|--------------------10-12-13----------------------------------------|
|-----------10-12-13-------------------------------------------------|
|--10-11-13----------------------------------------------------------|
|--------------------------------------------------------------------|

Guitar 2
       T     T     T     
|--15-15p11-17p11-18p11-18h20-18p17-15-----------|
|--------------------------------------18-15~----|
|------------------------------------------------|
|------------------------------------------------|
|------------------------------------------------|
|------------------------------------------------|

Guitar 2
|-----------------------------------------------------|
|-----------------------------------------------------|
|-----------------------------------------------12----| (2x)
|--15-13-12----15-13-12----15-13-12----15-13-15-------|
|-----------15----------15----------15----------------|
|-----------------------------------------------------|

Guitar 2 solo ending
|---------------------------------------------------------------|
|-----------------------------------------13h15p13-------15~----|
|--13h15p13-12----15-13-12----17-15----------------15-13--------|
|--------------15----------15-------18-17-----------------------|
|---------------------------------------------------------------|
|---------------------------------------------------------------|

Guitar 1 and 2
|--------------------------------------------------------|
|--------------------------------------------------------|
|--------------------------------------------------------|
|--------------------------------------------------------|
|--8-888888-555-7-8--33333333333-5-7--8-888888-333-5-7---|
|--8-888888-555-7-8--33333333333-5-7--8-888888-333-5-7---|

Guitar 1 and 2
|---------------------------------------------------------------|
|---------------------------------------------------------------|
|---------------------------------------------------------------|
|---------------------------------------------------------------|
|--0000000-00000000--8-888888-55555-77777--333333333333-55555---|
|--0000000-00000000--8-888888-55555-77777--333333333333-55555---|

Guitar 1 and 2
|------------------------------------------------------|
|------------------------------------------------------|
|------------------------------------------------7-5---|
|--------------------------------------------7---------|
|--8-888888-33333-55555--0000000000--0-5-8-0---0-------|
|--8-888888-33333-55555--0000000000--0-----0---0-------|

Guitar 1 Tremolo pick.
|------------------------------|
|------------------------------|
|------------------------------| 
|------------------------------|
|--0--3--5--8--0--3--10--8-----|
|--0--3--5--8--0--3--10--8-----|

Guitar 2
|-----------------------------------------------|
|-----------------------------------------------|
|--------------------------------------77-55----|
|-------777777-------77-5555-888888-------------|
|--5555--------88-55----------------88----------|
|-----------------------------------------------|

Guitar 2
|-----------------------------------------------|
|-----------------------------------------------|
|-----------------------------------------------|
|-------777777-------77-55555555--------55------|
|--5555--------88-55-------------888888---------|
|-----------------------------------------------|

Guitar 1 Tremolo pick.
|------------------------------|
|------------------------------|
|------------------------------|
|------------------------------|
|--0--3--5--8--0--3--10--8-----|
|--0--3--5--8--0--3--10--8-----|

Guitar 2
|------------------------10~-8~----------------------------------|
|--10~-10-8----8-10~-11~--------11-8--10~-10-8----8-10~----------|
|-----------10---------------------------------10-------9~-10~---|
|----------------------------------------------------------------|
|----------------------------------------------------------------|
|----------------------------------------------------------------|

Guitar 1
|-----------------------------------------------------------------------|
|-----------------------------------------------------------------------|
|-----------------------------------------------------------------------|
|----------7------------8---------------------7------------------8\7----|
|--000-5-0----0-000-5-0----0-0-0---8--000-5-0----0-000-10-0----0--------|
|--000---0----0-000---0----0-0-0-8----000---0----0-000----0-10-0--------|

Guitar 1
|-----------------------------------------------------------------------|
|-----------------------------------------------------------------------|
|-----------------------------------------------------------------------|
|----------7------------8-----------------------------------------------|
|--000-5-0----0-000-5-0----0-0-0---8--0-0-3-0-5-3-2---------------------|
|--000---0----0-000---0----0-0-0-8----0-0-3-0-5-3-2-0--7p5p3p0-7p5p3h5--|

Guitar 2
|--------------------------------------------------------------------------|
|--------------------------------------------------------------------------|
|--------------------------------------------------------------------------|
|-------------------------------8\7----------------------------------------|
|--000--000--000--000-10-0----0-----000-000-00-3-0-5-3-2-------------------|
|--000--000--000--000----0-10-0-----000-000-00-3-0-5-3-2-0-7p5p3p0-7p5p3h5-|

Guitar 1 ending
|-----------------------------------------------------------------------|
|-----------------------------------------------------------------------|
|-----------------------------------------------------------------------|
|----------7------------8---------------------7------------------8\7----|
|--000-5-0----0-000-5-0----0-0-0---8--000-5-0----0-000-10-0----0--------|
|--000---0----0-000---0----0-0-0-8----000---0----0-000----0-10-0--------|

Guitar 1 ending
|-----------------------------------------------------------------------|
|-----------------------------------------------------------------------|
|-----------------------------------------------------------------------|
|----------7------------8-----------------------------------------------|
|--000-5-0----0-000-5-0----0-0-0---8--0-0-3-0-5-3-2---------------------|
|--000---0----0-000---0----0-0-0-8----0-0-3-0-5-3-2-0--7p5p3p0-7p5p3h5--|

Guitar 2 ending
|--------------------------------------------------------------------------|
|--------------------------------------------------------------------------|
|--------------------------------------------------------------------------|
|-------------------------------8\7----------------------------------------|
|--000--000--000--000-10-0----0-----000-000-00-3-0-5-3-2-------------------|
|--000--000--000--000----0-10-0-----000-000-00-3-0-5-3-2-0-7p5p3p0-7p5p3h5-|

Synth ending
|--18~~~--17~~~--13~~~--15~~~-----|
|---------------------------------|
|---------------------------------|  (2x)
|---------------------------------|
|---------------------------------|
|---------------------------------|
comments
We did not receive enough feedback on this tab! Please rate:
print report bad tab
1 2 3 4 5
I want to post or [tab]
guest
You may want to rate the tab now too:
select rating
Please do not post tabs as comments. Select "correction" instead!