Oops, an error
Loading. Please wait.

Strong And Smart Tab

ver1
ver1

Whole song

Interactive

More versions @911Tabs.com
802 views 1 this week
no commentswrite comment
1 2 3 4 5
excellent!
x 1
Autoscroll
+/-
esc
set tempo
stop
Contributor
Difficulty
intermediate
NEW! There's an official Ultimate Guitar app which is ideal
for learning songs when you're away from computer. Get the app
WARNING: You are trying to view
                                    content from Ultimate-Guitar.com
                                    in an unauthorized application,
                                    which is prohibited.

                                    Please use an official Ultimate
                                    Guitar Tabs application for iPhone,
                                    iPad or Android to access legitimate
                                    chords, guitar, bass, and drum tabs
                                    from Ultimate-Guitar.com database.

                                    Type "ultimate guitar tabs" in Apple
                                    App Store's or Android Market's
                                    search to find the application.
                               Strong and Smart - In Flames                                



Tuning:Tune down 2 step for all guitars

C F A# D# G C  

Tempo=105 bpm                                                                     


Lead I



              E  E  S S S E  E  E   S S S    E  E  S S S Q     S E  S S   
C ||-------|------------------------------|------------------------------|
G ||-------|------------------------------|------------------------------|
D#||-------|--5--5--5-4-2-4--2------------|-------------------------2-4S-|
A#||-------|--------------------5~--3-2-2-|--3--3--3-5-3-2~----3-5-------|
F ||-------|------------------------------|------------------------------|
C ||-------|------------------------------|------------------------------|


  E  E  S S S E  E  E   S S S    E  E  S S S Q     S E  S S   
------------------------------|------------------------------|
------------------------------|------------------------------|
--5--5--5-4-2-4--2------------|-------------------------2-4S-|
--------------------5~--3-2-2-|--3--3--3-5-3-2~----3-5-------|
------------------------------|------------------------------|
------------------------------|------------------------------|


  W                    S S E  S S E  S S E  S S E     S S E  S S E   
--------------------|------------------------------|----------------|
--------------------|------------------------------|----------------|
--2~----------------|------------------------------|----------------|
--------------------|--------------------5------5--|------5------5--|
--------------------|--7-7----3-3----3-3-3--3-3-3--|--3-3-3--3-3-3--|
--------------------|--5-5----1-1------------------|----------------|


  S S E  S S E  S S E  S S E     S S E  S S E  S S E  S S E     S S E  S S E   
------------------------------|------------------------------|----------------|
------------------------------|------------------------------|----------------|
------------------------------|------------------------------|----------------|
------------------------------|--------------------5------5--|------5------5--|
--7-7----3-3----7-7----3-3----|--7-7----3-3----3-3-3--3-3-3--|--3-3-3--3-3-3--|
--5-5----1-1----5-5----1-1----|--5-5----1-1------------------|----------------|


  H         H            E   S  S  S  S  E   E   E   Q     
----------------------|-----------------------------------|
----------------------|-----13-13-13-12-10------10--------|
----------------------|---------------------12------12----|
----------------------|-----------------------------------|
----------------------|-----------------------------------|
--1~--------3~--------|-----------------------------------|


  E   S  S  S  S  S  S  E   E    S  S  E      E   S  S  S  S  E   E   E   Q     
-------------------------------------------|-----------------------------------|
-----13-13-13-12-10-12-13--13b--12-10------|-----13-13-13-12-10------10--------|
--L-----------------------------------12~--|---------------------12------12----|
-------------------------------------------|-----------------------------------|
-------------------------------------------|-----------------------------------|
-------------------------------------------|-----------------------------------|


  E   S  S  S  S  S  S  E   E    S  S  E      E  Q    S E  S S E  S E   
-------------------------------------------|---------------------------|
-----13-13-13-12-10-12-13--13b--12-10------|---------------------------|
--L-----------------------------------12~--|---------------------------|
-------------------------------------------|---------------------------|
-------------------------------------------|--2---------3--3-3-5--5-5--|
-------------------------------------------|--0---------1--1-1-3--3-3--|


  E  Q    E  Q    Q       E  E  S S S E  E  E   S S S  
-----------------------|------------------------------|
-----------------------|------------------------------|
-----------------------|--5--5--5-4-2-4--2------------|
-----------------------|--------------------5~--3-2-2-|
--2----------3----5----|------------------------------|
--0----------1----3----|------------------------------|


  E  E  S S S Q     S E  S S     E  E  S S S E  E  E   S S S  
------------------------------|------------------------------|
------------------------------|------------------------------|
-------------------------2-4S-|--5--5--5-4-2-4--2------------|
--3--3--3-5-3-2~----3-5-------|--------------------5~--3-2-2-|
------------------------------|------------------------------|
------------------------------|------------------------------|


  E  E  S S S Q     S E  S S     W                  
------------------------------|--------------------|
------------------------------|--------------------|
-------------------------2-4S-|--2~----------------|
--3--3--3-5-3-2~----3-5-------|--------------------|
------------------------------|--------------------|
------------------------------|--------------------|


  S S E  S S E  S S E  S S E     S S E  S S E     S S E  S S E  S S E  S S E   
------------------------------|----------------|------------------------------|
------------------------------|----------------|------------------------------|
------------------------------|----------------|------------------------------|
--------------------5------5--|------5------5--|------------------------------|
--7-7----3-3----3-3-3--3-3-3--|--3-3-3--3-3-3--|--7-7----3-3----7-7----3-3----|
--5-5----1-1------------------|----------------|--5-5----1-1----5-5----1-1----|


  S S E  S S E  S S E  S S E     S S E  S S E     H         H          
------------------------------|----------------|----------------------|
------------------------------|----------------|----------------------|
------------------------------|----------------|----------------------|
--------------------5------5--|------5------5--|----------------------|
--7-7----3-3----3-3-3--3-3-3--|--3-3-3--3-3-3--|----------------------|
--5-5----1-1------------------|----------------|--1~--------3~--------|


  E   S  S  S  S  E   E   E   Q       E   S  S  S  S  S  S  E   E    S  S  E    
-----------------------------------|-------------------------------------------|
-----13-13-13-12-10------10--------|-----13-13-13-12-10-12-13--13b--12-10------|
---------------------12------12----|--L-----------------------------------12~--|
-----------------------------------|-------------------------------------------|
-----------------------------------|-------------------------------------------|
-----------------------------------|-------------------------------------------|


  E   S  S  S  S  E   E   E   Q       E   S  S  S  S  S  S  E   E    S  S  E    
-----------------------------------|-------------------------------------------|
-----13-13-13-12-10------10--------|-----13-13-13-12-10-12-13--13b--12-10------|
---------------------12------12----|--L-----------------------------------12~--|
-----------------------------------|-------------------------------------------|
-----------------------------------|-------------------------------------------|
-----------------------------------|-------------------------------------------|


  E  Q    S E  S S E  S E     E  Q    E  Q    Q     
---------------------------|-----------------------|
---------------------------|-----------------------|
---------------------------|-----------------------|
---------------------------|-----------------------|
--2---------3--3-3-5--5-5--|--2----------3----5----|
--0---------1--1-1-3--3-3--|--0----------1----3----|


  Q.      S  S Q.      S  S    Q     S S S  S S  S S S S S  E   
----------------------------|----------------------------------|
----------------------------|----------------------------------|
----------------------------|-----------------9------9-7-------|
--7~------9-10-7~------9-10-|--7~----L-7-9-10---10-7-----9-----|
----------------------------|------------------------------10--|
----------------------------|----------------------------------|


  Q.      S  S Q.      S  S    Q     S S S  S S  S S S S S  E   
----------------------------|----------------------------------|
----------------------------|----------------------------------|
----------------------------|-----------------9------9-7-------|
--7~------9-10-7~------9-10-|--7~----L-7-9-10---10-7-----9-----|
----------------------------|------------------------------10--|
----------------------------|----------------------------------|


   H        S   S  S  S  Q         S   S  S  S  S   S  S  S  S   S  S  Q     S  
-------------------------------|-----------------------------------------------|
--10--------8S-10-10-10-10~----|--10S-13-13-13-13S-15-15-15-15S-17-17-17~----L-|
---9--------7S--9--9--9--9~----|---9S-12-12-12-12S-14-14-14-14S-16-16-16~----L-|
-------------------------------|-----------------------------------------------|
-------------------------------|-----------------------------------------------|
-------------------------------|-----------------------------------------------|


  E   E   E   S S S S  S  S  Q        S Q.       S  S  S  S E  S  S   S   
-----------------------------------|--8-7br------L-10-12-10-8--7---------|
-----10--10S--8-8-8-8-10-10-10~----|-----------------------------10~--L~-|
------9---9S--7-7-7-7--9--9--9~----|-------------------------------------|
-----------------------------------|-------------------------------------|
-----------------------------------|-------------------------------------|
-----------------------------------|-------------------------------------|


  H         H           E   S  S  S  S  E   E   E   Q     
---------------------|-----------------------------------|
--L~-----------------|-----13-13-13-12-10------10--------|
---------------------|---------------------12------12----|
---------------------|-----------------------------------|
---------------------|-----------------------------------|
---------------------|-----------------------------------|


  E   S  S  S  S  S  S  E   E    S  S  E      E   S  S  S  S  E   E   E   Q     
-------------------------------------------|-----------------------------------|
-----13-13-13-12-10-12-13--13b--12-10------|-----13-13-13-12-10------10--------|
--L-----------------------------------12~--|---------------------12------12----|
-------------------------------------------|-----------------------------------|
-------------------------------------------|-----------------------------------|
-------------------------------------------|-----------------------------------|


  E   S  S  S  S  S  S  E   E    S  S  E      E   S  S  S  S  E   E   E   Q     
-------------------------------------------|-----------------------------------|
-----13-13-13-12-10-12-13--13b--12-10------|-----13-13-13-12-10------10--------|
--L-----------------------------------12~--|---------------------12------12----|
-------------------------------------------|-----------------------------------|
-------------------------------------------|-----------------------------------|
-------------------------------------------|-----------------------------------|


  E   S  S  S  S  S  S  E   E    S  S  E      E   S  S  S  S  E   E   E   Q     
-------------------------------------------|-----------------------------------|
-----13-13-13-12-10-12-13--13b--12-10------|-----13-13-13-12-10------10--------|
--L-----------------------------------12~--|---------------------12------12----|
-------------------------------------------|-----------------------------------|
-------------------------------------------|-----------------------------------|
-------------------------------------------|-----------------------------------|


  E   S  S  S  S  S  S  E   E    S  S  E          
-------------------------------------------|-----|
-----13-13-13-12-10-12-13--13b--12-10------|-----|
--L-----------------------------------12~--|-----|
-------------------------------------------|-----|
-------------------------------------------|-----|
-------------------------------------------|-----|


  E  E  S S S E  E  E   S S S    E  E  S S S Q     S E  S S   
------------------------------|------------------------------|
------------------------------|------------------------------|
--5--5--5-4-2-4--2------------|-------------------------2-4S-|
--------------------5~--3-2-2-|--3--3--3-5-3-2~----3-5-------|
------------------------------|------------------------------|
------------------------------|------------------------------|


  E  E  S S S E  E  E   S S S    E  E  S S S Q     S E  S S   
------------------------------|------------------------------|
------------------------------|------------------------------|
--5--5--5-4-2-4--2------------|-------------------------2-4S-|
--------------------5~--3-2-2-|--3--3--3-5-3-2~----3-5-------|
------------------------------|------------------------------|
------------------------------|------------------------------|


  E  E  S S S E  E  E   S S S    E  E  S S S Q     S E  S S  
------------------------------|-----------------------------|
------------------------------|-----------------------------|
------------------------------|-----------------------------|
--7--7--7-6-4-6--4------------|-------------------------4-6-|
--------------------7~--5-4-4-|--5--5--5-7-5-4~----5-7------|
------------------------------|-----------------------------|


  E  E  S S S E  E  E   S S S    E  E  S S S Q     S E  S S  
------------------------------|-----------------------------|
------------------------------|-----------------------------|
------------------------------|-----------------------------|
--7--7--7-6-4-6--4------------|-------------------------4-6-|
--------------------7~--5-4-4-|--5--5--5-7-5-4~----5-7------|
------------------------------|-----------------------------|


  W                               
--------------------|-----------||
--------------------|-----------||
--------------------|-----------||
--4~----------------|-----------||
--------------------|-----------||
--------------------|-----------||




_______________________________________________________________________________
*******************************************************************************
_______________________________________________________________________________


******************************Lead 2*******************************************


              E  E  S S S E   E  E  S S S    E  E  S S S E  E  S E  S S   
C ||-------|------------------------------|------------------------------|
G ||-------|--5--5--5-3---3~--------------|---------------------------3S-|
D#||-------|------------5-----5--4--2-----|--2--2--2-4-2-------2-4--5----|
A#||-------|--------------------------5-2-|--------------5--5------------|
F ||-------|------------------------------|------------------------------|
C ||-------|------------------------------|------------------------------|


  E  E  S S S E   E  E  S S S    E  E  S S S E  E  S E  S S  
------------------------------|-----------------------------|
--5--5--5-3---3~--------------|---------------------------3-|
------------5-----5--4--2-----|--2--2--2-4-2-------2-4--5---|
--------------------------5-2-|--------------5--5-----------|
------------------------------|-----------------------------|
------------------------------|-----------------------------|


  W                    S S E  S S E  S S E  S S E     S S E  S S E   
--------------------|------------------------------|----------------|
--------------------|------------------------------|----------------|
--5~----------------|------------------------------|----------------|
--------------------|--------------------5------5--|------5------5--|
--------------------|--7-7----3-3----3-3-3--3-3-3--|--3-3-3--3-3-3--|
--------------------|--5-5----1-1------------------|----------------|


  S S E  S S E  S S E  S S E     S S E  S S E  S S E  S S E     S S E  S S E   
------------------------------|------------------------------|----------------|
------------------------------|------------------------------|----------------|
------------------------------|------------------------------|----------------|
------------------------------|--------------------5------5--|------5------5--|
--7-7----3-3----7-7----3-3----|--7-7----3-3----3-3-3--3-3-3--|--3-3-3--3-3-3--|
--5-5----1-1----5-5----1-1----|--5-5----1-1------------------|----------------|


  H         H            E   S  S  S  S  E   E   E   Q     
----------------------|-----12-12-12-10-------------------|
----------------------|-----------------13--12--13--12----|
----------------------|-----------------------------------|
----------------------|-----------------------------------|
----------------------|-----------------------------------|
--5~--------7~--------|-----------------------------------|


  E   S  S  S  S  S  S  E   E   S  S  E      E   S  S  S  S  E   E   E   Q     
-----12-12-12-10----10-12--13--10---------|-----12-12-12-10-------------------|
--L--------------13---------------13-12~--|-----------------13--12--13--12----|
------------------------------------------|-----------------------------------|
------------------------------------------|-----------------------------------|
------------------------------------------|-----------------------------------|
------------------------------------------|-----------------------------------|


  E   S  S  S  S  S  S  E   E   S  S  E      E  Q    S E  S S E  S E   
-----12-12-12-10----10-12--13--10---------|---------------------------|
--L--------------13---------------13-12~--|---------------------------|
------------------------------------------|---------------------------|
------------------------------------------|---------------------------|
------------------------------------------|--2---------3--3-3-5--5-5--|
------------------------------------------|--0---------1--1-1-3--3-3--|


  E  Q    E  Q    Q       E  E  S S S E   E  E  S S S  
-----------------------|------------------------------|
-----------------------|--5--5--5-3---3~--------------|
-----------------------|------------5-----5--4--2-----|
-----------------------|--------------------------5-2-|
--2----------3----5----|------------------------------|
--0----------1----3----|------------------------------|


  E  E  S S S E  E  S E  S S     E  E  S S S E   E  E  S S S  
------------------------------|------------------------------|
---------------------------3S-|--5--5--5-3---3~--------------|
--2--2--2-4-2-------2-4--5----|------------5-----5--4--2-----|
--------------5--5------------|--------------------------5-2-|
------------------------------|------------------------------|
------------------------------|------------------------------|


  E  E  S S S E  E  S E  S S    W                  
-----------------------------|--------------------|
---------------------------3-|--------------------|
--2--2--2-4-2-------2-4--5---|--5~----------------|
--------------5--5-----------|--------------------|
-----------------------------|--------------------|
-----------------------------|--------------------|


  S S E  S S E  S S E  S S E     S S E  S S E     S S E  S S E  S S E  S S E   
------------------------------|----------------|------------------------------|
------------------------------|----------------|------------------------------|
------------------------------|----------------|------------------------------|
--------------------5------5--|------5------5--|------------------------------|
--7-7----3-3----3-3-3--3-3-3--|--3-3-3--3-3-3--|--7-7----3-3----7-7----3-3----|
--5-5----1-1------------------|----------------|--5-5----1-1----5-5----1-1----|


  S S E  S S E  S S E  S S E     S S E  S S E     H         H          
------------------------------|----------------|----------------------|
------------------------------|----------------|----------------------|
------------------------------|----------------|----------------------|
--------------------5------5--|------5------5--|----------------------|
--7-7----3-3----3-3-3--3-3-3--|--3-3-3--3-3-3--|----------------------|
--5-5----1-1------------------|----------------|--5~--------7~--------|


  E   S  S  S  S  E   E   E   Q       E   S  S  S  S  S  S  E   E   S  S  E    
-----12-12-12-10-------------------|-----12-12-12-10----10-12--13--10---------|
-----------------13--12--13--12----|--L--------------13---------------13-12~--|
-----------------------------------|------------------------------------------|
-----------------------------------|------------------------------------------|
-----------------------------------|------------------------------------------|
-----------------------------------|------------------------------------------|


  E   S  S  S  S  E   E   E   Q       E   S  S  S  S  S  S  E   E   S  S  E    
-----12-12-12-10-------------------|-----12-12-12-10----10-12--13--10---------|
-----------------13--12--13--12----|--L--------------13---------------13-12~--|
-----------------------------------|------------------------------------------|
-----------------------------------|------------------------------------------|
-----------------------------------|------------------------------------------|
-----------------------------------|------------------------------------------|


  E  Q    S E  S S E  S E     E  Q    E  Q    Q     
---------------------------|-----------------------|
---------------------------|-----------------------|
---------------------------|-----------------------|
---------------------------|-----------------------|
--2---------3--3-3-5--5-5--|--2----------3----5----|
--0---------1--1-1-3--3-3--|--0----------1----3----|


   Q.       S  S  Q.       S  S     Q     S  S  S  S  S  S  S  S  S  S  E   
--------------------------------|--------------------12-------12-10--------|
--10~------10-13-12~------10-13-|--12~----L-10-12-13----13-10-------12-----|
--------------------------------|--------------------------------------12--|
--------------------------------|------------------------------------------|
--------------------------------|------------------------------------------|
--------------------------------|------------------------------------------|


   Q.     S S  Q.      S S     Q     S  S S S S S  S S  S S E   
---------------------------|-----------------------------------|
---------------------------|---------L--------8------8---------|
----------7-9----------7-9-|--------------7-9---9------10-7----|
--10----------10~----------|--10~----L-10---------10--------9--|
---------------------------|-----------------------------------|
---------------------------|-----------------------------------|


   H        S   S  S  S  Q         S   S  S  S  S   S  S  S  S   S  S  Q     S  
-------------------------------|-----------------------------------------------|
--10--------8S-10-10-10-10~----|--10S-13-13-13-13S-15-15-15-15S-17-17-17~----L-|
---9--------7S--9--9--9--9~----|---9S-12-12-12-12S-14-14-14-14S-16-16-16~----L-|
-------------------------------|-----------------------------------------------|
-------------------------------|-----------------------------------------------|
-------------------------------|-----------------------------------------------|


  E   E   E   S S S S  S  S  Q         S Q.       S  S  S  S  E  S S  S   
-----------------------------------|-------------------------------------|
-----10--10S--8-8-8-8-10-10-10~----|--10-8b-------L-12-13-12-10--8-------|
------9---9S--7-7-7-7--9--9--9~----|-------------------------------9~-L~-|
-----------------------------------|-------------------------------------|
-----------------------------------|-------------------------------------|
-----------------------------------|-------------------------------------|


  H         H           E   S  S  S  S  E   E   E   Q     
---------------------|-----12-12-12-10-------------------|
---------------------|-----------------13--12--13--12----|
--L~-----------------|-----------------------------------|
---------------------|-----------------------------------|
---------------------|-----------------------------------|
---------------------|-----------------------------------|


  E   S  S  S  S  S  S  E   E   S  S  E      E   S  S  S  S  E   E   E   Q     
-----12-12-12-10----10-12--13--10---------|-----12-12-12-10-------------------|
--L--------------13---------------13-12~--|-----------------13--12--13--12----|
------------------------------------------|-----------------------------------|
------------------------------------------|-----------------------------------|
------------------------------------------|-----------------------------------|
------------------------------------------|-----------------------------------|


  E   S  S  S  S  S  S  E   E   S  S  E      E   S  S  S  S  E   E   E   Q     
-----12-12-12-10----10-12--13--10---------|-----12-12-12-10-------------------|
--L--------------13---------------13-12~--|-----------------13--12--13--12----|
------------------------------------------|-----------------------------------|
------------------------------------------|-----------------------------------|
------------------------------------------|-----------------------------------|
------------------------------------------|-----------------------------------|


  E   S  S  S  S  S  S  E   E   S  S  E      E   S  S  S  S  E   E   E   Q     
-----12-12-12-10----10-12--13--10---------|-----12-12-12-10-------------------|
--L--------------13---------------13-12~--|-----------------13--12--13--12----|
------------------------------------------|-----------------------------------|
------------------------------------------|-----------------------------------|
------------------------------------------|-----------------------------------|
------------------------------------------|-----------------------------------|


  E   S  S  S  S  S  S  E   E   S  S  E            E  E  S S S E   E  E  S S S  
-----12-12-12-10----10-12--13--10---------|-----|------------------------------|
--L--------------13---------------13-12~--|-----|--5--5--5-3---3~--------------|
------------------------------------------|-----|------------5-----5--4--2-----|
------------------------------------------|-----|--------------------------5-2-|
------------------------------------------|-----|------------------------------|
------------------------------------------|-----|------------------------------|


  E  E  S S S E  E  S E  S S     E  E  S S S E   E  E  S S S  
------------------------------|------------------------------|
---------------------------3S-|--5--5--5-3---3~--------------|
--2--2--2-4-2-------2-4--5----|------------5-----5--4--2-----|
--------------5--5------------|--------------------------5-2-|
------------------------------|------------------------------|
------------------------------|------------------------------|


  E  E  S S S E  E  S E  S S    E  E  S S S E  E  E   S S S  
-----------------------------|------------------------------|
---------------------------3-|------------------------------|
--2--2--2-4-2-------2-4--5---|--6--6--6-4---4---------------|
--------------5--5-----------|------------7----7--6~--4-----|
-----------------------------|--------------------------7-6-|
-----------------------------|------------------------------|


  E  E  S S S Q    S E  S S    E  E  S S S E  E  E   S S S  
----------------------------|------------------------------|
----------------------------|------------------------------|
--------------------------4-|--6--6--6-4---4---------------|
--4--4--4-6-4------4-6--7---|------------7----7--6~--4-----|
--------------7-------------|--------------------------7-6-|
----------------------------|------------------------------|


  E  E  S S S Q    S E  S S    W                               
----------------------------|--------------------|-----------||
----------------------------|--------------------|-----------||
--------------------------4-|--------------------|-----------||
--4--4--4-6-4------4-6--7---|--7~----------------|-----------||
--------------7-------------|--------------------|-----------||
----------------------------|--------------------|-----------||

__________________________________________________________________________________
**********************************************************************************
__________________________________________________________________________________



*******************************Rhythm Guitar*************************************



      E  Q    S E  S S E  S E     E  E  S S S E  E  E  S S S  
C ||---------------------------|-----------------------------|
G ||---------------------------|-----------------------------|
D#||---------------------------|-----------------------------|
A#||---------------------------|--2--2--2-2-2-5--5--5--5-5-5-|
F ||--2---------3--3-3-5--5-5--|--0--0--0-0-0-3--3--3--3-3-3-|
C ||--0---------1--1-1-3--3-3--|-----------------------------|


  E  E  S S S E  E  S E  S S    E  E  S S S E  E  E  S S S  
-----------------------------|-----------------------------|
-----------------------------|-----------------------------|
-----------------------------|-----------------------------|
-----------------------------|--2--2--2-2-2-5--5--5--5-5-5-|
--3--3--3-3-3-2--2--3-5--3-5-|--0--0--0-0-0-3--3--3--3-3-3-|
--1--1--1-1-1-0--0--1-3--1-3-|-----------------------------|


  E  E  S S S E  E  S E  S S    S S E  S S E  S S E  S S E                     
-----------------------------|------------------------------|-----|-----|-----|
-----------------------------|------------------------------|-----|-----|-----|
-----------------------------|------------------------------|-----|-----|-----|
-----------------------------|------------------------------|-----|-----|-----|
--3--3--3-3-3-2--2--3-5--3-5-|--7-7----3-3----7-7----3-3----|-----|-----|-----|
--1--1--1-1-1-0--0--1-3--1-3-|--5-5----1-1----5-5----1-1----|-----|-----|-----|


                    E  S S S S S S E  E  E  E     E  S S S S S S E  E  E  E   
-----|-----|-----|-----------------------------|-----------------------------|
-----|-----|-----|-----------------------------|-----------------------------|
-----|-----|-----|-----------------------------|-----------------------------|
-----|-----|-----|--2--2-2-2-2-2-2-5--5--------|--2--2-2-2-2-2-2-5--5--------|
-----|-----|-----|--0--0-0-0-0-0-0-3--3--5--5--|--0--0-0-0-0-0-0-3--3--5--5--|
-----|-----|-----|-----------------------3--3--|-----------------------3--3--|


  E  S S S S S S E  E  E  E     E  S S S S S S E  E  E  E               
-----------------------------|-----------------------------|-----|-----|
-----------------------------|-----------------------------|-----|-----|
-----------------------------|-----------------------------|-----|-----|
--2--2-2-2-2-2-2-5--5--------|--2--2-2-2-2-2-2-5--5--------|-----|-----|
--0--0-0-0-0-0-0-3--3--5--5--|--0--0-0-0-0-0-0-3--3--5--5--|-----|-----|
-----------------------3--3--|-----------------------3--3--|-----|-----|


  E  E  S S S E  E  E  S S S    E  E  S S S E  E  S E  S S  
-----------------------------|-----------------------------|
-----------------------------|-----------------------------|
-----------------------------|-----------------------------|
--2--2--2-2-2-5--5--5--5-5-5-|-----------------------------|
--0--0--0-0-0-3--3--3--3-3-3-|--3--3--3-3-3-2--2--3-5--3-5-|
-----------------------------|--1--1--1-1-1-0--0--1-3--1-3-|


  E  E  S S S E  E  E  S S S    E  E  S S S E  E  S E  S S  
-----------------------------|-----------------------------|
-----------------------------|-----------------------------|
-----------------------------|-----------------------------|
--2--2--2-2-2-5--5--5--5-5-5-|-----------------------------|
--0--0--0-0-0-3--3--3--3-3-3-|--3--3--3-3-3-2--2--3-5--3-5-|
-----------------------------|--1--1--1-1-1-0--0--1-3--1-3-|


  S S E  S S E  S S E  S S E                                       
------------------------------|-----|-----|-----|-----|-----|-----|
------------------------------|-----|-----|-----|-----|-----|-----|
------------------------------|-----|-----|-----|-----|-----|-----|
------------------------------|-----|-----|-----|-----|-----|-----|
--7-7----3-3----7-7----3-3----|-----|-----|-----|-----|-----|-----|
--5-5----1-1----5-5----1-1----|-----|-----|-----|-----|-----|-----|


  E  S S S S S S E  E  E  E     E  S S S S S S E  E  E  E   
-----------------------------|-----------------------------|
-----------------------------|-----------------------------|
-----------------------------|-----------------------------|
--2--2-2-2-2-2-2-5--5--------|--2--2-2-2-2-2-2-5--5--------|
--0--0-0-0-0-0-0-3--3--5--5--|--0--0-0-0-0-0-0-3--3--5--5--|
-----------------------3--3--|-----------------------3--3--|


  E  S S S S S S E  E  E  E     E  S S S S S S E  E  E  E               
-----------------------------|-----------------------------|-----|-----|
-----------------------------|-----------------------------|-----|-----|
-----------------------------|-----------------------------|-----|-----|
--2--2-2-2-2-2-2-5--5--------|--2--2-2-2-2-2-2-5--5--------|-----|-----|
--0--0-0-0-0-0-0-3--3--5--5--|--0--0-0-0-0-0-0-3--3--5--5--|-----|-----|
-----------------------3--3--|-----------------------3--3--|-----|-----|


  E  E  E  E  E  E  E  E     S S S E  S S E  S S E  S E   
--------------------------|------------------------------|
--------------------------|------------------------------|
--------------------------|------------------------------|
--------------------------|------------------------------|
--0--0--0--0--3--3--3--3--|--------3--3-3--------3--3-3--|
--------------------------|--1-1-1--------1--1-1---------|


  E  E  E  E  E  E  E  E     S S S E  S S E  S S E  S E   
--------------------------|------------------------------|
--------------------------|------------------------------|
--------------------------|------------------------------|
--------------------------|------------------------------|
--0--0--0--0--3--3--3--3--|--------3--3-3--------3--3-3--|
--------------------------|--1-1-1--------1--1-1---------|


  S E  S S E  S S E  S S E  S    S S S E  S S E  S S E  E.   
------------------------------|-----------------------------|
------------------------------|-----------------------------|
------------------------------|-----------------------------|
----2------2------5------5----|--------5--5----------5--5---|
--0-0--0-0-0--0-3-3--3-3-3--3-|--3-3---3--3---3--3---3--3---|
------------------------------|--1-1----------1--1----------|


  S E  S S E  S S E  S S E  S    S S S E  S S E  S S E  E.   
------------------------------|-----------------------------|
------------------------------|-----------------------------|
------------------------------|-----------------------------|
----2------2------5------5----|--------5--5----------5--5---|
--0-0--0-0-0--0-3-3--3-3-3--3-|--3-3---3--3---3--3---3--3---|
------------------------------|--1-1----------1--1----------|


  H        H           E  S S S S S S E  E  E  E   
--------------------|-----------------------------|
--------------------|-----------------------------|
--------------------|-----------------------------|
--------------------|--2--2-2-2-2-2-2-5--5--------|
--0--------2--------|--0--0-0-0-0-0-0-3--3--5--5--|
--1--------3--------|-----------------------3--3--|


  E  S S S S S S E  E  E  E     E  S S S S S S E  E  E  E   
-----------------------------|-----------------------------|
-----------------------------|-----------------------------|
-----------------------------|-----------------------------|
--2--2-2-2-2-2-2-5--5--------|--2--2-2-2-2-2-2-5--5--------|
--0--0-0-0-0-0-0-3--3--5--5--|--0--0-0-0-0-0-0-3--3--5--5--|
-----------------------3--3--|-----------------------3--3--|


  E  S S S S S S E  E  E  E     E  S S S S S S E  E  E  E   
-----------------------------|-----------------------------|
-----------------------------|-----------------------------|
-----------------------------|-----------------------------|
--2--2-2-2-2-2-2-5--5--------|--2--2-2-2-2-2-2-5--5--------|
--0--0-0-0-0-0-0-3--3--5--5--|--0--0-0-0-0-0-0-3--3--5--5--|
-----------------------3--3--|-----------------------3--3--|


  E  S S S S S S E  E  E  E     E  S S S S S S E  E  E  E   
-----------------------------|-----------------------------|
-----------------------------|-----------------------------|
-----------------------------|-----------------------------|
--2--2-2-2-2-2-2-5--5--------|--2--2-2-2-2-2-2-5--5--------|
--0--0-0-0-0-0-0-3--3--5--5--|--0--0-0-0-0-0-0-3--3--5--5--|
-----------------------3--3--|-----------------------3--3--|


  E  S S S S S S E  E  E  E           E  E  S S S E  E  E  S S S  
-----------------------------|-----|-----------------------------|
-----------------------------|-----|-----------------------------|
-----------------------------|-----|-----------------------------|
--2--2-2-2-2-2-2-5--5--------|-----|--2--2--2-2-2-5--5--5--5-5-5-|
--0--0-0-0-0-0-0-3--3--5--5--|-----|--0--0--0-0-0-3--3--3--3-3-3-|
-----------------------3--3--|-----|-----------------------------|


  E  E  S S S E  E  S E  S S    E  E  S S S E  E  E  S S S  
-----------------------------|-----------------------------|
-----------------------------|-----------------------------|
-----------------------------|-----------------------------|
-----------------------------|--2--2--2-2-2-5--5--5--5-5-5-|
--3--3--3-3-3-2--2--3-5--3-5-|--0--0--0-0-0-3--3--3--3-3-3-|
--1--1--1-1-1-0--0--1-3--1-3-|-----------------------------|


  E  E  S S S E  E  S E  S S    E  E  S S S E  E  E  S S S  
-----------------------------|-----------------------------|
-----------------------------|-----------------------------|
-----------------------------|-----------------------------|
-----------------------------|-----------------------------|
--3--3--3-3-3-2--2--3-5--3-5-|--4--4--4-4-4-7--7--7--7-7-7-|
--1--1--1-1-1-0--0--1-3--1-3-|--2--2--2-2-2-5--5--5--5-5-5-|


  E  E  S S S E  E  S E  S S    E  E  S S S E  E  E  S S S  
-----------------------------|-----------------------------|
-----------------------------|-----------------------------|
-----------------------------|-----------------------------|
--7--7--7-7-7-6--6--7-9--7-9-|-----------------------------|
--5--5--5-5-5-4--4--5-7--5-7-|--4--4--4-4-4-7--7--7--7-7-7-|
-----------------------------|--2--2--2-2-2-5--5--5--5-5-5-|


  E  E  S S S E  E  S E  S S    W                              
-----------------------------|-------------------|-----------||
-----------------------------|-------------------|-----------||
-----------------------------|-------------------|-----------||
--7--7--7-7-7-6--6--7-9--7-9-|-------------------|-----------||
--5--5--5-5-5-4--4--5-7--5-7-|--4----------------|-----------||
-----------------------------|--2----------------|-----------||




Duration Legend
---------------
W - whole
H - half
Q - quarter
E - 8th
S - 16th
T - 32nd
X - 64th
. - note dotted
|-n-|  - n-tuplets


Tablature Legend
----------------
L - tied note
x - dead note
g - grace note
(n) - ghost note
> - accentuded note
NH - natural harmonic
AH - artificial harmonic
TH - tapped harmonic
SH - semi harmonic
PH - pitch harmonic
h - hammer on
p - pull off
b - bend
br - bendRelease
pb - preBend
pbr - preBendRelease
brb - bendReleaseBend
\n/ - tremolo bar dip
\n - tremolo bar dive
-/n - tremolo bar Release up
/n\ - tremolo bar inverted dip
/n - tremolo bar return
-\n - tremolo bar Release down
S - shift slide
s - legato slide
/ -  slide into from below or out of upwards
\ -  slide into from above or out of downwards
~ - vibrato
W - wide vibrato
tr - trill
TP - tremolo picking
T - tapping
S - slap
P - pop
< - fade in
^ - brush up
v - brush down

comments
We did not receive enough feedback on this tab! Please rate:
print report bad tab
1 2 3 4 5
I want to post or [tab]
guest
You may want to rate the tab now too:
select rating
Please do not post tabs as comments. Select "correction" instead!