Oops, an error
Loading. Please wait.

Subterranean Tab

ver1
ver1

Whole song

Interactive

More versions @911Tabs.com
2,212 views 6 this week
1 commentread comment
1 2 3 4 5
excellent!
x 6
Autoscroll
+/-
esc
set tempo
stop
Hey! There's an official Ultimate Guitar app which is ideal
for learning songs when you're away from computer. Get the app
WARNING: You are trying to view
                                    content from Ultimate-Guitar.com
                                    in an unauthorized application,
                                    which is prohibited.

                                    Please use an official Ultimate
                                    Guitar Tabs application for iPhone,
                                    iPad or Android to access legitimate
                                    chords, guitar, bass, and drum tabs
                                    from Ultimate-Guitar.com database.

                                    Type "ultimate guitar tabs" in Apple
                                    App Store's or Android Market's
                                    search to find the application.
                         IN FLAMES - SUBTERRANEAN   
                         From the Album SUBTERRANEAN
                         Copyright 1995 Wrong Again Records
     
                         Version 1.3 - April 98

(too) Many many many many hours spent transcribing, perfecting, and getting
every little detail by: Jeremy Disten and Richard Broadhead 

     Contact Rich at email-address  : 
     Contact Jeremy at email-address : lordyoda@wam.umd.edu

Check Out My Web Page, With More Transcriptions On It:
               

.  - palm mute                          ph    - pinched harmonic
/  - slide up to                        ah    - artificial harmonic
\  - slide down to                      hr    - harmonic
~  - vibrato                            p     - pull off
bf - full bend                          h     - hammer on
bh - bend half a step                   ()    - ghost note,sustained note                         
r  - release bend                       pbh,f - prebend(h-half step, f-full)
t  - tap                                th    - tap harmonic
<  - accented note                      X     - percusion note
*  - see comment                        spm   - slight palm mute

TUNING NORMAL: E,A,D,G,B,E

 Guitar 1
|---------------------------------------------------------------------------|
|----------------------------------------------------------------5544332----|
|-------------------------------------55445522-55445522-55445522------------|
|-66556633-66556633-66556633-3344556----------------------------------------|
|---------------------------------------------------------------------------|
|---------------------------------------------------------------------------|
|                                                                           |
| Guitar 2                                                                  |
|---------------------------------------------------------------------------|
|---------------------------------------------------------------------------|
|---------------------------------------------------------------------------|
|-3-(3)----------------------3-4-5-6--7-----------------7--------7-6-5-4----|
|-3-(3)----------------------3-4-5-6--7-----------------7--------7-6-5-4----|
|-1-(1)----------------------1-2-3-4--5-----------------5--------5-4-3-2----|



  Guitar 1
|---------------------------------------------------------------------------|
|----------------------------------------------------------------55443------|
|-------------------------------------55445522-55445522-55445522------------|
|-66556633-66556633-66556633-3344556----------------------------------------|
|---------------------------------------------------------------------------|
|---------------------------------------------------------------------------|
|                                                                           |
| Guitar 2                                                                  |       |
|---------------------------------------------------------------------------|
|---------------------------------------------------------------------------|
|---------------------------------------------------------------------------|
|-3---3----3--------3--------3-4-5-6--7-----------------7--------7-6-5\4----|
|-3---3----3--------3--------3-4-5-6--7-----------------7--------7-6-5\4----|
|-1---1----1--------1--------1-2-3-4--5-----------------5--------5-4-3\2----|
                                                                 . .    


  Guitar 1
|----------------------------------------------------------------<---<-<----|
|-------------------------------------<---<-<--<---<-<--<---<-<--5544332----|
|-<---<-<--<---<-<--<---<-<--<---<-<--55445522-55445522-55445522------------|
|-66556633-66556633-66556633-3344556----------------------------------------|
|---------------------------------------------------------------------------|
|---------------------------------------------------------------------------|
|                                                                           |
| Guitar 2                                                                  |
|---------------------------------------------------------------------------|
|---------------------------------------------------------------------------|
|---------------------------------------------------------------------------|
|---3---3----3---3----3---3-------------7---7----7---7----7---7-------------|
|----------------------------3344556-----------------------------7766554----|
|-1---1----1---1----1---1----1122334--5---5----5---5----5---5----5544332----|
  .   .    .   .    .   .             .   .    .   .    .   .               


  Guitar 1
|----------------------------------------------------------------<---<------|
|-------------------------------------<---<-<--<---<-<--<---<-<--55443------|
|-<---<-<--<---<-<--<---<-<--<---<-<--55445522-55445522-55445522------------|
|-66556633-66556633-66556633-3344556----------------------------------------|
|---------------------------------------------------------------------------|
|---------------------------------------------------------------------------|
|                                                                           |
| Guitar 2                                                                  |
|---------------------------------------------------------------------------|
|---------------------------------------------------------------------------|
|---------------------------------------------------------------------------|
|---3---3----3---3----3---3-------------7---7----7---7----7---7------5------|
|----------------------------3344556---------------------------------5------|
|-1---1----1---1----1---1----1122334--5---5----5---5----5---5----5-4-3------|
  .   .    .   .    .   .             .   .    .   .    .   .    . .


  Guitar 1
|---------------------------------------------------------------------------|
|---------------------------------------------------------------------------|
|-9------9-----------------99--10------10------9----------------------------|
|----10-----10--12--9--12----------12------12-----101010--12----------------|
|---------------------------------------------------------------------------|
|---------------------------------------------------------------------------|
|                                                                           |
| Guitar 2                                                                  |
|---------------------------------------------------------------------------|
|------------------------------(6)(6)(6)(6)---------------------------------|
|-5-----5--555------------------7--7--7--7*----------------4----------------|
|-5-----5--555---5--5--5--5-----7--7--7--77----7--7--7-----4----------------|
|-3-----3--333---5--5--5--5-----5--5--5--55----7--7--7-----2----------------|
|----------------3--3--3--3---------------5----5--5--5----------------------|
                                          *
                                         
*(While not actually played, this chord is heard in the transition.
  This is overkill on the transcription, but it notes
  their playing technique as which so many of you are trying to
  duplicate, so we thought we should add it in here.)



  Guitar 1
|---------------------------------------------------------------------------|
|---------------------------------------------------------------------------|
|--9------9-----------------------------------------------------------------|
|-----10-----10--12--9-9----9910---9----------------------------------------|
|-------------------------------------12-10-12------------------------------|
|---------------------------------------------------------------------------|
|                                                                           |
| Guitar 2                                                                  |
|---------------------------------------------------------------------------|
|---------------------------------------------------------------------------|
|--5---5--555---------------------------------------------------------------|
|--5---5--555----5--5--5--5----3--3---5--5----------------------------------|
|--3---3--333----5--5--5--5----3--3---5--5--7-------------------------------|
|----------------3--3--3--3----1--1---3--3--5--(5)--------------------------|



  Guitar 1
|---------------------------------------------------------------------------|
|---------------------------------------------------------------------------|
|-9------9----------------99--10------10------9-----------------------------|
|----10-----10--12--9-12----------12------12-----101010--12-----------------|
|---------------------------------------------------------------------------|
|---------------------------------------------------------------------------|
|                                                                           |
| Guitar 2                                                                  |
|---------------------------------------------------------------------------|
|-8------8-----------------8--10------10------8-----------------------------|
|-----9------9--10--7/10----------10------10------9-9-9--10-----------------|
|---------------------------------------------------------------------------|
|---------------------------------------------------------------------------|
|---------------------------------------------------------------------------|



  Guitar 1
|---------------------------------------------------------------------------|
|---------------------------------------------------------------------------|
|-9------9------------------------------------------------------------------|
|----10-----10--12--9-9---99--10--9-----------------------------------------|
|------------------------------------12-10-12-------------------------------|
|---------------------------------------------------------------------------|
|                                                                           |
| Guitar 2                                                                  |
|---------------------------------------------------------------------------|
|-8------8------------------------------------------------------------------|
|-----9------9--10--7-7----7---9--7-----------------------------------------|
|-----------------------10-----------10--9--10------------------------------|
|---------------------------------------------------------------------------|
|---------------------------------------------------------------------------|



  Guitar 1                           
|---------------------------------------------------------------------------|
|---------------------------------------------------------------------------|
|---------------------------------------------------------------------------|
|-9-----5-----5-----5----(7)----------------------9------9-----9-----9------|
|-7-----7-----7-----7-----9-----9-----9-----9----10-----10----10----10------|
|---000---0-0---000---0-0---000---0-0---000---0-0---000----0-0---000 --0-0--|
|   ...   . .   ...   . .   ...   . .   ...   . .   ...    . .   ...   . .  |
|                                                                           |
| Guitar 2                                                                  |
|---------------------------------------------------------------------------|
|---------------------------------------------------------------------------|
|---------------------------------------------------------------------------|
|-9-----5-----5-----5-----7-----7-----7-----7-----9------9-----9-----9------|
|-10----7-----7-----7-----9-----9-----9-----9----10-----10----10----10------|
|---000---0-0---000---0-0---000---0-0---000---0-0---000----0-0---000---0-0--|
    ...   . .   ...   . .   ...   . .   ...   . .   ...    . .   ...   . .


  Guitar 1 and 2
|---------------------------------------------------------------------------|
|---------------------------------------------------------------------------|
|-5---------7----9----------------------------------------------------------|
|-5----5----7----9----------------------------------------------------------|
|-3----5----5----7----------------------------------------------------------|
|------3--------------------------------------------------------------------|



  Guitar 1
|---------------------------------------------------------------------------|
|---------------------------------------------------------------------------|
|---------------------------------------------------------------------------|
|-------------5-----5-----7-----7-----7-----7-----9------9-----9-----9------|
|-7-----7-----7-----7-----9-----9-----9-----9----10-----10----10----10------|
|---000---0-0---000---0-0---000---0-0---000---0-0---000----0-0---000---0-0--|
|   ...   . .   ...   . .   ...   . .   ...   . .   ...    . .   ...   . .  |
|                                                                           |
| Guitar 2                                                                  |
|---------------------------------------------------------------------------|
|---------------------------------------------------------------------------|
|---------------------------------------------------------------------------|
|-9-----5-----5-----5-----7-----7-----7-----7-----9------9-----9-----9------|
|-10----7-----7-----7-----9-----9-----9-----9----10-----10----10----10------|
|---000---0-0---000---0-0---000---0-0---000---0-0---000----0-0---000---0-0--|
    ...   . .   ...   . .   ...   . .   ...   . .   ...    . .   ...   . .


  Guitar 1 and 2
|---------------------------------------------------------------------------|
|---------------------------------------------------------------------------|
|-5---------7----9----------------------------------------------------------|
|-5----5----7----9----------------------------------------------------------|
|-3----5----5----7----------------------------------------------------------|
|------3--------------------------------------------------------------------|

RIFF A  (guitar 1)
|---------------------------------------------------------------------------|
|---------------------------------------------------------------------------|
|:-------------------------2---------------------2-4--------------------24--|
|:-5-----2-------------245-------4-------------45--------5-------------5----|
|---------------------------------------------------------------------------|
|---------------------------------------------------------------------------|
|                                                                           |
| Guitar 2                                                                  |
|---------------------------------------------------------------------------|
|---------------------------------------------------------------------------|
|:-------------------------2---------------------2-4--------------------24--|
|:-5-----2-------------245-------4-------------45--------5-------------5----|
|---------------------------------------------------------------------------|
|---------------------------------------------------------------------------|
|                                                                           |
| Guitar 3                                                                  |
|---------------------------------------------------------------------------|
|---------------------------------------------------------------------------|
|---------------------------------------------------------------------------|
|-5-----5-----5-----5-----7-----7-----7-----7-----9------9-----9-----9------|
|-7-----7-----7-----7-----9-----9-----9-----9----10-----10----10----10------|
|---000---0-0---000---0-0---000---0-0---000---0-0---000----0-0---000---0-0--|
    ...   . .   ...   . .   ...   . .   ...   . .   ...    . .   ...   . .   


  Guitar 1                                                    (end of RIFF A)
|---------------------------------------------------------------------------|
|-5-3---3-------------------------------------------------------------------|
|-----5---5-4-2------------------------------------------------------------:|
|---------------5-4-5------------------------------------------------------:|
|---------------------------------------------------------------------------|
|---------------------------------------------------------------------------|
|                                                                           |
| Guitar 2                                                                  |
|---------------------------------------------------------------------------|
|---------------------------------------------------------------------------|
|-5-4-2-4-2----------------------------------------------------------------:|
|-----------5-4-2---2------------------------------------------------------:|
|-----------------5---------------------------------------------------------|
|---------------------------------------------------------------------------|
|                                                                           |
| Guitar 3                                                                  |
|---------------------------------------------------------------------------|
|---------------------------------------------------------------------------|
|-5-----------2-2-2-4------------------------------------------------------:|
|-5-----5-----4-4-4-5-\----------------------------------------------------:|
|-3-----5-----5-5-5-7-\-----------------------------------------------------|
|-------3-------------------------------------------------------------------|
|                                                                           |
| Guitar 4                                                                  |
|---------------------------------------------------------------------------|
|---------------------------------------------------------------------------|
|-5-----------7-----9-------------------------------------------------------|
|-5-----5-----7-----9-------------------------------------------------------|
|-3-----5-----5-----7-------------------------------------------------------|
|-------3-------------------------------------------------------------------|



 RIFF B  (guitar 1)
|---------------------------------------------------------------------------|
|---------------------------------------------------------------------------|
|-----------------2----------2------2-4-5-4---------------------------------|
|----2--5-5-2-4-5---5------4---4------------5-4-----------------------------|
|--2-------------------2-5-------5------------------------------------------|
|---------------------------------------------------------------------------|
|                                                                           |
| Guitar 2                                                                  |
|---------------------------------------------------------------------------|
|---------------------------------------------------------------------------|
|-------4-4---2-4-5-4--------2------2-4-5-4---------------------------------|
|----2------5--------------4---4------------5-4-----------------------------|
|--2-------------------2-5-------5------------------------------------------|
|---------------------------------------------------------------------------|
|                                                                           |
| Guitar 3                                                                  |
|---------------------------------------------------------------------------|
|---------------------------------------------------------------------------|
|----9--9-9--9--7-7-7-9--9-7---7-7---------4-4-4----------------------------|
|--9-9--9-9--9--7-7-7-9--9-7---7-7-X-4-4-4-4-4-4----------------------------|
|--9-7--7-7--7--5-5-5-7--7-5---5-5-X-4-4-4-2-2-2----------------------------|
|--7-------------------------------X-2-2-2----------------------------------|
                                                           


Guitar 1
|---------------------------------------------------------------------------|
|---------------------------------------------------------------------------|
|-----------------2------2-4-2----------------------------------------------|
|----2--5-5-2-4-5---5--5-------5-4-5---5-5-5--------------------------------|
|---------------------------------------------------------------------------|
|---------------------------------------------------------------------------|
|                                                                           |
| Guitar 2                                                                  |
|---------------------------------------------------------------------------|
|---------------------------------------------------------------------------|
|-------4-4---2-4-5-4-------------------------------------------------------|
|----2------5----------2-4-5-4-2---2---2-2-2--------------------------------|
|--------------------------------5------------------------------------------|
|---------------------------------------------------------------------------|
|                                                                           |
| Guitar 3                                                                  |
|---------------------------------------------------------------------------|
|---------------------------------------------------------------------------|
|----9--9-9--9--7-7---9-9--4-4-/7-7-7--9---9-9-9-9--------------------------|
|----9--9-9--9--7-7---9-9--4-4-/7-7-7--9---9-9-9-9--------------------------|
|----7--7-7--7--5-5---7-7--2-2-/5-5-5--7---7-7-7-7--------------------------|
|---------------------------------------------------------------------------|
                                                             (end of Riff B>


  Guitar 1
|---------------------------------------------------------------------------|
|--------3------------------------------------------------------------------|
|-4--4-5---5------4-2---2--2-4-5-4-2-----------2--4-4-2-------p------------2|
|---------------------5---------------5-4-5--5----------4-5--5-4---2---2-5--|
|----------------------------------------------------------------5----------|
|---------------------------------------------------------------------------|
|                                                                           |
| Guitar 2                                                                  |
|---------------------------------------------------------------------------|
|------------h-p-p----------------------------------------------------------|
|------2-4-2--4-2-0------~------2-------------------------------------------|
|-5--5--------------4--2-4--4-5---5-4--2---2--2-4--5-5-4---2-(2)2-0/2-2--2-4|
|----------------------------------------5---------------5------------------|
|---------------------------------------------------------------------------|
|                                                                           |                     
| Guitar 3                                                                  |
|---------------------------------------------------------------------------|
|---------------------------------------------------------------------------|
|----------5-5----------777-777-----------555-555-777-777-9--9-9-7-9--9-9-9-|
|-555-555--5-5----7-----777-777--555-555--555-555-777-777-9--9-9-7-9--9-9-9-|
|-555-555--3-3----7-----555-555--555-555--333-333-555-555-7--7-7-5-7--7-7-7-|
|-333-333---------5--------------333-333------------------------------------|



 Guitar 1
|---------------------------------------------------------------------------|
|----------3----------------------------------------------------------------|
|---4--4-5---5--4-2---2--2-4-5-4--2----------2-4-4-2-------p----------------|
|-------------------5---------------5-4-5--5---------4-5--5-4---2--2--------|
|-------------------------------------------------------------5-------------|
|---------------------------------------------------------------------------|
|                                                                           |
| Guitar 2                                                                  |
|---------------------------------------------------------------------------|
|---------------------------------------------------------------------------|
|--------2-4-2--------~------2----------------------------------------------|
|---5--5--------5-4-2-4--4-5---5--4-2---2--2-4-5-5-4---2--2-0/2-2-----------|
|-------------------------------------5--------------5----------------------|
|---------------------------------------------------------------------------|
|                                                                           |                     
| Guitar 3                                                                  |
|---------------------------------------------------------------------------|
|---------------------------------------------------------------------------|
|----------5-5----------777-777-----------555-555-7---777-9--9-9-7-9--999---|
|-555-555--5-5----7-----777-777--555-555--555-555-7---777-9--9-9-7-9--999---|
|-555-555--3-3----7-----555-555--555-555--333-333-5---555-7--7-7-5-7--777---|
|-333-333---------5--------------333-333------------------------------------|


PLAY RIFF A AGAIN

  Guitar 1
|---------------------------------------------------------------------------|
|---------------------------------------------------------------------------|
|-----------------2----------2------2-4-5-4---------------------------------|
|----2--5-5-2-4-5---5------4---4------------5-4-----------------------------|
|--2-------------------2-5-------5------------------------------------------|
|---------------------------------------------------------------------------|
|                                                                           |
| Guitar 2                                                                  |
|---------------------------------------------------------------------------|
|---------------------------------------------------------------------------|
|-------4-4---2-4-5-4--------2------2-4-5-4---------------------------------|
|----2------5--------------4---4------------5-4-----------------------------|
|--2-------------------2-5-------5------------------------------------------|
|---------------------------------------------------------------------------|
|                                                                           |
| Guitar 3                                                                  |
|---------------------------------------------------------------------------|
|---------------------------------------------------------------------------|
|----9--9-9--9--7-7-7-9--9-7---7-7---------4-4-4----------------------------|
|--9-9--9-9--9--7-7-7-9--9-7---7-7-X-4-4-4-4-4-4----------------------------|
|--9-7--7-7--7--5-5-5-7--7-5---5-5-X-4-4-4-2-2-2----------------------------|
|--7-------------------------------X-2-2-2----------------------------------|



 Guitar 1
|---------------------------------------------------------------------------|
|---------------------------------------------------------------------------|
|-----------------2------2-4-2----------------------------------------------|
|----2--5-5-2-4-5---5--5-------5-4-5---5-5-5--------------------------------|
|---------------------------------------------------------------------------|
|---------------------------------------------------------------------------|
|                                                                           |
| Guitar 2                                                                  |
|---------------------------------------------------------------------------|
|---------------------------------------------------------------------------|
|-------4-4---2-4-5-4-------------------------------------------------------|
|----2------5----------2-4-5-4-2---2---2-2-2--------------------------------|
|--------------------------------5------------------------------------------|
|---------------------------------------------------------------------------|
|                                                                           |
| Guitar 3                                                                  |
|---------------------------------------------------------------------------|
|---------------------------------------------------------------------------|
|----9--9-9--9--7-7---9-9--4-4-/7-7-7--9---9-9-9-9--------------------------|
|----9--9-9--9--7-7---9-9--4-4-/7-7-7--9---9-9-9-9--------------------------|
|----7--7-7--7--5-5---7-7--2-2-/5-5-5--7---7-7-7-7--------------------------|
|---------------------------------------------------------------------------|



 Guitar 1
|---------------------------------------------------------------------------|
|--------3------------------------------------------------------------------|
|-4--4-5---5------4-2---2--2-4-5-4--2----------2-4-4-2-------p------------2-|
|---------------------5---------------5-4-5--5---------4-5--5-4---2-2---5---|
|---------------------------------------------------------------5-----------|
|---------------------------------------------------------------------------|
|                                                                           |
| Guitar 2                                                                  |
|---------------------------------------------------------------------------|
|------------h-p-p----------------------------------------------------------|
|------2-4-2--4-2-0------------2--------------------------------------------|
|-5-55--------------4-2-4--4-5---5--4-2---2--2-4-5-5-4---2-(2)2-0/2-2---2-4-|
|---------------------------------------5--------------5--------------------|
|---------------------------------------------------------------------------|
|                                                                           |
| Guitar 3                                                                  |
|---------------------------------------------------------------------------|
|---------------------------------------------------------------------------|
|----------5-5----------777-777-----------555-555-777-777-9--9---7-9--9-9-9-|
|-555-555--5-5----7--7--777-777--555-555--555-555-777-777-9--9---7-9--9-9-9-|
|-555-555--3-3----7--7--555-555--555-555--333-333-555-555-7--7---5-7--7-7-7-|
|-333-333---------5--5-----------333-333------------------------------------|



 Guitar 1
|---------------------------------------------------------------------------|
|--------3------------------------------------------------------------------|
|-4-44-5---5------4-2---2--2-4-5-4--2----------2-4-4-2-------p--------------|
|---------------------5---------------5-4-5--5---------4-5--5-4---2---2-----|
|---------------------------------------------------------------5-----------|
|---------------------------------------------------------------------------|
|                                                                           |
| Guitar 2                                                                  |
|---------------------------------------------------------------------------|
|------------h-p-p----------------------------------------------------------|
|------2-4-2--4-2-0------------2--------------------------------------------|
|-5-55--------------4-2-4--4-5---5--4-2---2--2-4-5-5-4---2----2-0/2--22-----|
|---------------------------------------5--------------5--------------------|
|---------------------------------------------------------------------------|
|                                                                           |                     
| Guitar 3                                                                  |
|---------------------------------------------------------------------------|
|---------------------------------------------------------------------------|
|----------5-5----------777-777-----------555-555-7---777-9--9-9-7-9--9-9-9-|
|-555-555--5-5----7-----777-777--555-555--555-555-7---777-9--9-9-7-9--9-9-9-|
|-555-555--3-3----7-----555-555--555-555--333-333-5---555-7--7-7-5-7--7-7-7-|
|-333-333---------5--------------333-333------------------------------------|
|                                                                           |
| Guitar 4                                                                  |
|---------------------------------------------------------------------------|
|---------------------------------------------------------------------------|
|----------5-5----------777-777-----------555-555-7---777-9--9-9-7-9--9-9-9-|
|-555-555--5-5----7-----777-777--555-555--555-555-7---777-9--9-9-7-9--9-9-9-|
|-555-555--3-3----7-----555-555--555-555--333-333-5---555-7--7-7-5-7--7-7-7-|
|-333-333---------5--------------333-333----------5---(5)-------------------|


                                                              

  Guitar 1
|---------------------------------------------------------------------------|
|---------------------------------------------------------------------------|
|------------------5-----(5)-------3-5-3------------------------------------|
|--2-----(2)-------5-----(5)-------3-5-3----------------5-------4-----------|
|--2-----(2)-------3-----(3)-------1-3-1----------------7-------6-----------|
|--0-----(0)--------------------------------------------8-------7-----------|
|                                                                           |
| Guitar 2                                                                  |
|---------------------------------------------------------------------------|
|---------------------------------------------------------------------------|
|-----------h---------------h-------------------h---------------------------|
|--5-------7-9-----7-------7-9-----5-7-5-------7-9------5-----5-4-----------|
|--7---------------9---------------7-9-7----------------7-----7-6-----------|
|----000-0-----0-0---000-0-----0-0--0-0--000-0------0-0---000-----000-0-----|
     ... .     . .   ... .     . .  . .  ... .      . .   ...     ... .


  Guitar 1                                                                  
|---------------------------------------------------------------------------|
|---------------------------------------------------------------------------|
|------------------5---------------3-5-3------------------------------------|
|--2-----(2)-------5---------------3-5-3----------------5-------4-----------|
|--2-----(2)-------3---------------1-3-1----------------7-------6-----------|
|--0-----(0)--------------------------------------------8-------7-----------|
|                                                                           |
| Guitar 2                                                                  |
|---------------------------------------------------------------------------|
|---------------------------------------------------------------------------|
|-----------h---------------h-------------------h---------------------------|
|--5-------7-9-----7-------7-9-----5-7-5-------7-9------5-----5-4---(4)-----|
|--7---------------9---------------7-9-7----------------7-----7-6---(6)-----|
|--0-000-0-----0-0---000-0-----0-0--0-0--000-0------0-0---000---------------|
   . ... .     . .   ... .     . .  . .  ... .      . .   ...           


  Guitar 1
|--------------------------------------------------------------------------|
|--------------------------------------------------------------------------|
|---------h---------------h-------------------------h----------------------|
|5-------4-5-----5-------4-5---------------8-------4-5-----10------9-------|
|7---------------7---------------7----9----7---------------7-------6-------| 
|0-000-0-----000---000-0-----000-6-00-8-00-6-000-0-----000-8-000-0-7-000-0-|
|  ... .     ...   ... .     ...   ..   ..   ... .     ...   ... .   ... . |     
|                                                                          |
| Guitar 2                                                                 |
|--------------------------------------------------------------------------|
|--------------------------------------------------------------------------|
|---------h---------------h-------------------------h----------------------|
|5-------7-9-----7-------7-9-----5----7----5-------7-9-----5-----5-4-------|
|7---------------9---------------7----9----7---------------7-----7-6-------|
|0-000-0-----0-0---000-0-----0-0---0----0----000-0-----0-0---000-----000-0-|
   ... .     . .   ... .     . .   .    .    ... .     . .   ...     ... .


  Guitar 1
|--------------------------------------------------------------------------|
|--------------------------------------------------------------------------|
|---------h---------------h-------------------------h----------------------|
|5-------4-5-------------4-5-----8----10---8-------4-5-----10------9-------|
|7---------------7---------------7----9----7---------------7-------6-------|
|0-000-0-----000-8-000-0-----000-6-00-8-00-6-000-0-----000-8-000-0-7-000-0-|
|  ... .     ...   ... .     ...   ..   ..   ... .     ...   ... .   ... . |     |
|                                                                          |
| Guitar 2                                                                 |
|--------------------------------------------------------------------------|
|--------------------------------------------------------------------------|
|---------h---------------h-------------------------h----------------------|
|5-------7-9-----7-------7-9-----5----7----5-------7-9-----5-----5-4--(4)--|
|7---------------9---------------7----9----7---------------7-----7-6--(6)--|
|--000-0-----0-0---000-0-----0-0----0----0---000-0-----0-0---000-----------|
   ... .     . .   ... .     . .    .    .   ... .     . .   ...            

  Guitar 1 *string noise or feedback occuring during playing!
|------------------------|
|---*----(*)----(*)------|   
|:----------------------:|
|:----------------------:|
|--5-4-5-2----4-5-4-2----|
|--3-2-3-0----2-3-2-0----|
|  . . . .    . . . .    |
|                        |
| Guitar 2               |
|------------------------|
|------------------------|
|:----------------------:|
|:----------------------:|
|--5-----2--------4-2----|
|--3-2-3-0----2-3-2-0----|
  spm. .spm   . .spmspm



Play 2Times   *string noise or feedback occuring during playing!
|------------------------|
|--*----(*)-----(*)------| 
|------------------------|
|-3---3--2---2-5---------|
|-5-0-5--5-0-5-5-0-------|
|------------------------|
|   .      .     .       |
|                        |
| Guitar 2               |
|------------------------|
|------------------------|
|------------------------|
|-7---7--5---5-8---------|
|-5-0-5--5-0-5-5-0-------|
|------------------------|
    .      .     .  


  Guitar 1
|------------------------|
|------------------------|   
|:----------------------:|
|:----------------------:|
|--5-4-5-2----4-5-4-2----|
|--3-2-3-0----2-3-2-0----|
|  . . . .    . . . .    |
|                        |
| Guitar 2               |
|------------------------|
|------------------------|
|:----------------------:|
|:----------------------:|
|--5-----2--------4-2----|
|--3-2-3-0----2-3-2-0----|
  spm. .spm   . .spmspm



Play 3Times
|------------------------|
|------------------------| 
|------------------------|
|-3---3--2---2-5---------|
|-5-0-5--5-0-5-5-0-------|
|------------------------|
|   .      .     .       |
|                        |
| Guitar 2               |
|------------------------|
|------------------------|
|------------------------|
|-7---7--5---5-8---------|
|-5-0-5--5-0-5-5-0-------|
|------------------------|
    .      .     .  



|------------------------|
|------------------------|
|------------------------|
|--8-7-5-7-5-------------|
|------------8-7---------|
|----------------8-------|
|                        |
|------------------------|
|------------------------|
|--7-5---5---------------|
|------8---8-7-5---------|
|----------------8-------|
|------------------------|



Play 3Times  *string noise or feedback occuring during playing!
|------------------------|
|-*----(*)----(*)--------| 
|------------------------|
|-3---3--2---2-5---------|
|-5-0-5--5-0-5-5-0-------|
|------------------------|
|   .      .     .       |
|                        |
| Guitar 2               |
|------------------------|
|------------------------|
|------------------------|
|-7---7--5---5-8---------|
|-5-0-5--5-0-5-5-0-------|
|------------------------|
    .      .     .  



|------------------------|
|------------------------|
|------------------------|
|-9-9-9-9-2-2-2-2--------|
|-7-7-7-7-2-2-2-2--------|
|-0-0-0-0-0-0-0-0--------|
| . . . . . . . .        |
|------------------------|
|------------------------|
|------------------------|
|-9-9-9-9-2-2-2-2--------|
|-7-7-7-7-2-2-2-2--------|
|-0-0-0-0-0-0-0-0--------|
  . . . . . . . .


  Guitar 1
|---------------------------------------------------------------------------|
|---------------------------------------------------------------------------|
|-9------9-----------------99--10------10------9----------------------------|
|----10-----10--12--9--12----------12------12-----101010--12----------------|
|---------------------------------------------------------------------------|
|---------------------------------------------------------------------------|
|                                                                           |
| Guitar 2                                                                  |
|---------------------------------------------------------------------------|
|------------------------------(6)-(6)-(6)-(6)------------------------------|
|-5---5---5---5-----------------7---7---7---7--------------4----------------|
|-5---5---5---5--5---5---5---5--7---7---7---7--7-----------4----------------|
|-3---3---3---3--5---5---5---5--5---5---5---5--7-----------2----------------|
|----------------3---3---3---3-----------------5----------------------------|



  Guitar 1
|---------------------------------------------------------------------------|
|---------------------------------------------------------------------------|
|-9------9------------------------------------------------------------------|
|----10-----10--12--9-9---99--10--9-----------------------------------------|
|------------------------------------12-10-12-------------------------------|
|---------------------------------------------------------------------------|
|                                                                           |
| Guitar 2                                                                  |
|---------------------------------------------------------------------------|
|---------------------------------------------------------------------------|
|--5---5---5---5------------------------------------------------------------|
|--5---5---5---5-5---5---5---5-3--3---5--5--X7------------------------------|
|--3---3---3---3-5---5---5---5-3--3---5--5--X7------------------------------|
|----------------3---3---3---3-1--1---3--3--X5------------------------------|



  Guitar 1
|---------------------------------------------------------------------------|
|---------------------------------------------------------------------------|
|-9------9-----------------99--10------10------9----------------------------|
|----10-----10--12--9--12----------12------12-----101010--12----------------|
|---------------------------------------------------------------------------|
|---------------------------------------------------------------------------|
|                                                                           |
| Guitar 2                                                                  |
|--------------------------------------------*------------------------------|
|---------------------------------------------------------------------------|
|-5---5---5---5-----------------7---7---7---77-------------4----------------|
|-5---5---5---5--5---5---5---5--7---7---7---77-7-----------4----------------|
|-3---3---3---3--5---5---5---5--5---5---5---55-7-----------2----------------|
|----------------3---3---3---3---------------5-5----------------------------|
*(While not actually played this chord is heard in the transition)
  This is overkill on the transcription, but it notes
  their playing technique as which so many of you are trying to 
  duplicate, so we thought we should add it in here.)


  Guitar 1
|---------------------------------------------------------------------------|
|---------------------------------------------------------------------------|
|-9------9------------------------------------------------------------------|
|----10-----10--12--9-9---99--10--9-----------------------------------------|
|------------------------------------12-10-12-------------------------------|
|---------------------------------------------------------------------------|
|                                                                           |
| Guitar 2                                                                  |
|---------------------------------------------------------------------------|
|---------------------------------------------------------------------------|
|--5---5---5---5------------------------------------------------------------|
|--5---5---5---5-5---5---5---5-3--3---5--5--7-7-7-7-------------------------|
|--3---3---3---3-5---5---5---5-3--3---5--5--7-7-7-7-------------------------|
|----------------3---3---3---3-1--1---3--3--5-5-5-5-------------------------|



  Guitar 1
|---------------------------------------------------------------------------|
|---------------------------------------------------------------------------|
|---------------------------------------------------------------------------|
|--3"--------------5"------6"------3"--------------5"------6"---------------|
|---------------------------------------------------------------------------|
|---------------------------------------------------------------------------|
|                                                                           |
| Guitar 2                                                                  |
|---------------------------------------------------------------------------|
|---------------------------------------------------------------------------|
|---------------------------------------------------------------------------|
|------------3---------------3---------------3---------------3--------------|
|--3-3---4-------4-3-3---4-------4-3-3---4-------4-3-3---4-------4----------|
|--1---1---1---1---1---1---1---1---1---1---1---1---1---1---1---1------------|
       .   .   .       .   .   .       .   .   .       .   .   .    


  Guitar 1
|---------------------------------------------------------------------------|
|---------------------------------------------------------------------------|
|--2"--------------4"------5"------2"--------------4"------5"---------------|
|---------------------------------------------------------------------------|
|---------------------------------------------------------------------------|
|---------------------------------------------------------------------------|
|                                                                           |
| Guitar 2                                                                  |
|---------------------------------------------------------------------------|
|---------------------------------------------------------------------------|
|---------------------------------------------------------------------------|
|------------7---------------7---------------7---------------7--------------|
|--7-7---8-------8-7-7---8-------8-7-7---8-------8-7-7---8-------8----------|
|--5---5---5---5---5---5---5---5---5---5---5---5---5---5---5---5------------|
       .   .   .       .   .   .       .   .   .       .   .   .    


  Guitar 1
|---------------------------------------------------------------------------|
|---------------------------------------------------------------------------|
|---------------------------------------------------------------------------|
|--3"-------5"-----6"-----3"------5"----6"----------------------------------|
|---------------------------------------------------------------------------|
|---------------------------------------------------------------------------|
|                                                                           |
| Guitar 2                                                                  |
|---------------------------------------------------------------------------|
|---------------------------------------------------------------------------|
|-------------------------5"------4"----5"----------------------------------|
|--3"-------5"-----6"-------------------------------------------------------|
|---------------------------------------------------------------------------|
|---------------------------------------------------------------------------|



  Guitar 1
|---------------------------------------------------------------------------|
|---------------------------------------------------------------------------|
|--2"-------4"-----5"-----2"------4"----5-----------------------------------|
|---------------------------------------------------------------------------|
|---------------------------------------------------------------------------|
|---------------------------------------------------------------------------|
|                                                                           |
| Guitar 2                                                                  |
|---------------------------------------------------------------------------|
|---------------------------------------------------------------------------|
|--5"-------7"-----9"-----9"------8"----9-----------------------------------|
|---------------------------------------------------------------------------|
|---------------------------------------------------------------------------|
|---------------------------------------------------------------------------|



  Guitar 1                                 
|---------------------------------------------------------------------------|
|---------------------------------------------------------------------------|
|---------------------------------------------------------------------------|
|-9-----5-----5-----5-----------------7-----------9------9-----9-----9------|
|-7-----7-----7-----7-----9-----9-----9-----9----10-----10----10----10------|
|---000---0-0---000---0-0---000---0-0---000---0-0---000----0-0---000---0-0--|
|   ...   . .   ...   . .   ...   . .   ...   . .   ...    . .   ...   . .  |
|                                                                           |
| Guitar 2                                                                  |
|---------------------------------------------------------------------------|
|---------------------------------------------------------------------------|
|---------------------------------------------------------------------------|
|-9-----5-----5-----5-----7-----7-----7-----7-----9------9-----------9------|
|-10----7-----7-----7-----9-----9-----9-----9----10-----10----10----10------|
|---000---0-0---000---0-0---000---0-0---000---0-0---000----0-0---000---0-0--|
    ...   . .   ...   . .   ...   . .   ...   . .   ...    . .   ...   . .


  Guitar 1
|---------------------------------------------------------------------------|
|---------------------------------------------------------------------------|
|-5---------7----9----------------------------------------------------------|
|-5----5----7----9----------------------------------------------------------|
|-3----5----5----7----------------------------------------------------------|
|------3--------------------------------------------------------------------|



  Guitar 1    
|---------------------------------------------------------------------------|
|---------------------------------------------------------------------------|
|--------------------------2---------------------2-4--------------------24--|
|--5-----2-------------245-------4-------------45--------5-------------5----|
|---------------------------------------------------------------------------|
|---------------------------------------------------------------------------|
|                                                                           |
| Guitar 2                                                                  |
|---------------------------------------------------------------------------|
|---------------------------------------------------------------------------|
|--------------------------2---------------------2-4--------------------24--|
|--5-----2-------------245-------4-------------45--------5-------------5----|
|---------------------------------------------------------------------------|
|---------------------------------------------------------------------------|
|                                                                           |
| Guitar 3                                                                  |
|---------------------------------------------------------------------------|
|---------------------------------------------------------------------------|
|---------------------------------------------------------------------------|
|--5-----5-----5-----5-----7-----7-----7-----7-----9------9-----9-----9-----|
|--7-----7-----7-----7-----9-----9-----9-----9----10-----10----10----10-----|
|----000---0-0---000---0-0---000---0-0---000---0-0---000----0-0---000---0-0-|
|    ...   . .   ...   . .   ...   . .   ...   . .   ...    . .   ...   . . | 
|                                                                           |
| Guitar 4                                                                  |
|---------------------------------------------------------------------------|
|---------------------------------------------------------------------------|
|---------------------------------------------------------------------------|
|--5-----5-----5-----5-----7-----7-----7-----7-----9-----9-----9-----9------|
|--7-----7-----7-----7-----9-----9-----9-----9----10----10----10----10------|
|----000---0-0---000---0-0---0-0---0-0---000---0-0---0-0---0-0---0-0---0-0--|
     ...   . .   ...   . .   . .   . .   ...   . .   . .   . .   . .   . .   


  Guitar 1
|---------------------------------------------------------------------------|
|-5-3---3-------------------------------------------------------------------|
|-----5---5-4-2-------------------------------------------------------------|
|---------------5-4-5-------------------------------------------------------|
|---------------------------------------------------------------------------|
|---------------------------------------------------------------------------|
|                                                                           |
| Guitar 2                                                                  |
|---------------------------------------------------------------------------|
|---------------------------------------------------------------------------|
|-5-4-2-4-2-----------------------------------------------------------------|
|-----------5-4-2---2-------------------------------------------------------|
|-----------------5---------------------------------------------------------|
|---------------------------------------------------------------------------|
|                                                                           |
| Guitar 3                                                                  |
|---------------------------------------------------------------------------|
|---------------------------------------------------------------------------|
|-5-----------2-2-2-4-------------------------------------------------------|
|-5-----5-----4-4-4-5-\-----------------------------------------------------|
|-3-----5-----5-5-5-7-\-----------------------------------------------------|
|-------3-------------------------------------------------------------------|
|                                                                           |
| Guitar 4                                                                  |
|---------------------------------------------------------------------------|
|---------------------------------------------------------------------------|
|-5-----------7-----9-------------------------------------------------------|
|-5-----5-----7-----9-------------------------------------------------------|
|-3-----5-----5-----7-------------------------------------------------------|
|-------3-------------------------------------------------------------------|



  Guitar 1
|---------------------------------------------------------------------------|
|---------------------------------------------------------------------------|
|--------------------------2---------------------2-4--------------------24--|
|--5-----2-------------245-------4-------------45--------5-------------5----|
|---------------------------------------------------------------------------|
|---------------------------------------------------------------------------|
|                                                                           |
| Guitar 2                                                                  |
|---------------------------------------------------------------------------|
|---------------------------------------------------------------------------|
|--------------------------2---------------------2-4--------------------24--|
|--5-----2-------------245-------4-------------45--------5-------------5----|
|---------------------------------------------------------------------------|
|---------------------------------------------------------------------------|
|                                                                           |
| Guitar 3                                                                  |
|---------------------------------------------------------------------------|
|---------------------------------------------------------------------------|
|---------------------------------------------------------------------------|
|--5-----5-----5-----5-----7-----7-----7-----7-----9-----9-----9-----9------|
|--7-----7-----7-----7-----9-----9-----9-----9----10----10----10----10------|
|----000---0-0---000---0-0---000---0-0---000---0-0---000---0-0---000---0-0--|
|    ...   . .   ...   . .   ...   . .   ...   . .   ...   . .   ...   . .  |
|                                                                           |
| Guitar 4                                                                  |
|---------------------------------------------------------------------------|
|---------------------------------------------------------------------------|
|---------------------------------------------------------------------------|
|--5-----5-----5-----5-----7-----7-----7-----7-----9-----9-----9-----9------|
|--7-----7-----7-----7-----9-----9-----9-----9----10----10----10----10------|
|----0-0---0-0---0-0---0-0---000---0-0---0-0---0-0---0-0---0-0---0-0---0-0--|
     . .   . .   . .   . .   ...   . .   . .   . .   . .   . .   . .   . .   


  Guitar 1
|---------------------------------------------------------------------------|
|-5-3---3-------------------------------------------------------------------|
|-----5---5-4-2-------------------------------------------------------------|
|---------------5-4-5-------------------------------------------------------|
|---------------------------------------------------------------------------|
|---------------------------------------------------------------------------|
|                                                                           |
| Guitar 2                                                                  |
|---------------------------------------------------------------------------|
|---------------------------------------------------------------------------|
|-5-4-2-4-2-----------------------------------------------------------------|
|-----------5-4-2---2-------------------------------------------------------|
|-----------------5---------------------------------------------------------|
|---------------------------------------------------------------------------|
|                                                                           |
| Guitar 3                                                                  |
|---------------------------------------------------------------------------|
|---------------------------------------------------------------------------|
|-5-----------2-2-2-4-------------------------------------------------------|
|-5-----5-----4-4-4-5-\-----------------------------------------------------|
|-3-----5-----5-5-5-7-\-----------------------------------------------------|
|-------3-------------------------------------------------------------------|
|                                                                           |
| Guitar 4                                                                  |
|---------------------------------------------------------------------------|
|---------------------------------------------------------------------------|
|-5-----------7-----9-------------------------------------------------------|
|-5-----5-----7-----9-------------------------------------------------------|
|-3-----5-----5-----7-------------------------------------------------------|
|-------3-------------------------------------------------------------------|



  Guitar 1
|---------------------------------------------------------------------------|
|---------------------------------------------------------------------------|
|-----------------2----------2------2-4-5-4---------------------------------|
|----2--5-5-2-4-5---5------4---4------------5-4-----------------------------|
|--2-------------------2-5-------5------------------------------------------|
|---------------------------------------------------------------------------|
|                                                                           |
| Guitar 2                                                                  |
|---------------------------------------------------------------------------|
|---------------------------------------------------------------------------|
|-------4-4---2-4-5-4--------2------2-4-5-4---------------------------------|
|----2------5--------------4---4------------5-4-----------------------------|
|--2-------------------2-5-------5------------------------------------------|
|---------------------------------------------------------------------------|
|                                                                           |                     |
| Guitar 3                                                                  |
|---------------------------------------------------------------------------|
|---------------------------------------------------------------------------|
|----9--9-9--9--7-7-7-9--9-7---7-7---------4-4-4----------------------------|
|--9-9--9-9--9--7-7-7-9--9-7---7-7-X-4-4-4-4-4-4----------------------------|
|--9-7--7-7--7--5-5-5-7--7-5---5-5-X-4-4-4-2-2-2----------------------------|
|--7-------------------------------X-2-2-2-----------------------
comments
print report bad tab
1 comment total.
0 reply
Dangerousmind wrote on November 5 2007, 07:57 pm

Awesome tab guys. Thank you very very much.

I want to post or [tab]
guest
You may want to rate the tab now too:
select rating
Please do not post tabs as comments. Select "correction" instead!