Oops, an error
Loading. Please wait.

Suburban Me Tab

ver2
ver2

Whole song

More versions @911Tabs.com
6,923 views 3 this week
5 commentsread comments
1 2 3 4 5
excellent!
x 3
Autoscroll
+/-
esc
set tempo
stop
Contributor
Difficulty
advanced
WARNING: You are trying to view
                                    content from Ultimate-Guitar.com
                                    in an unauthorized application,
                                    which is prohibited.

                                    Please use an official Ultimate
                                    Guitar Tabs application for iPhone,
                                    iPad or Android to access legitimate
                                    chords, guitar, bass, and drum tabs
                                    from Ultimate-Guitar.com database.

                                    Type "ultimate guitar tabs" in Apple
                                    App Store's or Android Market's
                                    search to find the application.
                             Suburban me - IN Flames
-------------------------------------------------------------------------------
Tabbed by: harold Macaraeg
Email: hapiharold106@yahoo.com

Tuning: C G C F A D

Intro:
e|---------------------------------------------------------------------------|
B|---------------------------------------------------------------------------|
G|-------9-------9-----9-------10------10----10--------12---------12---------|
D|-------10------10----10------10------10----10--------12---------12---------|
A|---7-7-7---7-7-7---7-7---8-8-8---8-8-8---8-8---10-10-10---10-10-10---------|
E|---------------------------------------------------------------------------|

e|---------------------------------------------------------------------------|
B|---------------------------------------------------------------------------|
G|--------12------12------10---10\9----9-------5------5----5-----------------|
D|--------12------12------12---12\10---10--7-7-7--7-7-7--7-7-----------------|
A|--10-10-10---10-10-----------------------7-7-7--7-7-7--7-7-----------------|
E|--------------------0-0----0-------0---------------------------------------|

e|---------------------------------------------------------------------------|
B|---------------------------------------------------------------------------|
G|------10------10----10--x--------------------------------------------------|
D|------10------10----10--x-10-10-10-9--9---0--------------------------------|
A|--8-8-8---8-8-8---8-8---x-10-10-10-10-10--0--------------------------------|
E|------------------------------------------0--------------------------------|

e|---------------------------------------------------------------------------|
B|---------12-12/13\12----13~13~13~12-------/17-15-13-15-13-12-13-12/13\12---|
G|------14-------------14-------------14-------------------------------------|
D|--/14----------------------------------14~---------------------------------|
A|---------------------------------------------------------------------------|
E|---------------------------------------------------------------------------|

e|----------------15-17-17~17-15----19~--------------------------------------|
B|------------/17----------------17-----/15-13-12-13-12/13\12----------------|
G|--14-12-14--------------------------------------------------14-12-14-------|
D|---------------------------------------------------------------------------|
A|---------------------------------------------------------------------------|
E|---------------------------------------------------------------------------|



Stanza: 2x  Guitar 1
e|---------------------------------------------------------------------------|
B|----5---3-5/6-5-3----5-----------------------------------------------------|
G|--2---2------------2-------------------------------------------------------|
D|--------------------------3-3-x-0-0-x-5-5-x-5-5----------------------------|
A|--------------------------3-3-x-0-0-x-3-3-x-5-5----------------------------|
E|--------------------------3-3-x-0-0-x-------5-5----------------------------|

Stanza: Guitar 2
e|-------------------------|
B|-------------------------|
G|----5---4-5-7-5-4-----5--|
D|--7---7-------------7----|
A|-------------------------|
E|-------------------------|


Refrain: 2x
e|---------------------------------------------------------|
B|---------------------------------------------------------|
G|---------------------------------------------------------|
D|--9-9--x-7-x-5-7-7-5-5-7-9--9-9-9--x-7-x-5-------5--5-5--|
A|--7-10-x-9-x-7-5-5-7-7-9-10-7-7-10-x-9-x-7-------3--3-3--|
E|-------------------------------------------4-4-4---------|

End Of Refrain
e|-----------------|
B|-----------------|
G|-----------------|
D|--3-3-3--5-5-5---|
A|--3-3-3--5-5-5---|
E|--3-3-3--5-5-5---|

Chorus: Guitar 1
e|---------------------------------------------------------------------------|
B|---------------------------------------------------------------------------|
G|-------9-------9-----9-------10------10----10--------12---------12---------|
D|-------10------10----10------10------10----10--------12---------12---------|
A|---7-7-7---7-7-7---7-7---8-8-8---8-8-8---8-8---10-10-10---10-10-10---------|
E|---------------------------------------------------------------------------|

e|---------------------------------------------------------------------------|
B|---------------------------------------------------------------------------|
G|--------12------10---10\9----9-------5------5----5-------------------------|
D|--------12------12---12\10---10--7-7-7--7-7-7--7-7-------------------------|
A|-----10-10-----------------------7-7-7--7-7-7--7-7-------------------------|
E|------------0-0----0-------0-----------------------------------------------|

e|---------------------------------------------------------------------------|
B|---------------------------------------------------------------------------|
G|------10------10----10--x-------------------10-9---------------------------|
D|------10------10----10--x-10-10-10-9--9---0-12-10--------------------------|
A|--8-8-8---8-8-8---8-8---x-10-10-10-10-10--0--------------------------------|
E|------------------------------------------0--------------------------------|

Chorus: Guitar 2
e|---------------------------------------------------------------------------|
B|--/13--13-13---13----12-10---------12--12-12--12/13-13--12h15p12-10--------|
G|---------------------------12--12-----------------------------------12-----|
D|---------------------------------------------------------------------------|
A|---------------------------------------------------------------------------|
E|---------------------------------------------------------------------------|

e|---------------------------------------------------------------------------|
B|---10----13---13-13-----13-----12---10-------------------------------------|
G|----------------------------------------12-----12----12--------------------|
D|---------------------------------------------------------------------------|
A|---------------------------------------------------------------------------|
E|---------------------------------------------------------------------------|


Stanza II: Guitar 1
e|---------------------------------------------------------------------------|
B|----5---3-5/6-5-3----5-----------------------------------------------------|
G|--2---2------------2-------------------------------------------------------|
D|--------------------------3-3-x-0-0-x-5-5-x-5-5----------------------------|
A|--------------------------3-3-x-0-0-x-3-3-x-5-5----------------------------|
E|--------------------------3-3-x-0-0-x-------5-5----------------------------|

Stanza II: Guitar 2
e|-------------------------|
B|-------------------------|
G|----5---4-5-7-5-4-----5--|
D|--7---7-------------7----|
A|-------------------------|
E|-------------------------|

e|---------------------------------------------------------------------------|
B|---------------------------------------------------------------------------|
G|---------------------------------------------------------------------------|
D|---7--5-5-5-5-5-5-0-0-0-0-0-0-0-0-0-0-0-0-7-7-7-7-7-7-5-5-5-5-5-5----------|
A|---7--5-5-5-5-5-5-0-0-0-0-0-0-0-0-0-0-0-0-7-7-7-7-7-7-5-5-5-5-5-5----------|
E|---7--5-5-5-5-5-5-0-0-0-0-0-0-0-0-0-0-0-0-7-7-7-7-7-7-5-5-5-5-5-5----------|

e|---------------------------------------------------------------------------|
B|---------------------------------------------------------------------------|
G|---------------------------------------------------------------------------|
D|--3-3-x-0-0-x-5-5-x-5-5----------------------------------------------------|
A|--3-3-x-0-0-x-3-3-x-5-5----------------------------------------------------|
E|--3-3-x-0-0-x-------5-5----------------------------------------------------|


Refrain:2x
e|---------------------------------------------------------|
B|---------------------------------------------------------|
G|---------------------------------------------------------|
D|--9-9--x-7-x-5-7-7-5-5-7-9--9-9-9--x-7-x-5-------5--5-5--|
A|--7-10-x-9-x-7-5-5-7-7-9-10-7-7-10-x-9-x-7-------3--3-3--|
E|-------------------------------------------4-4-4---------|

End Of Refrain:
e|-----------------|
B|-----------------|
G|-----------------|
D|--3-3-3--5-5-5---|
A|--3-3-3--5-5-5---|
E|--3-3-3--5-5-5---|

Chorus: 2x  Guitar 1
e|---------------------------------------------------------------------------|
B|---------------------------------------------------------------------------|
G|-------9-------9-----9-------10------10----10--------12---------12---------|
D|-------10------10----10------10------10----10--------12---------12---------|
A|---7-7-7---7-7-7---7-7---8-8-8---8-8-8---8-8---10-10-10---10-10-10---------|
E|---------------------------------------------------------------------------|

e|---------------------------------------------------------------------------|
B|---------------------------------------------------------------------------|
G|--------12------10---10\9----9-------5------5----5-------------------------|
D|--------12------12---12\10---10--7-7-7--7-7-7--7-7-------------------------|
A|-----10-10-----------------------7-7-7--7-7-7--7-7-------------------------|
E|------------0-0----0-------0-----------------------------------------------|

e|---------------------------------------------------------------------------|
B|---------------------------------------------------------------------------|
G|------10------10----10--x-------------------10-9---------------------------|
D|------10------10----10--x-10-10-10-9--9---0-12-10--------------------------|
A|--8-8-8---8-8-8---8-8---x-10-10-10-10-10--0--------------------------------|
E|------------------------------------------0--------------------------------|

Chorus: Guitar 2
e|---------------------------------------------------------------------------|
B|--/13--13-13---13----12-10---------12--12-12--12/13-13--12h15p12-10--------|
G|---------------------------12--12-----------------------------------12-----|
D|---------------------------------------------------------------------------|
A|---------------------------------------------------------------------------|
E|---------------------------------------------------------------------------|

e|---------------------------------------------------------------------------|
B|---10----13---13-13-----13-----12---10-------------------------------------|
G|----------------------------------------12-----12----12--------------------|
D|---------------------------------------------------------------------------|
A|---------------------------------------------------------------------------|
E|---------------------------------------------------------------------------|


Before Solo
e|--------------|
B|--------------|
G|--------------|
D|---8-8-8-8-7--|
A|---8-8-8-8-7--|
E|---8-8-8-8-7--|

solo:
e|---------------------------------------------------------------------------|
B|---------------------------------------------------------------------------|
G|----------------------------------------------10-12-14-10-12-14------------|
D|----------------------------10-12-14-10-12-14------------------------------|
A|----------10-12-13-10-12-13------------------------------------------------|
E|--8-10-11------------------------------------------------------------------|

e|--------------------12-14-15----------14-15-17----------15-17-18-20/-------|
B|--11-13-15-11-13-15----------14-15-17----------15-17-18--------------------|
G|---------------------------------------------------------------------------|
D|---------------------------------------------------------------------------|
A|---------------------------------------------------------------------------|
E|---------------------------------------------------------------------------|

e|--------------------10-12-13-12-10-15/-------------------------------------|
B|--13/-13/-10-13/-10--------------------------------------------------------|
G|---------------------------------------------------------------------------|
D|---------------------------------------------------------------------------|
A|---------------------------------------------------------------------------|
E|---------------------------------------------------------------------------|

e|--13-10----------10-13-11----10-13-10----------10--13/17-13----------------|
B|--------11-10-11----------11----------11-10-11--------------15-13-15-------|
G|---------------------------------------------------------------------------|
D|---------------------------------------------------------------------------|
A|---------------------------------------------------------------------------|
E|---------------------------------------------------------------------------|

e|--13-17-13----------13-17-13----12-19-15----------15-19-15-----------------|
B|-----------15-13-15----------15--------------------------------------------|
G|-----------------------------------------17-16-17----------17-16-17--------|
D|---------------------------------------------------------------------------|
A|---------------------------------------------------------------------------|
E|---------------------------------------------------------------------------|

e|--15-19-15----15-20-15----------15-20/full-20------------------------------|
B|-----------------------17-17-17--------------------------------------------|
G|-----------17--------------------------------------------------------------|
D|---------------------------------------------------------------------------|
A|---------------------------------------------------------------------------|
E|---------------------------------------------------------------------------|
                                 full                  full
e|--20\15-15/17-17\13-13/15--13/------12-----------13/------\12-13-12-10-----|
B|--20\17-17/18-18\15-15/17--15/---------13----13----------------------------|
G|---------------------------------------------------------------------------|
D|---------------------------------------------------------------------------|
A|---------------------------------------------------------------------------|
E|---------------------------------------------------------------------------|
                                         
e|--------17-------15-------17-------20/full-20/full-17\15-------------------|
B|--13/15----15\13----13/15----15/18-----------------------18-13/full--------|
G|---------------------------------------------------------------------------|
D|---------------------------------------------------------------------------|
A|---------------------------------------------------------------------------|
E|---------------------------------------------------------------------------|

some tremolo bar stuff here              
e|---------------------------------------------------------------------------|
B|--15-13----------13--------------------------------------------------------|
G|--------14-14-14----14\12-10-10-10\----0\---------------------+3/----------|
D|---------------------------------------------------------------------------|
A|---------------------------------------------------------------------------|
E|---------------------------------------------------------------------------|

Refrain:2x
e|---------------------------------------------------------|
B|---------------------------------------------------------|
G|---------------------------------------------------------|
D|--9-9--x-7-x-5-7-7-5-5-7-9--9-9-9--x-7-x-5-------5--5-5--|
A|--7-10-x-9-x-7-5-5-7-7-9-10-7-7-10-x-9-x-7-------3--3-3--|
E|-------------------------------------------4-4-4---------|

End Of Refrain:
e|-----------------|
B|-----------------|
G|-----------------|
D|--3-3-3--5-5-5---|
A|--3-3-3--5-5-5---|
E|--3-3-3--5-5-5---|

Bridge: Guitar 1
e|---------------------------------------------------------------------------|
B|---------------------------------------------------------------------------|
G|-------9-------9-----9-------10------10----10--------12---------12---------|
D|-------10------10----10------10------10----10--------12---------12---------|
A|---7-7-7---7-7-7---7-7---8-8-8---8-8-8---8-8---10-10-10---10-10-10---------|
E|---------------------------------------------------------------------------|

e|---------------------------------------------------------------------------|
B|---------------------------------------------------------------------------|
G|--------12------12------10---10\9----9-------5------5----5-----------------|
D|--------12------12------12---12\10---10--7-7-7--7-7-7--7-7-----------------|
A|--10-10-10---10-10-----------------------7-7-7--7-7-7--7-7-----------------|
E|--------------------0-0----0-------0---------------------------------------|

e|---------------------------------------------------------------------------|
B|---------------------------------------------------------------------------|
G|------10------10----10--x--------------------------------------------------|
D|------10------10----10--x-10-10-10-9--9---0--------------------------------|
A|--8-8-8---8-8-8---8-8---x-10-10-10-10-10--0--------------------------------|
E|------------------------------------------0--------------------------------|

Guitar 2  With Wah
e|---------------------------------------------------------------------------|
B|---------------------------------------------------------------------------|
G|-------/5----5-5-----/5\4---2\0-----0------0-------------------------------|
D|---------------------------------------------------------------------------|
A|---------------------------------------------------------------------------|
E|---------------------------------------------------------------------------|

e|---------------------------------------------------------------------------|
B|---------------------------------------------------------------------------|
G|-------/5----5-5-----/5\4---5----5/7-----7---------------------------------|
D|---------------------------------------------------------------------------|
A|---------------------------------------------------------------------------|
E|---------------------------------------------------------------------------|

Chorus: Guitar 1
e|---------------------------------------------------------------------------|
B|---------------------------------------------------------------------------|
G|-------9-------9-----9-------10------10----10--------12---------12---------|
D|-------10------10----10------10------10----10--------12---------12---------|
A|---7-7-7---7-7-7---7-7---8-8-8---8-8-8---8-8---10-10-10---10-10-10---------|
E|---------------------------------------------------------------------------|

e|---------------------------------------------------------------------------|
B|---------------------------------------------------------------------------|
G|--------12------10---10\9----9-------5------5----5-------------------------|
D|--------12------12---12\10---10--7-7-7--7-7-7--7-7-------------------------|
A|-----10-10-----------------------7-7-7--7-7-7--7-7-------------------------|
E|------------0-0----0-------0-----------------------------------------------|

e|---------------------------------------------------------------------------|
B|---------------------------------------------------------------------------|
G|------10------10----10--x-------------------10-9---------------------------|
D|------10------10----10--x-10-10-10-9--9---0-12-10--------------------------|
A|--8-8-8---8-8-8---8-8---x-10-10-10-10-10--0--------------------------------|
E|------------------------------------------0--------------------------------|

e|---------------------------------------------------------------------------|
B|---------------------------------------------------------------------------|
G|-------9-------9-----9-------10------10----10--------12---------12---------|
D|-------10------10----10------10------10----10--------12---------12---------|
A|---7-7-7---7-7-7---7-7---8-8-8---8-8-8---8-8---10-10-10---10-10-10---------|
E|---------------------------------------------------------------------------|

e|---------------------------------------------------------------------------|
B|---------------------------------------------------------------------------|
G|--------12------10---10\9----9-------5------5----5-------------------------|
D|--------12------12---12\10---10--7-7-7--7-7-7--7-7-------------------------|
A|-----10-10-----------------------7-7-7--7-7-7--7-7-------------------------|
E|------------0-0----0-------0-----------------------------------------------|

e|---------------------------------------------------------------------------|
B|---------------------------------------------------------------------------|
G|------10------10----10--x--------------------------------------------------|
D|------10------10----10--x-10-10-10-9--9------------------------------------|
A|--8-8-8---8-8-8---8-8---x-10-10-10-10-10-----------------------------------|
E|---------------------------------------------------------------------------|

Chorus: Guitar 2
e|---------------------------------------------------------------------------|
B|--/13--13-13---13----12-10---------12--12-12--12/13-13--12h15p12-10--------|
G|---------------------------12--12-----------------------------------12-----|
D|---------------------------------------------------------------------------|
A|---------------------------------------------------------------------------|
E|---------------------------------------------------------------------------|

e|---------------------------------------------------------------------------|
B|---10----13---13-13-----13-----12---10-------------------------------------|
G|----------------------------------------12-----12----12--------------------|
D|---------------------------------------------------------------------------|
A|---------------------------------------------------------------------------|
E|---------------------------------------------------------------------------|

Outro:  Guitar 1
e|---------------------------------------------------------------------------|
B|---------------------------------------------------------------------------|
G|---------------------------------------------------------------------------|
D|----------2-0---------2-0--------------------------------------------------|
A|--------2-----------2------3-----------------------------------------------|
E|--0-1-3-------0-1-3--------------------------------------------------------|

Guitar 2
e|---------------------------------------------------------------------------|
B|---------------------------------------------------------------------------|
G|---------------------------------------------------------------------------|
D|--------0-----------0------------------------------------------------------|
A|--0-1-3---3-1-0-1-3---3-1--0-----------------------------------------------|
E|---------------------------------------------------------------------------|



youtube search for: Haroldplapla


| /  slide up
| \  slide down
| h  hammer-on
| p  pull-off
| ~  vibrato
| +  harmonic
| x  Mute note
===============================================================================
comments
We did not receive enough feedback on this tab! Please rate:
print report bad tab
1 2 3 4 5
5 comments total. Showing first comments.
0 reply
larry jones wrote on January 22 2007, 01:49 am

Looks okay.

I'm glad you got the solo tabbed. I'm gonna start learning that right now.

*thumbs up*

0 reply
LedFan1211 wrote on April 2 2007, 06:26 pm

perfect man... perfect

0 reply
Emil G wrote on August 23 2007, 02:44 pm

very very very ver y nice !!!

I want to post or [tab]
guest
You may want to rate the tab now too:
select rating
Please do not post tabs as comments. Select "correction" instead!