Oops, an error
Loading. Please wait.

Superhero Of The Computer Rage Tab

ver1
ver1

Whole song

Interactive

More versions @911Tabs.com
1,829 views 3 this week
no commentswrite comment
1 2 3 4 5
excellent!
x 2
Autoscroll
+/-
esc
set tempo
stop
Contributor
Difficulty
Tuning
intermediate
A# F A# D# G C
WARNING: You are trying to view
                                    content from Ultimate-Guitar.com
                                    in an unauthorized application,
                                    which is prohibited.

                                    Please use an official Ultimate
                                    Guitar Tabs application for iPhone,
                                    iPad or Android to access legitimate
                                    chords, guitar, bass, and drum tabs
                                    from Ultimate-Guitar.com database.

                                    Type "ultimate guitar tabs" in Apple
                                    App Store's or Android Market's
                                    search to find the application.
                        Superhero of the Computer rage -  In Flames

Tuning:Drop A#
low to high:

A# F A# D# G C

      S S S S S S S S S S S S S S S S    S S S S S S S S S S S S S S S S
C ||----------------------------------|----------------------------------|
G ||----------------------------------|----------------------------------|
D#||----------------------------------|----------------------------------|
A#||--7-7-7-7-7-7-7-7-7-7-7-7-7-7-7-7-|--7-7-7-7-7-7-7-7-7-7-7-7-7-7-7-7-|
F ||--5-5-5-5-5-5-5-5-5-5-5-5-5-5-5-5-|--5-5-5-5-5-5-5-5-5-5-5-5-5-5-5-5-|
A#||----------------------------------|----------------------------------|


  S S S S S S S S S S S S S S S S    S S S S S S S S S S S S S S S S
----------------------------------|----------------------------------|
----------------------------------|----------------------------------|
----------------------------------|----------------------------------|
--------------------------5-5-5-5-|--7-7-7-7-7-7-7-7-7-7-7-7-7-7-7-7-|
--8-8-8-8-8-8-8-8-8-8-8-8-3-3-3-3-|--5-5-5-5-5-5-5-5-5-5-5-5-5-5-5-5-|
--8-8-8-8-8-8-8-8-8-8-8-8---------|----------------------------------|


  S S S S S S S S S S S S S S S S    S S S S S S S S S S S S S S S S
----------------------------------|----------------------------------|
----------------------------------|----------------------------------|
----------------------------------|----------------------------------|
----------------------------------|----------------------------------|
--7-7-7-7-7-7-7-7-8-8-8-8-5-5-5-5-|--8-8-8-8-8-8-8-8-8-8-8-8-8-8-8-8-|
--7-7-7-7-7-7-7-7-8-8-8-8-5-5-5-5-|--8-8-8-8-8-8-8-8-8-8-8-8-8-8-8-8-|


  S S S S S S S S S S S S S S S S    S S S S S S S S S S S S S S S S
----------------------------------|----------------------------------|
----------------------------------|----------------------------------|
----------------------------------|----------------------------------|
--5-5-5-5-5-5-5-5-5-5-5-5-5-5-5-5-|--7-7-7-7-7-7-7-7-7-7-7-7-7-7-7-7-|
--3-3-3-3-3-3-3-3-3-3-3-3-3-3-3-3-|--5-5-5-5-5-5-5-5-5-5-5-5-5-5-5-5-|
----------------------------------|----------------------------------|


  S S S S S S S S S S S S S S S S
----------------------------------|
----------------------------------|
----------------------------------|
----------------------------------|
--7-7-7-7-7-7-7-7-8-8-8-8-5-5-5-5-|
--7-7-7-7-7-7-7-7-8-8-8-8-5-5-5-5-|


  T T T T T T T T T T T T T T T T T T T T T T T T S S S S
----------------------------------------------------------|
----------------------------------------------------------|
----------------------------------------------------------|
--------------------------------------------------------7-|
--0-0-0---0-0-0---0-0-0---0-0-0---0-0-0---0-0-0---------5-|
--0-0-0---0-0-0---0-0-0---0-0-0---0-0-0---0-0-0---0-0-0---|


  S S T T T T T T T T T T T T T T T T T T T T S S S S
------------------------------------------------------|
------------------------------------------------------|
------------------------------------------------------|
----7-----------------------------------------------5-|
--L-5-0-0-0---0-0-0---0-0-0---0-0-0---0-0-0---------3-|
------0-0-0---0-0-0---0-0-0---0-0-0---0-0-0---0-0-0---|


  S S T T T T T T T T T T T T T T T T T T T T S S S S
------------------------------------------------------|
------------------------------------------------------|
------------------------------------------------------|
----5-5-5-5---5-5-5---5-5-5---5-5-5---5-5-------------|
--L-3-3-3-3---3-3-3---3-3-3---3-3-3---3-3-3---------8-|
----------------------------------------------5-5-5-8-|


  S S S S T T T T T T T T S S S S S S E
------------------------------------------|
------------------------------------------|
------------------------------------------|
------------------------------------------|
------------------------------------------|
--L-8-8-8-8-8-8---8-8-8---0-3-3-0-3-5-7~--|


  T T T T T T T T T T T T T T T T T T T T T T T T S S S S
----------------------------------------------------------|
----------------------------------------------------------|
----------------------------------------------------------|
--------------------------------------------------------7-|
--0-0-0---0-0-0---0-0-0---0-0-0---0-0-0---0-0-0---------5-|
--0-0-0---0-0-0---0-0-0---0-0-0---0-0-0---0-0-0---0-0-0---|


  S S T T T T T T T T T T T T T T T T T T T T S S S S
------------------------------------------------------|
------------------------------------------------------|
------------------------------------------------------|
----7-----------------------------------------------5-|
--L-5-0-0-0---0-0-0---0-0-0---0-0-0---0-0-0---------3-|
------0-0-0---0-0-0---0-0-0---0-0-0---0-0-0---0-0-0---|


  S S T T T T T T T T T T T T T T T T T T T T S S S S
------------------------------------------------------|
------------------------------------------------------|
------------------------------------------------------|
----5-5-5-5---5-5-5---5-5-5---5-5-5---5-5-------------|
--L-3-3-3-3---3-3-3---3-3-3---3-3-3---3-3-3---------8-|
----------------------------------------------5-5-5-8-|


  S S S S T T T T T T T T S S S S S S E      S S S S S S S S S S S S S S S S
------------------------------------------|----------------------------------|
------------------------------------------|----------------------------------|
------------------------------------------|----------------------------------|
------------------------------------------|--7-7-7-7-7-7-7-7-7-7-7-7-7-7-7-7-|
------------------------------------------|--5-5-5-5-5-5-5-5-5-5-5-5-5-5-5-5-|
--L-8-8-8-8-8-8---8-8-8---0-3-3-0-3-5-7~--|----------------------------------|


  S S S S S S S S S S S S S S S S    S S S S S S S S S S S S S S S S
----------------------------------|----------------------------------|
----------------------------------|----------------------------------|
----------------------------------|----------------------------------|
--------------------------5-5-5-5-|--7-7-7-7-7-7-7-7-7-7-7-7-7-7-7-7-|
--8-8-8-8-8-8-8-8-8-8-8-8-3-3-3-3-|--5-5-5-5-5-5-5-5-5-5-5-5-5-5-5-5-|
--8-8-8-8-8-8-8-8-8-8-8-8---------|----------------------------------|


  S S S S S S S S S S S S S S S S
----------------------------------|
----------------------------------|
----------------------------------|
----------------------------------|
--7-7-7-7-7-7-7-7-8-8-8-8-5-5-5-5-|
--7-7-7-7-7-7-7-7-8-8-8-8-5-5-5-5-|


  T T T T T T T T T T T T T T T T T T T T T T T T S S S S
----------------------------------------------------------|
----------------------------------------------------------|
----------------------------------------------------------|
--------------------------------------------------------7-|
--0-0-0---0-0-0---0-0-0---0-0-0---0-0-0---0-0-0---------5-|
--0-0-0---0-0-0---0-0-0---0-0-0---0-0-0---0-0-0---0-0-0---|


  S S T T T T T T T T T T T T T T T T T T T T S S S S
------------------------------------------------------|
------------------------------------------------------|
------------------------------------------------------|
----7-----------------------------------------------5-|
--L-5-0-0-0---0-0-0---0-0-0---0-0-0---0-0-0---------3-|
------0-0-0---0-0-0---0-0-0---0-0-0---0-0-0---0-0-0---|


  S S T T T T T T T T T T T T T T T T T T T T S S S S
------------------------------------------------------|
------------------------------------------------------|
------------------------------------------------------|
----5-5-5-5---5-5-5---5-5-5---5-5-5---5-5-------------|
--L-3-3-3-3---3-3-3---3-3-3---3-3-3---3-3-3---------8-|
----------------------------------------------5-5-5-8-|


  S S S S T T T T T T T T S S S S S S E
------------------------------------------|
------------------------------------------|
------------------------------------------|
------------------------------------------|
------------------------------------------|
--L-8-8-8-8-8-8---8-8-8---0-3-3-0-3-5-7~--|


  T T T T T T T T T T T T T T T T T T T T T T T T S S S S
----------------------------------------------------------|
----------------------------------------------------------|
----------------------------------------------------------|
--------------------------------------------------------7-|
--0-0-0---0-0-0---0-0-0---0-0-0---0-0-0---0-0-0---------5-|
--0-0-0---0-0-0---0-0-0---0-0-0---0-0-0---0-0-0---0-0-0---|


  S S T T T T T T T T T T T T T T T T T T T T S S S S
------------------------------------------------------|
------------------------------------------------------|
------------------------------------------------------|
----7-----------------------------------------------5-|
--L-5-0-0-0---0-0-0---0-0-0---0-0-0---0-0-0---------3-|
------0-0-0---0-0-0---0-0-0---0-0-0---0-0-0---0-0-0---|


  S S T T T T T T T T T T T T T T T T T T T T S S S S
------------------------------------------------------|
------------------------------------------------------|
------------------------------------------------------|
----5-5-5-5---5-5-5---5-5-5---5-5-5---5-5-------------|
--L-3-3-3-3---3-3-3---3-3-3---3-3-3---3-3-3---------8-|
----------------------------------------------5-5-5-8-|


  S S S S T T T T T T T T S S S S S S S  S    S S S S S S S S S S S S S S S S
-------------------------------------------|----------------------------------|
-------------------------------------------|----------------------------------|
-------------------------------------------|----------------------------------|
-------------------------------------------|----------------------------------|
-----------------------------------------0-|--L-2---2-2-2---2---2---0-2-5-5-0-|
--L-8-8-8-8-8-8---8-8-8---0-3-3-0-3-5-7~-0-|--L-2---2-2-2---2---2---0-2-5-5-0-|


  S S S S S S S S S S S S S S S S    S S S S S S S S S S S S S S S S
----------------------------------|----------------------------------|
----------------------------------|----------------------------------|
----------------------------------|----------------------------------|
----------------------------------|----------------------------------|
--L-2---2-2-2---2---2---0-2-3-3-0-|--L-2---2-2-2---2---2---0-2-5-5-0-|
--L-2---2-2-2---2---2---0-2-3-3-0-|--L-2---2-2-2---2---2---0-2-5-5-0-|


  S S S S S S S E  S S E  S S S    S S S S S S S S S S S S S S S S
--------------------------------|----------------------------------|
--------------------------------|----------------------------------|
--------------------------------|----------------------------------|
--------------------------------|----------------------------------|
--L-2---2-2-2-2-5--5-5-3--3-3-0-|--L-2---2-2-2---2---2---0-2-5-5-0-|
--L-2---2-2-2-2-5--5-5-3--3-3-0-|--L-2---2-2-2---2---2---0-2-5-5-0-|


  S S S S S S S S S S S S S S S S    S S S S S S S S S S S S S S S S
----------------------------------|----------------------------------|
----------------------------------|----------------------------------|
----------------------------------|----------------------------------|
----------------------------------|----------------------------------|
--L-2---2-2-2---2---2---0-2-3-3-0-|--L-2---2-2-2---2---2---0-2-5-5-0-|
--L-2---2-2-2---2---2---0-2-3-3-0-|--L-2---2-2-2---2---2---0-2-5-5-0-|


  S S S S S S S E  S S E  S E     S S S S S S S S S S S S S S S S
-------------------------------|----------------------------------|
-------------------------------|----------------------------------|
-------------------------------|----------------------------------|
-------------------------------|--7-7-7-7-7-7-7-7-7-7-7-7-7-7-7-7-|
--L-2---2-2-2-2-5--5-5-3--3-3--|--5-5-5-5-5-5-5-5-5-5-5-5-5-5-5-5-|
--L-2---2-2-2-2-5--5-5-3--3-3--|----------------------------------|


  S S S S S S S S S S S S S S S S    S S S S S S S S S S S S S S S S
----------------------------------|----------------------------------|
----------------------------------|----------------------------------|
----------------------------------|----------------------------------|
--------------------------5-5-5-5-|--7-7-7-7-7-7-7-7-7-7-7-7-7-7-7-7-|
--8-8-8-8-8-8-8-8-8-8-8-8-3-3-3-3-|--5-5-5-5-5-5-5-5-5-5-5-5-5-5-5-5-|
--8-8-8-8-8-8-8-8-8-8-8-8---------|----------------------------------|


  S S S S S S S S S S S S S S S S    S S S S S S S S S S S S S S S S
----------------------------------|----------------------------------|
----------------------------------|----------------------------------|
----------------------------------|----------------------------------|
----------------------------------|----------------------------------|
--7-7-7-7-7-7-7-7-8-8-8-8-5-5-5-5-|--8-8-8-8-8-8-8-8-8-8-8-8-8-8-8-8-|
--7-7-7-7-7-7-7-7-8-8-8-8-5-5-5-5-|--8-8-8-8-8-8-8-8-8-8-8-8-8-8-8-8-|


  S S S S S S S S S S S S S S S S    S S S S S S S S S S S S S S S S
----------------------------------|----------------------------------|
----------------------------------|----------------------------------|
----------------------------------|----------------------------------|
--5-5-5-5-5-5-5-5-5-5-5-5-5-5-5-5-|--7-7-7-7-7-7-7-7-7-7-7-7-7-7-7-7-|
--3-3-3-3-3-3-3-3-3-3-3-3-3-3-3-3-|--5-5-5-5-5-5-5-5-5-5-5-5-5-5-5-5-|
----------------------------------|----------------------------------|


  S S S S S S S S S S S S S S S S    S S S S S S S S S S S S S S S S
----------------------------------|----------------------------------|
----------------------------------|----------------------------------|
----------------------------------|----------------------------------|
----------------------------------|----------------------------------|
--7-7-7-7-7-7-7-7-8-8-8-8-5-5-5-5-|----------------------3-5---8-7---|
--7-7-7-7-7-7-7-7-8-8-8-8-5-5-5-5-|--0-8-7-0-7-0-3-5-3-0-----0-----7-|


  S S S S Q       S S S S S S S S S S S S S  S S S
---------------|-----------------------------------|
---------------|-----------------------------------|
---------------|-----------------------------------|
---------------|----------------------5-7---10-9---|
---------------|--0-8-7-0-7-0-3-5-3-0-3-5-0--8-7-7-|
--5------------|--0-8-7-0-7-0-3-5-3-0-----0------7-|


  H        S S  S  S S  S S S    S S S S S S S S S S S S S  S S S
------------------------------|-----------------------------------|
------------------------------|-----------------------------------|
------------------------------|-----------------------------------|
-------------8--x-10-x-12-x-7-|----------------------5-7---10-9---|
--5--------x------------------|--0-8-7-0-7-0-3-5-3-0-3-5-0--8-7-7-|
--5--------x----x----x----x---|--0-8-7-0-7-0-3-5-3-0-----0------7-|


  H        S S  S S S S S S    S S S S S  S S S S S S S S  S S S
----------------------------|------------------------------------|
----------------------------|------------------------------------|
----------------------------|------------------------------------|
-------------3--x-5-x-7-x-x-|--x-7-x-8-x-10-x-x-x-7-x-8-x-10-x-x-|
--5--------x----------------|------x---x----x-x-x---x---x----x-x-|
--5--------x----x---x---x---|------------------------------------|


  S S S S S S S S S S S S S S S S    S S S S S  S S S S S S S S  S S S
----------------------------------|------------------------------------|
----------------------------------|------------------------------------|
----------------------------------|------------------------------------|
----------------------------------|--x-7-x-8-x-10-x-x-x-7-x-8-x-10-x-x-|
--x-x-x-x-x-x-x-x-x-x-x-x-x-x-x-x-|------x---x----x-x-x---x---x----x-x-|
----------------------------------|------------------------------------|


  S S S S S S S S Q    E  S S    S T S. S S S S T S. T S. S S S S S
------------------------------|-------------------------------------|
------------------------------|-------------------------------------|
------------------------------|-------------------------------------|
------------------------------|-------------------------------------|
--x-x-x-x-x-x-x-x-8----6--L-0-|--L-2----2-2-2---2----2----0-2-5-5-0-|
------------------8----6--L-0-|--L-2----2-2-2---2----2----0-2-5-5-0-|


  S T S. S S T S. T S. T S. S S S S S    S T S. S S T S. T S. T S. S S S S S
--------------------------------------|--------------------------------------|
--------------------------------------|--------------------------------------|
--------------------------------------|--------------------------------------|
--------------------------------------|--------------------------------------|
--L-2----2-2-2----2----2----0-2-3-3-0-|--L-2----2-2-2----2----2----0-2-5-5-0-|
--L-2----2-2-2----2----2----0-2-3-3-0-|--L-2----2-2-2----2----2----0-2-5-5-0-|


  S T S. S S S S E  S S E  S S S    S S S S S S S S S S S S S S S S
---------------------------------|----------------------------------|
---------------------------------|----------------------------------|
---------------------------------|----------------------------------|
---------------------------------|----------------------------------|
--L-2----2-2-2-2-5--5-5-3--3-3-0-|--L-2---2-2-2---2---2---0-2-5-5-0-|
--L-2----2-2-2-2-5--5-5-3--3-3-0-|--L-2---2-2-2---2---2---0-2-5-5-0-|


  S S S S S S S S S S S S S S S S    S S S S S S S S S S S S S S S S
----------------------------------|----------------------------------|
----------------------------------|----------------------------------|
----------------------------------|----------------------------------|
----------------------------------|----------------------------------|
--L-2---2-2-2---2---2---0-2-3-3-0-|--L-2---2-2-2---2---2---0-2-5-5-0-|
--L-2---2-2-2---2---2---0-2-3-3-0-|--L-2---2-2-2---2---2---0-2-5-5-0-|


  S S S S S S S E  S S E  S E
-------------------------------|-----|-----|
-------------------------------|-----|-----|
-------------------------------|-----|-----|
-------------------------------|-----|-----|
--L-2---2-2-2-2-5--5-5-3--3-3--|-----|-----|
--L-2---2-2-2-2-5--5-5-3--3-3--|-----|-----|


   S  S  S  S  S  S  S  S  S  S  S  S  S  S  S  S
--------------------------------------------------|
--------------------------------------------------|
--------------------------------------------------|
--10-10-10-10-10-10-10-10-10-10-10-10-10-10-10-10-|
---8--8--8--8--8--8--8--8--8--8--8--8--8--8--8--8-|
--------------------------------------------------|


   S  S  S  S  S  S  S  S  S  S  S  S S S S S
----------------------------------------------|
----------------------------------------------|
----------------------------------------------|
----------------------------------------------|
--10-10-10-10-10-10-10-10-11-11-11-11-8-8-8-8-|
--10-10-10-10-10-10-10-10-11-11-11-11-8-8-8-8-|


   S  S  S  S  S  S  S  S  S  S  S  S  S  S  S  S
--------------------------------------------------|
--------------------------------------------------|
--------------------------------------------------|
--------------------------------------------------|
--11-11-11-11-11-11-11-11-11-11-11-11-11-11-11-11-|
--11-11-11-11-11-11-11-11-11-11-11-11-11-11-11-11-|


                                      TP                   TP        TP   TP
  S S S S S S S S S S S S S S S S     W                    H         Q    Q
----------------------------------|--------------------|-----------------------|
----------------------------------|--------------------|-----------------------|
----------------------------------|--------------------|-----------------------|
--8-8-8-8-8-8-8-8-8-8-8-8-8-8-8-8-|--10----------------|-----------------------|
--6-6-6-6-6-6-6-6-6-6-6-6-6-6-6-6-|---8----------------|--10--------11----8----|
----------------------------------|--------------------|--10--------11----8----|


   S  S  S  S  S  S  S  S  S  S  S  S  S  S  S  S
--------------------------------------------------|
--------------------------------------------------|
--------------------------------------------------|
--10-10-10-10-10-10-10-10-10-10-10-10-10-10-10-10-|
---8--8--8--8--8--8--8--8--8--8--8--8--8--8--8--8-|
--------------------------------------------------|


   S  S  S  S  S  S  S  S  S  S  S  S S S S S
----------------------------------------------|
----------------------------------------------|
----------------------------------------------|
--------------------------------------8-8-8-8-|
--11-11-11-11-11-11-11-11-11-11-11-11-6-6-6-6-|
--11-11-11-11-11-11-11-11-11-11-11-11---------|


   S  S  S  S  S  S  S  S  S  S  S  S  S  S  S  S
--------------------------------------------------|
--------------------------------------------------|
--------------------------------------------------|
--10-10-10-10-10-10-10-10-10-10-10-10-10-10-10-10-|
---8--8--8--8--8--8--8--8--8--8--8--8--8--8--8--8-|
--------------------------------------------------|


   S  S  S  S  S  S  S  S  S  S  S  S S S S S
----------------------------------------------|
----------------------------------------------|
----------------------------------------------|
----------------------------------------------|
--10-10-10-10-10-10-10-10-11-11-11-11-8-8-8-8-|
--10-10-10-10-10-10-10-10-11-11-11-11-8-8-8-8-|


   S  S  S  S  S  S  S  S  S  S  S  S  S  S  S  S
--------------------------------------------------|
--------------------------------------------------|
--------------------------------------------------|
--------------------------------------------------|
--11-11-11-11-11-11-11-11-11-11-11-11-11-11-11-11-|
--11-11-11-11-11-11-11-11-11-11-11-11-11-11-11-11-|


                                      TP                   TP        TP   TP
  S S S S S S S S S S S S S S S S     W                    H         Q    Q
----------------------------------|--------------------|-----------------------|
----------------------------------|--------------------|-----------------------|
----------------------------------|--------------------|-----------------------|
--8-8-8-8-8-8-8-8-8-8-8-8-8-8-8-8-|--10----------------|-----------------------|
--6-6-6-6-6-6-6-6-6-6-6-6-6-6-6-6-|---8----------------|--10--------11----8----|
----------------------------------|--------------------|--10--------11----8----|


  S S S S S S E   S S S S S S E      H        H
----------------------------------|--------------------||
----------------------------------|--------------------||
----------------------------------|--------------------||
----------------------------------|--0-----------------||
----------------------------------|--0-----------------||
--0-3-3-0-3-5-7~--0-3-3-0-3-5-7~--|--0-----------------||

*********************************************************************************
*********************************************************************************
*********************************************************************************

Guitar 2

              S S S S S S S S S S S S S S S S
C ||-------|----------------------------------|
G ||-------|----------------------------------|
D#||-------|--------------------------7-7-7-7-|
A#||-------|----------------------------------|
F ||-------|--5-5-5-5-5-5-5-5-5-5-5-5---------|
A#||-------|----------------------------------|


  S S S S S S S S S S S S S S S S    S S S S S S S S S S S S S S S S
----------------------------------|----------------------------------|
----------------------------------|----------------------------------|
--5-5-5-5-------------------------|----------------------------------|
----------5-5-5-5-5-5-5-5-8-8-8-8-|--7-7-7-7-------------------------|
----------------------------------|----------5-5-5-5-5-5-5-5-5-5-7-7-|
----------------------------------|----------------------------------|


  S S S S S S S S S S S S S S S S    S S S S S S S S S S S S S S S S
----------------------------------|----------------------------------|
----------------------------------|----------------------------------|
----------------------------------|--------------------------7-7-7-7-|
--------5-5-5-7-7-----------------|----------------------------------|
--8-8-8-----------8-8-8-8-7-7-7-7-|--8-8-8-8-8-8-8-8-8-8-8-8---------|
----------------------------------|----------------------------------|


  S S S S S S S S S S S S S S S S    S S S S S S S S S S S S S S S S
----------------------------------|----------------------------------|
----------------------------------|----------------------------------|
--5-5-5-5-------------------------|----------------------------------|
----------5-5-5-5-5-5-5-5-8-8-8-8-|--7-7-7-7-------------------------|
----------------------------------|----------5-5-5-5-5-5-5-5-5-5-7-7-|
----------------------------------|----------------------------------|


  S S S S S S S S S S S S S S S S
----------------------------------|
----------------------------------|
----------------------------------|
--------5-5-5-7-7-----------------|
--8-8-8-----------8-8-8-8-7-7-7-7-|
----------------------------------|


  T T T T T T T T T T T T T T T T T T T T T T T T S S S S
----------------------------------------------------------|
----------------------------------------------------------|
----------------------------------------------------------|
----------------------------------------------------------|
--------------------------------------------------------5-|
--0-0-0---0-0-0---0-0-0---0-0-0---0-0-0---0-0-0---0-0-0---|


  S S T T T T T T T T T T T T T T T T T T T T S S S S
------------------------------------------------------|
------------------------------------------------------|
------------------------------------------------------|
------------------------------------------------------|
--L-5-----------------------------------------------3-|
------0-0-0---0-0-0---0-0-0---0-0-0---0-0-0---0-0-0---|


  S S T T T T T T T T T T T T T T T T T T T T S S S S
------------------------------------------------------|
------------------------------------------------------|
------------------------------------------------------|
------------------------------------------------------|
--L-3-3-3-3---3-3-3---3-3-3---3-3-3---3-3-3---------8-|
----------------------------------------------5-5-5-8-|


  S S S S T T T T T T T T S S S S S S E
------------------------------------------|
------------------------------------------|
------------------------------------------|
------------------------------------------|
------------------------------------------|
--L-8-8-8-8-8-8---8-8-8---0-3-3-0-3-5-7~--|


  T T T T T T T T T T T T T T T T T T T T T T T T S S S S
----------------------------------------------------------|
----------------------------------------------------------|
----------------------------------------------------------|
----------------------------------------------------------|
--------------------------------------------------------5-|
--0-0-0---0-0-0---0-0-0---0-0-0---0-0-0---0-0-0---0-0-0---|


  S S T T T T T T T T T T T T T T T T T T T T S S S S
------------------------------------------------------|
------------------------------------------------------|
------------------------------------------------------|
------------------------------------------------------|
--L-5-----------------------------------------------3-|
------0-0-0---0-0-0---0-0-0---0-0-0---0-0-0---0-0-0---|


  S S T T T T T T T T T T T T T T T T T T T T S S S S
------------------------------------------------------|
------------------------------------------------------|
------------------------------------------------------|
------------------------------------------------------|
--L-3-3-3-3---3-3-3---3-3-3---3-3-3---3-3-3---------8-|
----------------------------------------------5-5-5-8-|


  S S S S T T T T T T T T S S S S S S E      S S S S S S S S S S S S S S S S
------------------------------------------|----------------------------------|
------------------------------------------|----------------------------------|
------------------------------------------|--------------------------7-7-7-7-|
------------------------------------------|----------------------------------|
------------------------------------------|--5-5-5-5-5-5-5-5-5-5-5-5---------|
--L-8-8-8-8-8-8---8-8-8---0-3-3-0-3-5-7~--|----------------------------------|


  S S S S S S S S S S S S S S S S    S S S S S S S S S S S S S S S S
----------------------------------|----------------------------------|
----------------------------------|----------------------------------|
--5-5-5-5-------------------------|----------------------------------|
----------5-5-5-5-5-5-5-5-8-8-8-8-|--7-7-7-7-------------------------|
----------------------------------|----------5-5-5-5-5-5-5-5-5-5-7-7-|
----------------------------------|----------------------------------|


  S S S S S S S S S S S S S S S S
----------------------------------|
----------------------------------|
----------------------------------|
--------5-5-5-7-7-----------------|
--8-8-8-----------8-8-8-8-7-7-7-7-|
----------------------------------|


  T T T T T T T T T T T T T T T T T T T T T T T T S S S S
----------------------------------------------------------|
----------------------------------------------------------|
----------------------------------------------------------|
----------------------------------------------------------|
--------------------------------------------------0-0-0-5-|
--0-0-0---0-0-0---0-0-0---0-0-0---0-0-0---0-0-0-----------|


  S S T T T T T T T T T T T T T T T T T T T T S S S S
------------------------------------------------------|
------------------------------------------------------|
------------------------------------------------------|
------------------------------------------------------|
--L-5-----------------------------------------1-1-1-3-|
------0-0-0---0-0-0---0-0-0---0-0-0---0-0-0-----------|


  S S T T T T T T T T T T T T T T T T T T T T S S S S
------------------------------------------------------|
------------------------------------------------------|
------------------------------------------------------|
------------------------------------------------------|
--L-3-3-3-3---3-3-3---3-3-3---3-3-3---3-3-3---------8-|
----------------------------------------------5-5-5-8-|


  S S S S T T T T T T T T S S S S S S E
------------------------------------------|
------------------------------------------|
------------------------------------------|
------------------------------------------|
------------------------------------------|
--L-8-8-8-8-8-8---8-8-8---0-3-3-0-3-5-7~--|


  T T T T T T T T T T T T T T T T T T T T T T T T S S S S
----------------------------------------------------------|
----------------------------------------------------------|
----------------------------------------------------------|
----------------------------------------------------------|
--------------------------------------------------0-0-0-5-|
--0-0-0---0-0-0---0-0-0---0-0-0---0-0-0---0-0-0-----------|


  S S T T T T T T T T T T T T T T T T T T T T S S S S
------------------------------------------------------|
------------------------------------------------------|
------------------------------------------------------|
------------------------------------------------------|
--L-5-----------------------------------------0-0-0-3-|
------0-0-0---0-0-0---0-0-0---0-0-0---0-0-0-----------|


  S S T T T T T T T T T T T T T T T T T T T T S S S S
------------------------------------------------------|
------------------------------------------------------|
------------------------------------------------------|
------------------------------------------------------|
--L-3-3-3-3---3-3-3---3-3-3---3-3-3---3-3-3---------8-|
----------------------------------------------5-5-5-8-|


  S S S S T T T T T T T T S S S S S S E      S S S S S S S S S S S S S S S S
------------------------------------------|----------------------------------|
------------------------------------------|----------------------------------|
------------------------------------------|----------------------------------|
------------------------------------------|----------------------------------|
------------------------------------------|--L-2---2-2-2---2---2---0-2-5-5-0-|
--L-8-8-8-8-8-8---8-8-8---0-3-3-0-3-5-7~--|--L-2---2-2-2---2---2---0-2-5-5-0-|


  S S S S S S S S S S S S S S S S    S S S S S S S S S S S S S S S S
----------------------------------|----------------------------------|
----------------------------------|----------------------------------|
----------------------------------|----------------------------------|
----------------------------------|----------------------------------|
--L-2---2-2-2---2---2---0-2-3-3-0-|--L-2---2-2-2---2---2---0-2-5-5-0-|
--L-2---2-2-2---2---2---0-2-3-3-0-|--L-2---2-2-2---2---2---0-2-5-5-0-|


  S S S S S S S E  S S E  S S S    S S S S S S S S S S S S S S S S
--------------------------------|----------------------------------|
--------------------------------|----------------------------------|
--------------------------------|----------------------------------|
--------------------------------|----------------------------------|
--L-2---2-2-2-2-5--5-5-3--3-3-0-|--L-2---2-2-2---2---2---0-2-5-5-0-|
--L-2---2-2-2-2-5--5-5-3--3-3-0-|--L-2---2-2-2---2---2---0-2-5-5-0-|


  S S S S S S S S S S S S S S S S    S S S S S S S S S S S S S S S S
----------------------------------|----------------------------------|
----------------------------------|----------------------------------|
----------------------------------|----------------------------------|
----------------------------------|----------------------------------|
--L-2---2-2-2---2---2---0-2-3-3-0-|--L-2---2-2-2---2---2---0-2-5-5-0-|
--L-2---2-2-2---2---2---0-2-3-3-0-|--L-2---2-2-2---2---2---0-2-5-5-0-|


  S S S S S S S E  S S E  S E     S S S S S S S S S S S S S S S S
-------------------------------|----------------------------------|
-------------------------------|----------------------------------|
-------------------------------|--------------------------7-7-7-7-|
-------------------------------|----------------------------------|
--L-2---2-2-2-2-5--5-5-3--3-3--|--5-5-5-5-5-5-5-5-5-5-5-5---------|
--L-2---2-2-2-2-5--5-5-3--3-3--|----------------------------------|


  S S S S S S S S S S S S S S S S    S S S S S S S S S S S S S S S S
----------------------------------|----------------------------------|
----------------------------------|----------------------------------|
--5-5-5-5-------------------------|----------------------------------|
----------5-5-5-5-5-5-5-5-8-8-8-8-|--7-7-7-7-------------------------|
----------------------------------|----------5-5-5-5-5-5-5-5-5-5-7-7-|
----------------------------------|----------------------------------|


  S S S S S S S S S S S S S S S S    S S S S S S S S S S S S S S S S
----------------------------------|----------------------------------|
----------------------------------|----------------------------------|
----------------------------------|--------------------------7-7-7-7-|
--------5-5-5-7-7-----------------|----------------------------------|
--8-8-8-----------8-8-8-8-7-7-7-7-|--8-8-8-8-8-8-8-8-8-8-8-8---------|
----------------------------------|----------------------------------|


  S S S S S S S S S S S S S S S S    S S S S S S S S S S S S S S S S
----------------------------------|----------------------------------|
----------------------------------|----------------------------------|
--5-5-5-5-------------------------|----------------------------------|
----------5-5-5-5-5-5-5-5-8-8-8-8-|--7-7-7-7-------------------------|
----------------------------------|----------5-5-5-5-5-5-5-5-5-5-7-7-|
----------------------------------|----------------------------------|


  S S S S S S S S S S S S S S S S    W                   S S S S Q
----------------------------------|-------------------|---------------|
----------------------------------|-------------------|---------------|
----------------------------------|-------------------|---------------|
--------5-5-5-7-7-----------------|-------------------|---------------|
--8-8-8-----------8-8-8-8-7-7-7-7-|--0----------------|--5------------|
----------------------------------|--0----------------|--5------------|


  S S S S S S S S S S S S S S S S    H        S S S S S S S S
----------------------------------|---------------------------|
----------------------------------|---------------------------|
----------------------------------|---------------------------|
----------------------------------|-------------5-x-7-x-8-x-7-|
----------------------3-5---8-7---|--5--------x---x---x---x-x-|
--0-8-7-0-7-0-3-5-3-0-----0-----7-|--5--------x---------------|


  S S S S S S S S S S S S S S S S    H        S S S S S S S S
----------------------------------|---------------------------|
----------------------------------|---------------------------|
----------------------------------|---------------------------|
----------------------------------|-------------3-x-5-x-7-x-x-|
----------------------3-5---8-7---|--5--------x---x---x---x-x-|
--0-8-7-0-7-0-3-5-3-0-----0-----7-|--5------------------------|


      PM   PM   PM PM PM   PM   PM   PM PM
  S S S  S S  S S  S  S  S S  S S  S S  S     S S S S S S S S S S S S S S S S
-------------------------------------------|----------------------------------|
-------------------------------------------|----------------------------------|
-------------------------------------------|----------------------------------|
--x-3-x--5-x--7-x--x--x--3-x--5-x--7-x--x--|----------------------------------|
--x---8----8----8--8--8----8----8----8--8--|--3-3-3-3-3-3-3-3-3-3-3-3-3-3-3-3-|
-------------------------------------------|----------------------------------|


      PM   PM   PM PM PM   PM   PM   PM PM
  S S S  S S  S S  S  S  S S  S S  S S  S     S S S S S S S S Q    E  S S
-------------------------------------------|------------------------------|
-------------------------------------------|------------------------------|
-------------------------------------------|------------------------------|
--x-3-x--5-x--7-x--x--x--3-x--5-x--7-x--x--|------------------------------|
--x---8----8----8--8--8----8----8----8--8--|--3-3-3-3-3-3-3-3-8----6--L-0-|
-------------------------------------------|------------------8----6--L-0-|


  S T S. S S S S T S. T S. S S S S S    S T S. S S T S. T S. T S. S S S S S
-------------------------------------|--------------------------------------|
-------------------------------------|--------------------------------------|
-------------------------------------|--------------------------------------|
-------------------------------------|--------------------------------------|
--L-2----2-2-2---2----2----0-2-5-5-0-|--L-2----2-2-2----2----2----0-2-3-3-0-|
--L-2----2-2-2---2----2----0-2-5-5-0-|--L-2----2-2-2----2----2----0-2-3-3-0-|


  S T S. S S T S. T S. T S. S S S S S    S T S. S S S S E  S S E  S S S
--------------------------------------|---------------------------------|
--------------------------------------|---------------------------------|
--------------------------------------|---------------------------------|
--------------------------------------|---------------------------------|
--L-2----2-2-2----2----2----0-2-5-5-0-|--L-2----2-2-2-2-5--5-5-3--3-3-0-|
--L-2----2-2-2----2----2----0-2-5-5-0-|--L-2----2-2-2-2-5--5-5-3--3-3-0-|


  S S S S S S S S S S S S S S S S    S S S S S S S S S S S S S S S S
----------------------------------|----------------------------------|
----------------------------------|----------------------------------|
----------------------------------|----------------------------------|
----------------------------------|----------------------------------|
--L-2---2-2-2---2---2---0-2-5-5-0-|--L-2---2-2-2---2---2---0-2-3-3-0-|
--L-2---2-2-2---2---2---0-2-5-5-0-|--L-2---2-2-2---2---2---0-2-3-3-0-|


  S S S S S S S S S S S S S S S S    S S S S S S S E  S S E  S E
----------------------------------|-------------------------------|
----------------------------------|-------------------------------|
----------------------------------|-------------------------------|
----------------------------------|-------------------------------|
--L-2---2-2-2---2---2---0-2-5-5-0-|--L-2---2-2-2-2-5--5-5-3--3-3--|
--L-2---2-2-2---2---2---0-2-5-5-0-|--L-2---2-2-2-2-5--5-5-3--3-3--|


  S S S S S S S S S S S S S S S S    S S  S  S  S  S  S  S  S S S Q    S
----------------------------------|--------------------------------------|
----------------------------------|------11-11-11-11-11-11-11------------|
----------7-7-7-7-5-5-5-5-7-7-7-7-|--------------------------------------|
----------------------------------|--8-8--8--8--8--8--8--8--8------------|
--5-5-5-5-5-5-5-5---------5-5-5-5-|--------------------------------------|
----------------------------------|--------------------------------------|


   S  S  S  S S S S S S S S S S S  S  S
----------------------------------------|
----------------------------------------|
----------------------------------------|
--10-10-10-10---------------------------|
--------------8-8-8-8-8-8-8-8-8-8-10-10-|
----------------------------------------|


   S  S  S S S S  S  S  S  S  S  S  S  S  S  S
-----------------------------------------------|
-----------------------------------------------|
-----------------------------------------------|
-----------8-8-8-10-10-------------------------|
--11-11-11-------------11-11-11-11-10-10-10-10-|
-----------------------------------------------|


   S  S  S  S  S  S  S  S  S  S  S  S  S  S  S  S
--------------------------------------------------|
--------------------------------------------------|
--------------------------------------10-10-10-10-|
--------------------------------------------------|
--11-11-11-11-11-11-11-11-11-11-11-11-------------|
--------------------------------------------------|


  S S S S S S S S S S S S  S  S  S  S     S  S  S  S S S S S S S S S S S  S  S
--------------------------------------|----------------------------------------|
--------------------------------------|----------------------------------------|
--8-8-8-8-----------------------------|----------------------------------------|
----------8-8-8-8-8-8-8-8-11-11-11-11-|--10-10-10-10---------------------------|
--------------------------------------|--------------8-8-8-8-8-8-8-8-8-8-10-10-|
--------------------------------------|----------------------------------------|


   S  S  S S S S  S  S  S  S  S  S  S  S  S  S
-----------------------------------------------|
-----------------------------------------------|
-----------------------------------------------|
-----------8-8-8-10-10-------------------------|
--11-11-11-------------11-11-11-11-10-10-10-10-|
-----------------------------------------------|


  S S S S S S S S S S S S  S  S  S  S    S S S S S S S S S S S S  S  S  S  S
--------------------------------------|--------------------------------------|
--------------------------------------|--------------------------------------|
--------------------------10-10-10-10-|--8-8-8-8-----------------------------|
--------------------------------------|----------8-8-8-8-8-8-8-8-11-11-11-11-|
--8-8-8-8-8-8-8-8-8-8-8-8-------------|--------------------------------------|
--------------------------------------|--------------------------------------|


   S  S  S  S S S S S S S S S S S  S  S
----------------------------------------|
----------------------------------------|
----------------------------------------|
--10-10-10-10---------------------------|
--------------8-8-8-8-8-8-8-8-8-8-10-10-|
----------------------------------------|


   S  S  S S S S  S  S  S  S  S  S  S  S  S  S
-----------------------------------------------|
-----------------------------------------------|
-----------------------------------------------|
-----------8-8-8-10-10-------------------------|
--11-11-11-------------11-11-11-11-10-10-10-10-|
-----------------------------------------------|


   S  S  S  S  S  S  S  S  S  S  S  S  S  S  S  S
--------------------------------------------------|
--------------------------------------------------|
--------------------------------------10-10-10-10-|
--------------------------------------------------|
--11-11-11-11-11-11-11-11-11-11-11-11-------------|
--------------------------------------------------|


  S S S S S S S S S S S S  S  S  S  S     S  S  S  S S S S S S S S S S S  S  S
--------------------------------------|----------------------------------------|
--------------------------------------|----------------------------------------|
--8-8-8-8-----------------------------|----------------------------------------|
----------8-8-8-8-8-8-8-8-11-11-11-11-|--10-10-10-10---------------------------|
--------------------------------------|--------------8-8-8-8-8-8-8-8-8-8-10-10-|
--------------------------------------|----------------------------------------|


   S  S  S S S S  S  S  S  S  S  S  S  S  S  S
-----------------------------------------------|
-----------------------------------------------|
-----------------------------------------------|
-----------8-8-8-10-10-------------------------|
--11-11-11-------------11-11-11-11-10-10-10-10-|
-----------------------------------------------|


  S S S S S S E   S S S S S S E      H        H
----------------------------------|--------------------||
----------------------------------|--------------------||
----------------------------------|--------------------||
----------------------------------|--0-----------------||
----------------------------------|--0-----------------||
--0-3-3-0-3-5-7~--0-3-3-0-3-5-7~--|--0-----------------||


Duration Legend
---------------
W - whole
H - half
Q - quarter
E - 8th
S - 16th
T - 32nd
X - 64th
. - note dotted
|-n-|  - n-tuplets


Tablature Legend
----------------
L - tied note
x - dead note
g - grace note
(n) - ghost note
> - accentuded note
NH - natural harmonic
AH - artificial harmonic
TH - tapped harmonic
SH - semi harmonic
PH - pitch harmonic
h - hammer on
p - pull off
b - bend
br - bendRelease
pb - preBend
pbr - preBendRelease
brb - bendReleaseBend
\n/ - tremolo bar dip
\n - tremolo bar dive
-/n - tremolo bar Release up
/n\ - tremolo bar inverted dip
/n - tremolo bar return
-\n - tremolo bar Release down
S - shift slide
s - legato slide
/ -  slide into from below or out of upwards
\ -  slide into from above or out of downwards
~ - vibrato
W - wide vibrato
tr - trill
TP - tremolo picking
T - tapping
S - slap
P - pop
< - fade in
^ - brush up
v - brush down

*****Note****

This is not my work.I just exported it because it was requested.I have no clue who has 
the original gp tab.
comments
We did not receive enough feedback on this tab! Please rate:
print report bad tab
1 2 3 4 5
I want to post or [tab]
guest
You may want to rate the tab now too:
select rating
Please do not post tabs as comments. Select "correction" instead!