Oops, an error
Loading. Please wait.

Take This Life Tab

5,168 views 1 this week
13 commentsread comments
1 2 3 4 5
not so good
x 4
Autoscroll
+/-
esc
set tempo
stop
Contributor
Hey! There's an official Ultimate Guitar app which is ideal
for learning songs when you're away from computer. Get the app
WARNING: You are trying to view
                                    content from Ultimate-Guitar.com
                                    in an unauthorized application,
                                    which is prohibited.

                                    Please use an official Ultimate
                                    Guitar Tabs application for iPhone,
                                    iPad or Android to access legitimate
                                    chords, guitar, bass, and drum tabs
                                    from Ultimate-Guitar.com database.

                                    Type "ultimate guitar tabs" in Apple
                                    App Store's or Android Market's
                                    search to find the application.
This tab sucks. Disregard it.

Tuning, Drop D - D A D G B E

Legend
h - hammer-on
p - pull off
777666555 - play without stopping, not hitting fret 777666555
. - palm mute
x - mute
b - bend
r - return
v - vibrato

Intro

E|--------|--------------------|---------------|
B|--------|--------------------|---------------|
G|--------|--------------------|---------------|
D|0-0-0-0-|0-6-6-6-6-6-6-6h7p6-|7-7-7-7-7-5-5-5|
A|0-4-4-4-|0-7-7-7-7-7-7-------|5-5-5-5-5-3-3-3|
D|--------|--------------------|---------------|

E|-----------------------|----------------------------|
B|-----------------------|----------------------------|
G|-----------------------|----------------------------|
D|0-6-6-6-6-6-6-6-6-6h7p6|----------------------------|
A|0-7-7-7-7-7-7-7-7------|-------------------------2-2|
D|-----------------------|777777775555555533333333-2-2|
                                                   . .

E|--------------------|---------------|
B|--------------------|---------------|
G|--------------------|---------------|
D|0-6-6-6-6-6-6-6h7p6-|7-7-7-7-7-5-5-5|
A|0-7-7-7-7-7-7-------|5-5-5-5-5-3-3-3|
D|--------------------|---------------|

E|-----------------------|--------------------------------|
B|-----------------------|--------------------------------|
G|-----------------------|--------------------------------|
D|0-6-6-6-6-6-6-6-6-6h7p6|--------------------------------|
A|0-7-7-7-7-7-7-7-7------|--------------------------------|
D|-----------------------|77777777555555553333333322222222|

E|--------------------|--------------------|
B|--------------------|--------------------|
G|--------------------|8-8--8-8---6--6-6---|
D|2-2--2-2---2--2-2---|x-x--x-x---x--x-x---|
A|2-2--2-2---2--2-2---|6-6--6-6---4--4-4---|
D|2-2--2-2---2--2-2---|--------------------|

E|--------------------|--------------------------|
B|--------------------|--------------------------|
G|--------------------|10-10--10-10---8-8-8-8-8-8|
D|2-2--2-2---2--2-2---|x--x---x--x----x-x-x-x-x-x|
A|2-2--2-2---2--2-2---|8--8---8--8----6-6-6-6-6-6|
D|2-2--2-2---2--2-2---|--------------------------| repeat twice.

E|---------------|
B|---------------|
G|--------8h9p8p7|
D|8h9p8p7--------|
A|---------------|
D|---------------|

Verse 1

E|--------------------|---------------|
B|--------------------|---------------|
G|--------------------|---------------|
D|0-6-6-6-6-6-6-6h7p6-|7-7-7-7-7-5-5-5|
A|0-7-7-7-7-7-7-------|5-5-5-5-5-3-3-3|
D|--------------------|---------------|

E|-----------------------|----------------------------|
B|-----------------------|----------------------------|
G|-----------------------|----------------------------|
D|0-6-6-6-6-6-6-6-6-6h7p6|----------------------------|
A|0-7-7-7-7-7-7-7-7------|-------------------------2-2|
D|-----------------------|777777775555555533333333-2-2|
                                                   . .

E|--------------------|---------------|
B|--------------------|---------------|
G|--------------------|---------------|
D|0-6-6-6-6-6-6-6h7p6-|7-7-7-7-7-5-5-5|
A|0-7-7-7-7-7-7-------|5-5-5-5-5-3-3-3|
D|--------------------|---------------|

E|-----------------------|--------------------------------|
B|-----------------------|--------------------------------|
G|-----------------------|--------------------------------|
D|0-6-6-6-6-6-6-6-6-6h7p6|--------------------------------|
A|0-7-7-7-7-7-7-7-7------|--------------------------------|
D|-----------------------|77777777555555553333333322222222|

Guitar 1

E|------------------------------------------------------------|
B|------------------------------------------------------------|
G|------------------------------------------------------------|
D|2--2-2-2-2-2-2-4--4-4-4-4-4-4-6--6-6-6-6-6-6-4-4-4-4-4-4-4--|
A|2--2-2-2-2-2-2-4--4-4-4-4-4-4-6--6-6-6-6-6-6-4-4-4-4-4-4-4--|
D|2--2-2-2-2-2-2-4--4-4-4-4-4-4-6--6-6-6-6-6-6-4-4-4-4-4-4-4--|

Guitar 2
Played with a bit of reverb

E|---------13-15-|---------13-15-|---------13-17-19-|---------13-15-13---|
B|15p13-15-------|15p13-15-------|15p13-15----------|15p13-15----------15|
G|---------------|---------------|------------------|--------------------|
D|---------------|---------------|------------------|--------------------|
A|---------------|---------------|------------------|--------------------|
D|---------------|---------------|------------------|--------------------|

Guitar 1

E|-------------------------------------------------|
B|-------------------------------------------------|
G|-------------------------------------------------|
D|2--2-2-2-2-2-2-4--4-4-4-4-4-4-6--44444-4444332200|
A|2--2-2-2-2-2-2-4--4-4-4-4-4-4-6--44444-4444332200|
D|2--2-2-2-2-2-2-4--4-4-4-4-4-4-6--44444-4444332200|
                                   ..... ..........

Guitar 2

E|---------13-15-|---------13-15-|---------13-17-19-|
B|15p13-15-------|15p13-15-------|15p13-15----------|
G|---------------|---------------|------------------|
D|---------------|---------------|------------------|
A|---------------|---------------|------------------|
D|---------------|---------------|------------------|

Chorus
You can play either part posted here.

Part 1

E|--------------------------|---------------------|
B|--------------------------|---------------------|
G|4--6--8--12--10--8--6--8--|4--6--8--10--10/12\10|
D|x--x--x--x---x---x--x--x--|x--x--x--x---x-/x-\x-|
A|2--4--6--10--8---6--4--6--|2--4--6--8---8-/10\8-|
D|--------------------------|---------------------|

Part 2

E|--------------------------|---------------------|
B|----------7---------------|---------------------|
G|---6--8------10--8--6--8--|---6--8--10--10b12r10|
D|9-------------------------|9--------------------|
A|--------------------------|---------------------|
D|--------------------------|---------------------|

Part 1

E|--------------------------|----------------|
B|--------------------------|----------------|
G|4--6--8--12--10--8--6--8--|----------------|
D|x--x--x--x---x---x--x--x--|2222222244444444|
A|2--4--6--10--8---6--4--6--|2222222244444444|
D|--------------------------|2222222244444444|

Part 2

E|-------------------------|----------------|
B|---------7---------------|----------------|
G|---6--8-----10--8--6--8--|----------------|
D|9------------------------|2222222244444444|
A|-------------------------|2222222244444444|
D|-------------------------|2222222244444444|

Repeat whole thing twice.

Verse 2

E|--------------------|---------------|
B|--------------------|---------------|
G|--------------------|---------------|
D|0-6-6-6-6-6-6-6h7p6-|7-7-7-7-7-5-5-5|
A|0-7-7-7-7-7-7-------|5-5-5-5-5-3-3-3|
D|--------------------|---------------|

E|-----------------------|----------------------------|
B|-----------------------|----------------------------|
G|-----------------------|----------------------------|
D|0-6-6-6-6-6-6-6-6-6h7p6|----------------------------|
A|0-7-7-7-7-7-7-7-7------|-------------------------2-2|
D|-----------------------|777777775555555533333333-2-2|
                                                   . .

E|--------------------|---------------|
B|--------------------|---------------|
G|--------------------|---------------|
D|0-6-6-6-6-6-6-6h7p6-|7-7-7-7-7-5-5-5|
A|0-7-7-7-7-7-7-------|5-5-5-5-5-3-3-3|
D|--------------------|---------------|

E|-----------------------|--------------------------------|
B|-----------------------|--------------------------------|
G|-----------------------|--------------------------------|
D|0-6-6-6-6-6-6-6-6-6h7p6|--------------------------------|
A|0-7-7-7-7-7-7-7-7------|--------------------------------|
D|-----------------------|77777777555555553333333322222222|

Guitar 1

E|------------------------------------------------------------|
B|------------------------------------------------------------|
G|------------------------------------------------------------|
D|2--2-2-2-2-2-2-4--4-4-4-4-4-4-6--6-6-6-6-6-6-4-4-4-4-4-4-4--|
A|2--2-2-2-2-2-2-4--4-4-4-4-4-4-6--6-6-6-6-6-6-4-4-4-4-4-4-4--|
D|2--2-2-2-2-2-2-4--4-4-4-4-4-4-6--6-6-6-6-6-6-4-4-4-4-4-4-4--|

Guitar 2
Played with a bit of reverb

E|---------13-15-|---------13-15-|---------13-17-19-|---------19-17-15-|
B|15p13-15-------|15p13-15-------|15p13-15----------|15-17-15----------|
G|---------------|---------------|------------------|------------------|
D|---------------|---------------|------------------|------------------|
A|---------------|---------------|------------------|------------------|
D|---------------|---------------|------------------|------------------|

Guitar 1

E|-------------------------------------------------|
B|-------------------------------------------------|
G|-------------------------------------------------|
D|2--2-2-2-2-2-2-4--4-4-4-4-4-4-6--44444-4444332200|
A|2--2-2-2-2-2-2-4--4-4-4-4-4-4-6--44444-4444332200|
D|2--2-2-2-2-2-2-4--4-4-4-4-4-4-6--44444-4444332200|
                                   ..... ..........

Guitar 2

E|---------13-15-|---------13-15-|---------13-17-19-|
B|15p13-15-------|15p13-15-------|15p13-15----------|
G|---------------|---------------|------------------|
D|---------------|---------------|------------------|
A|---------------|---------------|------------------|
D|---------------|---------------|------------------|

Chorus

Part 1

E|--------------------------|---------------------|
B|--------------------------|---------------------|
G|4--6--8--12--10--8--6--8--|4--6--8--10--10/12\10|
D|x--x--x--x---x---x--x--x--|x--x--x--x---x-/x-\x-|
A|2--4--6--10--8---6--4--6--|2--4--6--8---8-/10\8-|
D|--------------------------|---------------------|

Part 2

E|--------------------------|---------------------|
B|----------7---------------|---------------------|
G|---6--8------10--8--6--8--|---6--8--10--10b12r10|
D|9-------------------------|9--------------------|
A|--------------------------|---------------------|
D|--------------------------|---------------------|

Part 1

E|--------------------------|----------------|
B|--------------------------|----------------|
G|4--6--8--12--10--8--6--8--|----------------|
D|x--x--x--x---x---x--x--x--|2222222244444444|
A|2--4--6--10--8---6--4--6--|2222222244444444|
D|--------------------------|2222222244444444|

Part 2

E|-------------------------|----------------|
B|---------7---------------|----------------|
G|---6--8-----10--8--6--8--|----------------|
D|9------------------------|2222222244444444|
A|-------------------------|2222222244444444|
D|-------------------------|2222222244444444|

Repeat whole thing twice.

Bridge/Solo

E|------------------------------------------------|
B|-------------------------------------10h12p10---|
G|-------------------------10h12p10-------------12|
D|----------------------------------13------------|
A|442244224422442244224422------------------------|
D|442244224422442244224422------------------------|
  ........................

E|-------------------------------------------------|
B|-------------------------------------------------|
G|-------------------------------------------------|
D|---------------------------10p8------------------|
A|12-10h12-10h12-10h12-10h12------10h12-10h12-10h12|
D|-------------------------------------------------|

E|----------------------|
B|----------------------|
G|----------------------|
D|12p10-----------------|
A|------12p10-8h10-10h12|
D|----------------------| repeat twice.

E|-------------------------------------------------|
B|-------------------------------------------------|
G|-------------------------------------------------|
D|---------------------------10p8------------------|
A|12-10h12-10h12-10h12-10h12------10h12-10h12-10h12|
D|-------------------------------------------------|

E|--------------------8v|
B|----------------------|
G|----------------------|
D|12p10-----------------|
A|------12p10-8h10-8----|
D|----------------------|

Use a bit of effect on the last note (the 8v).

Verse 3

E|-----------------------------------|
B|-----------------------------------|
G|-----------------------------------|
D|2-2--2-2---2--2-2---2--2-2---4--4--|
A|2-2--2-2---2--2-2---2--2-2---4--4--|
D|2-2--2-2---2--2-2---2--2-2---4--4--|

E|---------------------------------------------------|
B|---------------------------------------------------|
G|---------------------------------------------------|
D|2-2--2-2---2--2-2---4-4-4-4-4-4-4-4-6-6-6-6-6-6-6-6|
A|2-2--2-2---2--2-2---4-4-4-4-4-4-4-4-6-6-6-6-6-6-6-6|
D|2-2--2-2---2--2-2---4-4-4-4-4-4-4-4-6-6-6-6-6-6-6-6|

Repeat whole thing twice

E|----------------|
B|-------------5--|
G|---------5-7---7|
D|5-7-8-7---------|
A|----------------|
D|----------------|

E|--------------------|---------------|
B|--------------------|---------------|
G|--------------------|---------------|
D|0-6-6-6-6-6-6-6h7p6-|7-7-7-7-7-5-5-5|
A|0-7-7-7-7-7-7-------|5-5-5-5-5-3-3-3|
D|--------------------|---------------|

E|-----------------------|--------------------------------|
B|-----------------------|--------------------------------|
G|-----------------------|--------------------------------|
D|0-6-6-6-6-6-6-6-6-6h7p6|--------------------------------|
A|0-7-7-7-7-7-7-7-7------|--------------------------------|
D|-----------------------|77777777555555553333333322222222|

Guitar 1

E|------------------------------------------------------------|
B|------------------------------------------------------------|
G|------------------------------------------------------------|
D|2--2-2-2-2-2-2-4--4-4-4-4-4-4-6--6-6-6-6-6-6-4-4-4-4-4-4-4--|
A|2--2-2-2-2-2-2-4--4-4-4-4-4-4-6--6-6-6-6-6-6-4-4-4-4-4-4-4--|
D|2--2-2-2-2-2-2-4--4-4-4-4-4-4-6--6-6-6-6-6-6-4-4-4-4-4-4-4--|

Guitar 2
Played with a bit of reverb

E|---------13-15-|---------13-15-|---------13-17-19-|---------13-15-13---|
B|15p13-15-------|15p13-15-------|15p13-15----------|15p13-15----------15|
G|---------------|---------------|------------------|--------------------|
D|---------------|---------------|------------------|--------------------|
A|---------------|---------------|------------------|--------------------|
D|---------------|---------------|------------------|--------------------|

Guitar 1

E|-------------------------------------------------|
B|-------------------------------------------------|
G|-------------------------------------------------|
D|2--2-2-2-2-2-2-4--4-4-4-4-4-4-6--44444-4444332200|
A|2--2-2-2-2-2-2-4--4-4-4-4-4-4-6--44444-4444332200|
D|2--2-2-2-2-2-2-4--4-4-4-4-4-4-6--44444-4444332200|
                                   ..... ..........
Guitar 2

E|---------13-15-|---------13-15-|---------13-17-19-|
B|15p13-15-------|15p13-15-------|15p13-15----------|
G|---------------|---------------|------------------|
D|---------------|---------------|------------------|
A|---------------|---------------|------------------|
D|---------------|---------------|------------------|

Chorus
You can play either part posted here.

Part 1

E|--------------------------|---------------------|
B|--------------------------|---------------------|
G|4--6--8--12--10--8--6--8--|4--6--8--10--10/12\10|
D|x--x--x--x---x---x--x--x--|x--x--x--x---x-/x-\x-|
A|2--4--6--10--8---6--4--6--|2--4--6--8---8-/10\8-|
D|--------------------------|---------------------|

Part 2

E|--------------------------|---------------------|
B|----------7---------------|---------------------|
G|---6--8------10--8--6--8--|---6--8--10--10b12r10|
D|9-------------------------|9--------------------|
A|--------------------------|---------------------|
D|--------------------------|---------------------|

Part 1

E|--------------------------|----------------|
B|--------------------------|----------------|
G|4--6--8--12--10--8--6--8--|----------------|
D|x--x--x--x---x---x--x--x--|2222222244444444|
A|2--4--6--10--8---6--4--6--|2222222244444444|
D|--------------------------|2222222244444444|

Part 2

E|-------------------------|----------------|
B|---------7---------------|----------------|
G|---6--8-----10--8--6--8--|----------------|
D|9------------------------|2222222244444444|
A|-------------------------|2222222244444444|
D|-------------------------|2222222244444444|

Outro/Coda

E|--------|--------------------|---------------|
B|--------|--------------------|---------------|
G|--------|--------------------|---------------|
D|0-0-0-0-|0-6-6-6-6-6-6-6h7p6-|7-7-7-7-7-5-5-5|
A|0-4-4-4-|0-7-7-7-7-7-7-------|5-5-5-5-5-3-3-3|
D|--------|--------------------|---------------|

E|-----------------------|----------------------------|
B|-----------------------|----------------------------|
G|-----------------------|----------------------------|
D|0-6-6-6-6-6-6-6-6-6h7p6|----------------------------|
A|0-7-7-7-7-7-7-7-7------|-------------------------2-2|
D|-----------------------|777777775555555533333333-2-2|
                                                   . .

Hope I got this accurate enough.
comments
print report bad tab
13 comments total. Showing first comments.
0 reply
dann_blood wrote on October 6 2006, 03:45 am

E |---------------|
B |---------------|
G |--------8h9p8p7|
D |8h9p8p6--------|
A |---------------|
A#|---------------|
that part is meant to be
E |---------------|
B |---------------|
G |--------8h9p8p7|
D |8h9p8p7--------|
A |---------------|
A#|---------------|

0 reply
dann_blood wrote on October 6 2006, 03:48 am

And i accidentally messed up the tuning, its really this.
Tuning, Drop A# - A# A D G B E

0 reply
deathinfire2112 wrote on October 6 2006, 06:00 pm

wrong tuning. its drop A# in C... IN FLAMES HAS NOT AND DOES NOT TUNE TO E.

I want to post or [tab]
guest
You may want to rate the tab now too:
select rating
Please do not post tabs as comments. Select "correction" instead!