Oops, an error
Loading. Please wait.

The Mirrors Truth Bass Tab

ver1
ver1

Whole song

More versions @911Tabs.com
3,198 views 1 this week
1 commentread comment
1 2 3 4 5
worth learning
x 1
add to favorites launch autoscroll
font size
0
reset
Autoscroll
+/-
esc
set tempo
stop
WARNING: You are trying to view
                                    content from Ultimate-Guitar.com
                                    in an unauthorized application,
                                    which is prohibited.

                                    Please use an official Ultimate
                                    Guitar Tabs application for iPhone,
                                    iPad or Android to access legitimate
                                    chords, guitar, bass, and drum tabs
                                    from Ultimate-Guitar.com database.

                                    Type "ultimate guitar tabs" in Apple
                                    App Store's or Android Market's
                                    search to find the application.
                              Q    Q    E  E  E  E                           
G#||-------|-------|-------|------------------------|-------|-------|-------|
D#||-------|-------|-------|------------------------|-------|-------|-------|
A#||-------|-------|-------|------------------------|-------|-------|-------|
F ||-------|-------|-------|---------------------3--|-------|-------|-------|
A#||-------|-------|-------|---------------3--5-----|-------|-------|-------|


          Q    Q    E  E  E  E             E  E  E  E  E  E  E  E   
-------|------------------------|-------|--------------------------|
-------|------------------------|-------|--------------------------|
-------|------------------------|-------|--------------------------|
-------|---------------------3--|-------|--5--------1-----------3--|
-------|---------------3--5-----|-------|-----0--3-----0--3--5-----|


  E  E  E  E  E  E  E  E     E  E  E  E  E  E  E  E   
--------------------------|--------------------------|
--------------------------|--------------------------|
--------------------------|--------------------------|
--5--------1-----------3--|--5--------1-----------3--|
-----0--3-----0--3--5-----|-----0--3-----0--3--5-----|


  E  E  E  E  E  E  E  E     E  E  E  E  E  E  E  E   
--------------------------|--------------------------|
--------------------------|--------------------------|
--------------------------|--------------------------|
--5--------1-----------3--|--5--------1-----------3--|
-----0--3-----0--3--5-----|-----0--3-----0--3--5-----|


  E  E  E  E  E  E  E  E     E  E  E  E  E  E  E  E   
--------------------------|--------------------------|
--------------------------|--------------------------|
--------------------------|--------------------------|
--5--------1-----------3--|--5--------1-----------3--|
-----0--3-----0--3--5-----|-----0--3-----0--3--5-----|


  E  E  E  E  E  E  E  E     E  E  Q    E  E   Q       E  E  E  E  E  E  E  E   
--------------------------|-------------------------|--------------------------|
--------------------------|-------------------------|--------------------------|
--------------------------|-------------------------|--------------------------|
--5--------1-----------3--|--------5----L--L\-------|--1--1--1--3--3--3--3--3--|
-----0--3-----0--3--5-----|--0--0-------------------|--------------------------|


  E  E  Q    E  E   Q       E  E  E  E  E  E  E  E     E  E  Q    E  E   Q     
-------------------------|--------------------------|-------------------------|
-------------------------|--------------------------|-------------------------|
-------------------------|--------------------------|-------------------------|
--------5----L--L\-------|--------------------------|--------5----L--L\-------|
--0--0-------------------|--8--8--8--5--5--5--5--5--|--0--0-------------------|


  E  E  E  E  E  E  E  E     E  E  Q    E  E   Q       E  E  E  E  E  E  E  E   
--------------------------|-------------------------|--------------------------|
--------------------------|-------------------------|--------------------------|
--------------------------|-------------------------|--------------------------|
--1--1--1--3--3--3--3--3--|--------5----L--L\-------|--------------------------|
--------------------------|--0--0-------------------|--8--8--8--3--3--3--3--3--|


  E  E  E  E  E  E  E  E     E  E  E  E  E  E  E  E   
--------------------------|--------------------------|
--------------------------|--------------------------|
--------------------------|--------------------------|
--5--------1-----------3--|--5--------1-----------3--|
-----0--3-----0--3--5-----|-----0--3-----0--3--5-----|


  E  E  E  E  E  E  E  E     E  E  E  E  E  E  E  E     E  E  Q    E  E   Q     
--------------------------|--------------------------|-------------------------|
--------------------------|--------------------------|-------------------------|
--------------------------|--------------------------|-------------------------|
--5--------1-----------3--|--5--------1-----------3--|--------5----L--L\-------|
-----0--3-----0--3--5-----|-----0--3-----0--3--5-----|--0--0-------------------|


  E  E  E  E  E  E  E  E     E  E  Q    E  E   Q       E  E  E  E  E  E  E  E   
--------------------------|-------------------------|--------------------------|
--------------------------|-------------------------|--------------------------|
--------------------------|-------------------------|--------------------------|
--1--1--1--3--3--3--3--3--|--------5----L--L\-------|--------------------------|
--------------------------|--0--0-------------------|--8--8--8--5--5--5--5--5--|


  E  E  Q    E  E   Q       E  E  E  E  E  E  E  E     E  E  Q    E  E   Q     
-------------------------|--------------------------|-------------------------|
-------------------------|--------------------------|-------------------------|
-------------------------|--------------------------|-------------------------|
--------5----L--L\-------|--1--1--1--3--3--3--3--3--|--------5----L--L\-------|
--0--0-------------------|--------------------------|--0--0-------------------|


  E  E  E  E  E  E  E  E     E  E  E  E  E  E  E  E   
--------------------------|--------------------------|
--------------------------|--------------------------|
--------------------------|--------------------------|
--------------------------|--------------------------|
--8--8--8--3--3--3--3--3--|--5--5--5--5--5--5--5--5--|


  E  E  E  E   E   E   E   E     E  E  E  E  E  E  E  E   
------------------------------|--------------------------|
------------------------------|--------------------------|
------------------------------|--------------------------|
------------------------------|--------------------------|
--8--8--8--8--10--10--10--10--|--0--0-----0--0--0--0--0--|


  E  E  E  E  E  E  E  E     E  E  E  E  E  E  E  E   
--------------------------|--------------------------|
--------------------------|--------------------------|
--------------------------|-----------------5--7--5--|
--1--1-----1--1--1--1--1--|--3--3-----3--3-----------|
--------------------------|--------------------------|


  E  E  E  E  E  E  E  E     E  E  E  E  E  E  E  E   
--------------------------|--------------------------|
--------------------------|--------------------------|
--------------------------|--------------------------|
--------------------------|--------------------------|
--5--5--5--5--5--5--5--5--|--0--0-----0--0--0--0--0--|


  E  E  E  E  E  E  E  E     E  E  E  E  E  E  E  E   
--------------------------|--------------------------|
--------------------------|--------------------------|
--------------------------|-----------------5--7--5--|
--1--1-----1--1--1--1--1--|--3--3-----3--3-----------|
--------------------------|--------------------------|


  E  E  E  E  E  E  E   E     E  E  Q.     E  E  E     E  E  Q    E  E  E  E   
---------------------------|------------------------|-------------------------|
---------------------------|------------------------|-------------------------|
---------------------------|------------------------|-------------------------|
--5--5--5--7--7--8--8--10--|------------------------|--------5----------------|
---------------------------|--0--0---------3--5--3--|--0--0-------7--5--7--5--|


  E  E  Q.     E  E  E     E  E  Q    E.  E.  E     E  E  Q.     E  E  E   
------------------------|------------------------|------------------------|
------------------------|------------------------|------------------------|
------------------------|--------3---------------|------------------------|
------------------------|------------------------|------------------------|
--0--0---------3--5--3--|--0--0-------5---7---8--|--0--0---------3--5--3--|


  E  E  Q    E  E  E  E     E  E  E  E  E  E  E  E     E  E  E  E  E  E  E  E   
-------------------------|--------------------------|--------------------------|
-------------------------|--------------------------|--------------------------|
-------------------------|--------------------------|--------------------------|
--------5----------------|--------------------------|-----------------------0--|
--0--0-------7--5--7--5--|--0--0--0--0--2--0--0--0--|--0--0--0--0--0--0--2-----|


  E  E  E  E  E  E  E  E     E  E  E  E  E  E  E  E   
--------------------------|--------------------------|
--------------------------|--------------------------|
--------------------------|--------------------------|
--5--------1-----------3--|--5--------1-----------3--|
-----0--3-----0--3--5-----|-----0--3-----0--3--5-----|


  E  E  E  E  E  E  E  E     E  E  E  E  E  E  E  E     E  E  Q    E  E   Q     
--------------------------|--------------------------|-------------------------|
--------------------------|--------------------------|-------------------------|
--------------------------|--------------------------|-------------------------|
--5--------1-----------3--|--5--------1-----------3--|--------5----L--L\-------|
-----0--3-----0--3--5-----|-----0--3-----0--3--5-----|--0--0-------------------|


  E  E  E  E  E  E  E  E     E  E  Q    E  E   Q       E  E  E  E  E  E  E  E   
--------------------------|-------------------------|--------------------------|
--------------------------|-------------------------|--------------------------|
--------------------------|-------------------------|--------------------------|
--1--1--1--3--3--3--3--3--|--------5----L--L\-------|--------------------------|
--------------------------|--0--0-------------------|--8--8--8--5--5--5--5--5--|


  E  E  Q    E  E   Q       E  E  E  E  E  E  E  E     E  E  Q    E  E   Q     
-------------------------|--------------------------|-------------------------|
-------------------------|--------------------------|-------------------------|
-------------------------|--------------------------|-------------------------|
--------5----L--L\-------|--1--1--1--3--3--3--3--3--|--------5----L--L\-------|
--0--0-------------------|--------------------------|--0--0-------------------|


  E  E  E  E  E  E  E  E     E  E  E  E  E  E  E  E   
--------------------------|--------------------------|
--------------------------|--------------------------|
--------------------------|--------------------------|
--------------------------|--------------------------|
--8--8--8--3--3--3--3--3--|--5--5--5--5--5--5--5--5--|


  E  E  E  E   E   E   E   E     E  E  E  E  E  E  E  E   
------------------------------|--------------------------|
------------------------------|--------------------------|
------------------------------|--------------------------|
------------------------------|--------------------------|
--8--8--8--8--10--10--10--10--|--0--0-----0--0--0--0--0--|


  E  E  E  E  E  E  E  E     E  E  E  E  E  E  E  E   
--------------------------|--------------------------|
--------------------------|--------------------------|
--------------------------|-----------------5--7--5--|
--1--1-----1--1--1--1--1--|--3--3-----3--3-----------|
--------------------------|--------------------------|


  E  E  E  E  E  E  E  E     E  E  E  E  E  E  E  E   
--------------------------|--------------------------|
--------------------------|--------------------------|
--------------------------|--------------------------|
--------------------------|--------------------------|
--5--5--5--5--5--5--5--5--|--0--0-----0--0--0--0--0--|


  E  E  E  E  E  E  E  E     E  E  E  E  E  E  E  E   
--------------------------|--------------------------|
--------------------------|--------------------------|
--------------------------|-----------------5--7--5--|
--1--1-----1--1--1--1--1--|--3--3-----3--3-----------|
--------------------------|--------------------------|


  E  E  E  E  E  E  E   E     E  E  E  E  E  E  E  E   
---------------------------|--------------------------|
---------------------------|--------------------------|
---------------------------|--------------------------|
--5--5--5--7--7--8--8--10--|--------------------------|
---------------------------|--0--0-----0--0--0--0--0--|


  E  E  E  E  E  E  E  E     E  E  E  E  E  E  E  E   
--------------------------|--------------------------|
--------------------------|--------------------------|
--------------------------|-----------------5--7--5--|
--1--1-----1--1--1--1--1--|--3--3-----3--3-----------|
--------------------------|--------------------------|


  E  E  E  E  E  E  E  E     E  E  E  E  E  E  E  E   
--------------------------|--------------------------|
--------------------------|--------------------------|
--------------------------|--------------------------|
--------------------------|--------------------------|
--5--5--5--5--5--5--5--5--|--0--0-----0--0--0--0--0--|


  E  E  E  E  E  E  E  E     E  E  E  E  E  E  E  E   
--------------------------|--------------------------|
--------------------------|--------------------------|
--------------------------|-----------------5--7--5--|
--1--1-----1--1--1--1--1--|--3--3-----3--3-----------|
--------------------------|--------------------------|


  E  E  E  E  E  E  E   E     E  E  Q.     E  E  E     E  E  Q    E  E  E  E   
---------------------------|------------------------|-------------------------|
---------------------------|------------------------|-------------------------|
---------------------------|------------------------|-------------------------|
--5--5--5--7--7--8--8--10--|------------------------|--------5----------------|
---------------------------|--0--0---------3--5--3--|--0--0-------7--5--7--5--|


  E  E  Q.     E  E  E     E  E  Q    E  E  E  E     E  E  Q.     E  E  E   
------------------------|-------------------------|------------------------|
------------------------|-------------------------|------------------------|
------------------------|--------3----------------|------------------------|
------------------------|-------------------------|------------------------|
--0--0---------3--5--3--|--0--0-------5--7--7--8--|--0--0---------3--5--3--|


  E  E  Q    E  E  E  E     E  E  E  E  E  E  E  E     E  E  E  E  E  E  E  E   
-------------------------|--------------------------|--------------------------|
-------------------------|--------------------------|--------------------------|
-------------------------|--------------------------|--------------------------|
--------5----------------|--------------------------|-----------------------0--|
--0--0-------7--5--7--5--|--0--0--0--0--2--0--0--0--|--0--0--0--0--0--0--2-----|


  E  E  E  E  E  E  E  E     E  E  E  E  E  E  E  E   
--------------------------|--------------------------|
--------------------------|--------------------------|
--------------------------|--------------------------|
--------------------------|--1--1-----1--1--1--1--1--|
--0--0-----0--0--0--0--0--|--------------------------|


  E  E  E  E  E  E  E  E     E  E  E  E  E  E  E  E   
--------------------------|--------------------------|
--------------------------|--------------------------|
-----------------5--7--5--|--------------------------|
--3--3-----3--3-----------|--------------------------|
--------------------------|--5--5--5--5--5--5--5--5--|


  E  E  E  E  E  E  E  E     E  E  E  E  E  E  E  E   
--------------------------|--------------------------|
--------------------------|--------------------------|
--------------------------|--------------------------|
--------------------------|--1--1-----1--1--1--1--1--|
--0--0-----0--0--0--0--0--|--------------------------|


  E  E  E  E  E  E  E  E     E  E  E  E  E  E  E   E               
--------------------------|---------------------------|-----|-----|
--------------------------|---------------------------|-----|-----|
-----------------5--7--5--|---------------------------|-----|-----|
--3--3-----3--3-----------|--5--5--5--7--7--8--8--10--|-----|-----|
--------------------------|---------------------------|-----|-----|


  W                   W                   E  E  E  E  E  E  E  E   
-------------------|-------------------|--------------------------|
-------------------|-------------------|--------------------------|
-------------------|-------------------|--------------------------|
-------------------|-------------------|--------------------------|
--0----------------|--L----------------|--0--0-----0--0--0--0--0--|


  E  E  E  E  E  E  E  E     E  E  E  E  E  E  E  E   
--------------------------|--------------------------|
--------------------------|--------------------------|
--------------------------|-----------------5--7--5--|
--1--1-----1--1--1--1--1--|--3--3-----3--3-----------|
--------------------------|--------------------------|


  E  E  E  E  E  E  E  E     E  E  E  E  E  E  E  E   
--------------------------|--------------------------|
--------------------------|--------------------------|
--------------------------|--------------------------|
--------------------------|--------------------------|
--5--5--5--5--5--5--5--5--|--0--0-----0--0--0--0--0--|


  E  E  E  E  E  E  E  E     E  E  E  E  E  E  E  E   
--------------------------|--------------------------|
--------------------------|--------------------------|
--------------------------|-----------------5--7--5--|
--1--1-----1--1--1--1--1--|--3--3-----3--3-----------|
--------------------------|--------------------------|


  E  E  E  E  E  E  E   E     E  E  E  E  E  E  E  E   
---------------------------|--------------------------|
---------------------------|--------------------------|
---------------------------|--------------------------|
--5--5--5--7--7--8--8--10--|--------------------------|
---------------------------|--0--0-----0--0--0--0--0--|


  E  E  E  E  E  E  E  E     E  E  E  E  E  E  E  E   
--------------------------|--------------------------|
--------------------------|--------------------------|
--------------------------|-----------------5--7--5--|
--1--1-----1--1--1--1--1--|--3--3-----3--3-----------|
--------------------------|--------------------------|


  E  E  E  E  E  E  E  E     E  E  E  E  E  E  E  E   
--------------------------|--------------------------|
--------------------------|--------------------------|
--------------------------|--------------------------|
--------------------------|--------------------------|
--5--5--5--5--5--5--5--5--|--0--0-----0--0--0--0--0--|


  E  E  E  E  E  E  E  E     E  E  E  E  E  E  E  E   
--------------------------|--------------------------|
--------------------------|--------------------------|
--------------------------|-----------------5--7--5--|
--1--1-----1--1--1--1--1--|--3--3-----3--3-----------|
--------------------------|--------------------------|


  E  E  E  E  E  E  E   E     E  E  Q    E  E   Q     
---------------------------|-------------------------|
---------------------------|-------------------------|
---------------------------|-------------------------|
--5--5--5--7--7--8--8--10--|--------5----L--L\-------|
---------------------------|--0--0-------------------|


  E  E  E  E  E  E  E  E     E  E  Q    E  E   Q       E  E  E  E  E  E  E  E   
--------------------------|-------------------------|--------------------------|
--------------------------|-------------------------|--------------------------|
--------------------------|-------------------------|--------------------------|
--1--1--1--3--3--3--3--3--|--------5----L--L\-------|--------------------------|
--------------------------|--0--0-------------------|--8--8--8--5--5--5--5--5--|


  E  E  Q    E  E   Q       E  E  E  E  E  E  E  E     E  E  Q    E  E   Q     
-------------------------|--------------------------|-------------------------|
-------------------------|--------------------------|-------------------------|
-------------------------|--------------------------|-------------------------|
--------5----L--L\-------|--1--1--1--3--3--3--3--3--|--------5----L--L\-------|
--0--0-------------------|--------------------------|--0--0-------------------|


  E  E  E  E  E  E  E  E     E  E  E  E  E  E  E  E   
--------------------------|--------------------------|
--------------------------|--------------------------|
--------------------------|--------------------------|
--------------------------|--5--------1-----------3--|
--8--8--8--3--3--3--3--3--|-----0--3-----0--3--5-----|


  E  E  E  E  E  E  E  E                
--------------------------|-----|-----||
--------------------------|-----|-----||
--------------------------|-----|-----||
--5--------1-----------3--|-----|-----||
-----0--3-----0--3--5-----|-----|-----||




Duration Legend
---------------
W - whole
H - half
Q - quarter
E - 8th
S - 16th
T - 32nd
X - 64th
. - note dotted
|-n-|  - n-tuplets


Tablature Legend
----------------
L - tied note
x - dead note
g - grace note
(n) - ghost note
> - accentuded note
NH - natural harmonic
AH - artificial harmonic
TH - tapped harmonic
SH - semi harmonic
PH - pitch harmonic
h - hammer on
p - pull off
b - bend
br - bendRelease
pb - preBend
pbr - preBendRelease
brb - bendReleaseBend
\n/ - tremolo bar dip
\n - tremolo bar dive
-/n - tremolo bar Release up
/n\ - tremolo bar inverted dip
/n - tremolo bar return
-\n - tremolo bar Release down
S - shift slide
s - legato slide
/ -  slide into from below or out of upwards
\ -  slide into from above or out of downwards
~ - vibrato
W - wide vibrato
tr - trill
TP - tremolo picking
T - tapping
S - slap
P - pop
< - fade in
^ - brush up
v - brush down
comments
We did not receive enough feedback on this tab! Please rate:
print report bad tab
1 2 3 4 5
1 comment total.
0 reply
Bondie_frost wrote on July 28 2008, 05:40 am

thats f***in awsum man
i love this song
great work

I want to post or [tab]
guest
You may want to rate the tab now too:
select rating
Please do not post tabs as comments. Select "correction" instead!