Oops, an error
Loading. Please wait.

The Mirrors Truth Tab

ver1
ver1

Solo

Whole song

More versions @911Tabs.com
27,556 views 42 this week
2 commentsread comments
1 2 3 4 5
worth learning
x 3
Autoscroll
+/-
esc
set tempo
stop
Hey! There's an official Ultimate Guitar app which is ideal
for learning songs when you're away from computer. Get the app
WARNING: You are trying to view
                                    content from Ultimate-Guitar.com
                                    in an unauthorized application,
                                    which is prohibited.

                                    Please use an official Ultimate
                                    Guitar Tabs application for iPhone,
                                    iPad or Android to access legitimate
                                    chords, guitar, bass, and drum tabs
                                    from Ultimate-Guitar.com database.

                                    Type "ultimate guitar tabs" in Apple
                                    App Store's or Android Market's
                                    search to find the application.
Band: In Flames
Song: The Mirrors Truth



Rhythm Guitar # 1 (Björn):


         PM PM    PM PM PM PM       PM PM    PM PM PM PM  
      E  E  E  E  E  E  E  E     E  E  E  E  E  E  E  E   
C ||--------------------------|--------------------------|
G ||--------------------------|--------------------------|
D#||--------------------------|--------------------------|
A#||--------------------------|--------------------------|
F ||--5--------1-----------3--|--5--------1-----------3--|
A#||-----0--3-----0--3--5-----|-----0--3-----0--3--5-----|


     PM PM    PM PM PM PM       PM PM    PM PM PM     
  E  E  E  E  E  E  E  E     E  E  E  E  E  E  E  E   
--------------------------|--------------------------|
--------------------------|--------------------------|
--------------------------|--------------------------|
--------------------------|--------------------------|
--5--------1-----------3--|--5--------1-----------3--|
-----0--3-----0--3--5-----|-----0--3-----0--3--5-----|


     PM PM    PM PM PM PM       PM PM    PM PM PM PM  
  E  E  E  E  E  E  E  E     E  E  E  E  E  E  E  E   
--------------------------|--------------------------|
--------------------------|--------------------------|
--------------------------|--------------------------|
--------------------------|--------------------------|
--5--------1-----------3--|--5--------1-----------3--|
-----0--3-----0--3--5-----|-----0--3-----0--3--5-----|


     PM PM    PM PM PM PM       PM PM    PM PM PM PM  
  E  E  E  E  E  E  E  E     E  E  E  E  E  E  E  E   
--------------------------|--------------------------|
--------------------------|--------------------------|
--------------------------|--------------------------|
--------------------------|--------------------------|
--5--------1-----------3--|--5--------1-----------3--|
-----0--3-----0--3--5-----|-----0--3-----0--3--5-----|


     PM PM    PM PM PM                PM PM    PM PM PM PM  
  E  E  E  E  E  E  E  E           E  E  E  E  E  E  E  E   
--------------------------|-----|--------------------------|
--------------------------|-----|--------------------------|
--------------------------|-----|--------------------------|
--------------------------|-----|--------------------------|
--5--------1-----------3--|-----|--5--------1-----------3--|
-----0--3-----0--3--5-----|-----|-----0--3-----0--3--5-----|


     PM PM    PM PM PM PM       PM PM    PM PM PM PM  
  E  E  E  E  E  E  E  E     E  E  E  E  E  E  E  E   
--------------------------|--------------------------|
--------------------------|--------------------------|
--------------------------|--------------------------|
--------------------------|--------------------------|
--5--------1-----------3--|--5--------1-----------3--|
-----0--3-----0--3--5-----|-----0--3-----0--3--5-----|


     PM PM    PM PM PM PM       PM PM    PM PM PM PM  
  E  E  E  E  E  E  E  E     E  E  E  E  E  E  E  E   
--------------------------|--------------------------|
--------------------------|--------------------------|
--------------------------|--------------------------|
--------------------------|--------------------------|
--5--------1-----------3--|--5--------1-----------3--|
-----0--3-----0--3--5-----|-----0--3-----0--3--5-----|


     PM PM    PM PM PM PM       PM PM    PM PM PM PM  
  E  E  E  E  E  E  E  E     E  E  E  E  E  E  E  E   
--------------------------|--------------------------|
--------------------------|--------------------------|
--------------------------|--------------------------|
--------------------------|--------------------------|
--5--------1-----------3--|--5--------1-----------3--|
-----0--3-----0--3--5-----|-----0--3-----0--3--5-----|


     PM PM    PM PM PM PM    PM PM PM PM                   
  E  E  E  E  E  E  E  E     S  S  S  S  Q    E  E   Q     
--------------------------|-------------------------------|
--------------------------|-------------------------------|
--------------------------|--------------7----L--L\-------|
--------------------------|--------------7----L--L\-------|
--5--------1-----------3--|--------------5----L--L\-------|
-----0--3-----0--3--5-----|--0--0--0--0-------------------|


                             PM PM PM PM                   
  E  E  E  E  E  E  E  E     S  S  S  S  Q    E  E   Q     
--------------------------|-------------------------------|
--------------------------|-------------------------------|
--3--3--3--5--5--5--5--5--|--------------7----L--L\-------|
--3--3--3--5--5--5--5--5--|--------------7----L--L\-------|
--1--1--1--3--3--3--3--3--|--------------5----L--L\-------|
--------------------------|--0--0--0--0-------------------|


                             PM PM PM PM                   
  E  E  E  E  E  E  E  E     S  S  S  S  Q    E  E   Q     
--------------------------|-------------------------------|
--------------------------|-------------------------------|
--------------------------|--------------7----L--L\-------|
--8--8--8--5--5--5--5--5--|--------------7----L--L\-------|
--8--8--8--5--5--5--5--5--|--------------5----L--L\-------|
--8--8--8--5--5--5--5--5--|--0--0--0--0-------------------|


                             PM PM PM PM                   
  E  E  E  E  E  E  E  E     S  S  S  S  Q    E  E   Q     
--------------------------|-------------------------------|
--------------------------|-------------------------------|
--3--3--3--5--5--5--5--5--|--------------7----L--L\-------|
--3--3--3--5--5--5--5--5--|--------------7----L--L\-------|
--1--1--1--3--3--3--3--3--|--------------5----L--L\-------|
--------------------------|--0--0--0--0-------------------|


                                PM PM    PM PM PM PM  
  E  E  E  E  E  E  E  E     E  E  E  E  E  E  E  E   
--------------------------|--------------------------|
--------------------------|--------------------------|
--------------------------|--------------------------|
--8--8--8--3--3--3--3--3--|--------------------------|
--8--8--8--3--3--3--3--3--|--5--------1-----------3--|
--8--8--8--3--3--3--3--3--|-----0--3-----0--3--5-----|


     PM PM    PM PM PM PM       PM PM    PM PM PM PM  
  E  E  E  E  E  E  E  E     E  E  E  E  E  E  E  E   
--------------------------|--------------------------|
--------------------------|--------------------------|
--------------------------|--------------------------|
--------------------------|--------------------------|
--5--------1-----------3--|--5--------1-----------3--|
-----0--3-----0--3--5-----|-----0--3-----0--3--5-----|


     PM PM    PM PM PM PM    PM PM PM PM                   
  E  E  E  E  E  E  E  E     S  S  S  S  Q    E  E   Q     
--------------------------|-------------------------------|
--------------------------|-------------------------------|
--------------------------|--------------7----L--L\-------|
--------------------------|--------------7----L--L\-------|
--5--------1-----------3--|--------------5----L--L\-------|
-----0--3-----0--3--5-----|--0--0--0--0-------------------|


                             PM PM PM PM                   
  E  E  E  E  E  E  E  E     S  S  S  S  Q    E  E   Q     
--------------------------|-------------------------------|
--------------------------|-------------------------------|
--3--3--3--5--5--5--5--5--|--------------7----L--L\-------|
--3--3--3--5--5--5--5--5--|--------------7----L--L\-------|
--1--1--1--3--3--3--3--3--|--------------5----L--L\-------|
--------------------------|--0--0--0--0-------------------|


                             PM PM PM PM                   
  E  E  E  E  E  E  E  E     S  S  S  S  Q    E  E   Q     
--------------------------|-------------------------------|
--------------------------|-------------------------------|
--------------------------|--------------7----L--L\-------|
--8--8--8--5--5--5--5--5--|--------------7----L--L\-------|
--8--8--8--5--5--5--5--5--|--------------5----L--L\-------|
--8--8--8--5--5--5--5--5--|--0--0--0--0-------------------|


                             PM PM PM PM                   
  E  E  E  E  E  E  E  E     S  S  S  S  Q    E  E   Q     
--------------------------|-------------------------------|
--------------------------|-------------------------------|
--3--3--3--5--5--5--5--5--|--------------7----L--L\-------|
--3--3--3--5--5--5--5--5--|--------------7----L--L\-------|
--1--1--1--3--3--3--3--3--|--------------5----L--L\-------|
--------------------------|--0--0--0--0-------------------|


  E  E  E  E  E  E  E  E     E  E  E  E  E  E  E  E   
--------------------------|--------------------------|
--------------------------|--------------------------|
--------------------------|--------------------------|
--8--8--8--3--3--3--3--3--|--5--5--5--5--5--5--5--5--|
--8--8--8--3--3--3--3--3--|--5--5--5--5--5--5--5--5--|
--8--8--8--3--3--3--3--3--|--5--5--5--5--5--5--5--5--|


     PM PM PM      PM  PM  PM                             
  E  E  E  E   E   E   E   E     E  E  E  E  E  E  E  E   
------------------------------|--------------------------|
------------------------------|--------------------------|
------------------------------|--------------------------|
--8-----------10--------------|--0--0--0--0--0--0--0--0--|
--8--8--8--8--10--10--10--10--|--0--0--0--0--0--0--0--0--|
--8--8--8--8--10--10--10--10--|--0--0--0--0--0--0--0--0--|


  E  E  E  E  E  E  E  E     E  E  E  E  E  E  E  E   
--------------------------|--------------------------|
--------------------------|--------------------------|
--3--3--3--3--3--3--3--3--|--5--5--5--5--5--5--5--5--|
--3--3--3--3--3--3--3--3--|--5--5--5--5--5--5--5--5--|
--1--1--1--1--1--1--1--1--|--3--3--3--3--3--3--3--3--|
--------------------------|--------------------------|


  E  E  E  E  E  E  E  E     E  E  E  E  E  E  E  E   
--------------------------|--------------------------|
--------------------------|--------------------------|
--------------------------|--------------------------|
--5--5--5--5--5--5--5--5--|--0--0--0--0--0--0--0--0--|
--5--5--5--5--5--5--5--5--|--0--0--0--0--0--0--0--0--|
--5--5--5--5--5--5--5--5--|--0--0--0--0--0--0--0--0--|


  E  E  E  E  E  E  E  E     E  E  E  E  E  E  E  E   
--------------------------|--------------------------|
--------------------------|--------------------------|
--3--3--3--3--3--3--3--3--|--5--5--5--5--5--5--5--5--|
--3--3--3--3--3--3--3--3--|--5--5--5--5--5--5--5--5--|
--1--1--1--1--1--1--1--1--|--3--3--3--3--3--3--3--3--|
--------------------------|--------------------------|


                                                      PM PM                   
  E  E  E  E  E  E  E  E     E  E  Q.     E  E  E     E  E  Q    E  E  E  E   
--------------------------|------------------------|-------------------------|
--------------------------|------------------------|-------------------------|
--------------------------|------------------------|-------------------------|
--0--0--0--2--2--3--3--5--|------------------------|-------------------------|
--0--0--0--2--2--3--3--5--|--0--0---------3--5--3--|--------5----7--5--7--5--|
--0--0--0--2--2--3--3--5--|--0--0---------3--5--3--|--0--0-------7--5--7--5--|


                           PM PM                                           
  E  E  Q.     E  E  E     E  E  Q    E.  E.  E     E  E  Q.     E  E  E   
------------------------|------------------------|------------------------|
------------------------|------------------------|------------------------|
------------------------|------------------------|------------------------|
------------------------|------------------------|------------------------|
--0--0---------3--5--3--|--------8----5---7---8--|--0--0---------3--5--3--|
--0--0---------3--5--3--|--0--0-------5---7---8--|--0--0---------3--5--3--|


  PM PM                        PM PM PM    PM PM       PM PM    PM PM           
  E  E  Q    E  E  E  E     E  E  E  E  E  E  E  E     E  E  E  E  E  E  E  E   
-------------------------|--------------------------|--------------------------|
-------------------------|--------------------------|--------------------------|
-------------------------|--------------------------|--------------------------|
-------------------------|--------------------------|-----------------------7--|
--------5----7--5--7--5--|--5-----------7--------5--|--------5--------5--7-----|
--0--0-------7--5--7--5--|-----0--0--0-----0--0-----|--0--0-----0--0-----------|


     PM PM    PM PM PM PM       PM PM    PM PM PM PM  
  E  E  E  E  E  E  E  E     E  E  E  E  E  E  E  E   
--------------------------|--------------------------|
--------------------------|--------------------------|
--------------------------|--------------------------|
--------------------------|--------------------------|
--5--------1-----------3--|--5--------1-----------3--|
-----0--3-----0--3--5-----|-----0--3-----0--3--5-----|


     PM PM    PM PM PM PM       PM PM    PM PM PM PM  
  E  E  E  E  E  E  E  E     E  E  E  E  E  E  E  E   
--------------------------|--------------------------|
--------------------------|--------------------------|
--------------------------|--------------------------|
--------------------------|--------------------------|
--5--------1-----------3--|--5--------1-----------3--|
-----0--3-----0--3--5-----|-----0--3-----0--3--5-----|


  PM PM PM PM                                              
  S  S  S  S  Q    E  E   Q       E  E  E  E  E  E  E  E   
-------------------------------|--------------------------|
-------------------------------|--------------------------|
--------------7----L--L\-------|--3--3--3--5--5--5--5--5--|
--------------7----L--L\-------|--3--3--3--5--5--5--5--5--|
--------------5----L--L\-------|--1--1--1--3--3--3--3--3--|
--0--0--0--0-------------------|--------------------------|


  PM PM PM PM                                              
  S  S  S  S  Q    E  E   Q       E  E  E  E  E  E  E  E   
-------------------------------|--------------------------|
-------------------------------|--------------------------|
--------------7----L--L\-------|--------------------------|
--------------7----L--L\-------|--8--8--8--5--5--5--5--5--|
--------------5----L--L\-------|--8--8--8--5--5--5--5--5--|
--0--0--0--0-------------------|--8--8--8--5--5--5--5--5--|


  PM PM PM PM                                              
  S  S  S  S  Q    E  E   Q       E  E  E  E  E  E  E  E   
-------------------------------|--------------------------|
-------------------------------|--------------------------|
--------------7----L--L\-------|--3--3--3--5--5--5--5--5--|
--------------7----L--L\-------|--3--3--3--5--5--5--5--5--|
--------------5----L--L\-------|--1--1--1--3--3--3--3--3--|
--0--0--0--0-------------------|--------------------------|


  PM PM PM PM                                              
  S  S  S  S  Q    E  E   Q       E  E  E  E  E  E  E  E   
-------------------------------|--------------------------|
-------------------------------|--------------------------|
--------------7----L--L\-------|--------------------------|
--------------7----L--L\-------|--8--8--8--3--3--3--3--3--|
--------------5----L--L\-------|--8--8--8--3--3--3--3--3--|
--0--0--0--0-------------------|--8--8--8--3--3--3--3--3--|


                                PM PM PM      PM  PM  PM  
  E  E  E  E  E  E  E  E     E  E  E  E   E   E   E   E   
--------------------------|------------------------------|
--------------------------|------------------------------|
--------------------------|------------------------------|
--5--5--5--5--5--5--5--5--|--8-----------10--------------|
--5--5--5--5--5--5--5--5--|--8--8--8--8--10--10--10--10--|
--5--5--5--5--5--5--5--5--|--8--8--8--8--10--10--10--10--|


  E  E  E  E  E  E  E  E     E  E  E  E  E  E  E  E   
--------------------------|--------------------------|
--------------------------|--------------------------|
--------------------------|--3--3--3--3--3--3--3--3--|
--0--0--0--0--0--0--0--0--|--3--3--3--3--3--3--3--3--|
--0--0--0--0--0--0--0--0--|--1--1--1--1--1--1--1--1--|
--0--0--0--0--0--0--0--0--|--------------------------|


  E  E  E  E  E  E  E  E     E  E  E  E  E  E  E  E   
--------------------------|--------------------------|
--------------------------|--------------------------|
--5--5--5--5--5--5--5--5--|--------------------------|
--5--5--5--5--5--5--5--5--|--5--5--5--5--5--5--5--5--|
--3--3--3--3--3--3--3--3--|--5--5--5--5--5--5--5--5--|
--------------------------|--5--5--5--5--5--5--5--5--|


  E  E  E  E  E  E  E  E     E  E  E  E  E  E  E  E   
--------------------------|--------------------------|
--------------------------|--------------------------|
--------------------------|--3--3--3--3--3--3--3--3--|
--0--0--0--0--0--0--0--0--|--3--3--3--3--3--3--3--3--|
--0--0--0--0--0--0--0--0--|--1--1--1--1--1--1--1--1--|
--0--0--0--0--0--0--0--0--|--------------------------|


  E  E  E  E  E  E  E  E     E  E  E  E  E  E  E  E   
--------------------------|--------------------------|
--------------------------|--------------------------|
--5--5--5--5--5--5--5--5--|--------------------------|
--5--5--5--5--5--5--5--5--|--0--0--0--2--2--3--3--5--|
--3--3--3--3--3--3--3--3--|--0--0--0--2--2--3--3--5--|
--------------------------|--0--0--0--2--2--3--3--5--|


  E  E  E  E  E  E  E  E     E  E  E  E  E  E  E  E   
--------------------------|--------------------------|
--------------------------|--------------------------|
--------------------------|--3--3--3--3--3--3--3--3--|
--0--0--0--0--0--0--0--0--|--3--3--3--3--3--3--3--3--|
--0--0--0--0--0--0--0--0--|--1--1--1--1--1--1--1--1--|
--0--0--0--0--0--0--0--0--|--------------------------|


  E  E  E  E  E  E  E  E     E  E  E  E  E  E  E  E   
--------------------------|--------------------------|
--------------------------|--------------------------|
--5--5--5--5--5--5--5--5--|--------------------------|
--5--5--5--5--5--5--5--5--|--5--5--5--5--5--5--5--5--|
--3--3--3--3--3--3--3--3--|--5--5--5--5--5--5--5--5--|
--------------------------|--5--5--5--5--5--5--5--5--|


  E  E  E  E  E  E  E  E     E  E  E  E  E  E  E  E   
--------------------------|--------------------------|
--------------------------|--------------------------|
--------------------------|--3--3--3--3--3--3--3--3--|
--0--0--0--0--0--0--0--0--|--3--3--3--3--3--3--3--3--|
--0--0--0--0--0--0--0--0--|--1--1--1--1--1--1--1--1--|
--0--0--0--0--0--0--0--0--|--------------------------|


  E  E  E  E  E  E  E  E     E  E  E  E  E  E  E  E     E  E  Q.     E  E  E   
--------------------------|--------------------------|------------------------|
--------------------------|--------------------------|------------------------|
--5--5--5--5--5--5--5--5--|--------------------------|------------------------|
--5--5--5--5--5--5--5--5--|--0--0--0--2--2--3--3--5--|------------------------|
--3--3--3--3--3--3--3--3--|--0--0--0--2--2--3--3--5--|--0--0---------3--5--3--|
--------------------------|--0--0--0--2--2--3--3--5--|--0--0---------3--5--3--|


  PM PM                                              PM PM                   
  E  E  Q    E  E  E  E     E  E  Q.     E  E  E     E  E  Q    E  E  E  E   
-------------------------|------------------------|-------------------------|
-------------------------|------------------------|-------------------------|
-------------------------|------------------------|-------------------------|
-------------------------|------------------------|-------------------------|
--------5----7--5--7--5--|--0--0---------3--5--3--|--------8----5--7--7--8--|
--0--0-------7--5--7--5--|--0--0---------3--5--3--|--0--0-------5--7--7--8--|


                           PM PM                        PM PM PM    PM PM     
  E  E  Q.     E  E  E     E  E  Q    E  E  E  E     E  E  E  E  E  E  E  E   
------------------------|-------------------------|--------------------------|
------------------------|-------------------------|--------------------------|
------------------------|-------------------------|--------------------------|
------------------------|-------------------------|--------------------------|
--0--0---------3--5--3--|--------5----7--5--7--5--|--5-----------7--------5--|
--0--0---------3--5--3--|--0--0-------7--5--7--5--|-----0--0--0-----0--0-----|


  PM PM    PM PM                                      
  E  E  E  E  E  E  E  E     E  E  E  E  E  E  E  E   
--------------------------|--------------------------|
--------------------------|--------------------------|
--------------------------|--------------------------|
-----------------------7--|--0--0--0--0--0--0--0--0--|
--------5--------5--7-----|--0--0--0--0--0--0--0--0--|
--0--0-----0--0-----------|--0--0--0--0--0--0--0--0--|


  E  E  E  E  E  E  E  E     E  E  E  E  E  E  E  E   
--------------------------|--------------------------|
--------------------------|--------------------------|
--3--3--3--3--3--3--3--3--|--5--5--5--5--5--5--5--5--|
--3--3--3--3--3--3--3--3--|--5--5--5--5--5--5--5--5--|
--1--1--1--1--1--1--1--1--|--3--3--3--3--3--3--3--3--|
--------------------------|--------------------------|


  E  E  E  E  E  E  E  E     E  E  E  E  E  E  E  E   
--------------------------|--------------------------|
--------------------------|--------------------------|
--------------------------|--------------------------|
--5--5--5--5--5--5--5--5--|--0--0--0--0--0--0--0--0--|
--5--5--5--5--5--5--5--5--|--0--0--0--0--0--0--0--0--|
--5--5--5--5--5--5--5--5--|--0--0--0--0--0--0--0--0--|


  E  E  E  E  E  E  E  E     E  E  E  E  E  E  E  E   
--------------------------|--------------------------|
--------------------------|--------------------------|
--3--3--3--3--3--3--3--3--|--5--5--5--5--5--5--5--5--|
--3--3--3--3--3--3--3--3--|--5--5--5--5--5--5--5--5--|
--1--1--1--1--1--1--1--1--|--3--3--3--3--3--3--3--3--|
--------------------------|--------------------------|


                                                <                         
  E  E  E  E  E  E  E  E           H.           Q       W                 
--------------------------|-----|--------------------|-------------------|
--------------------------|-----|--------------------|-------------------|
--------------------------|-----|--------------------|-------------------|
--0--0--0--2--2--3--3--5--|-----|---------------0----|--0----------------|
--0--0--0--2--2--3--3--5--|-----|---------------0----|--0----------------|
--0--0--0--2--2--3--3--5--|-----|---------------0----|--0----------------|


  W                   E  E  E  E  E  E  E  E     E  E  E  E  E  E  E  E   
-------------------|--------------------------|--------------------------|
-------------------|--------------------------|--------------------------|
-------------------|--------------------------|--3--3--3--3--3--3--3--3--|
--L----------------|--0--0--0--0--0--0--0--0--|--3--3--3--3--3--3--3--3--|
--L----------------|--0--0--0--0--0--0--0--0--|--1--1--1--1--1--1--1--1--|
--L----------------|--0--0--0--0--0--0--0--0--|--------------------------|


  E  E  E  E  E  E  E  E     E  E  E  E  E  E  E  E   
--------------------------|--------------------------|
--------------------------|--------------------------|
--5--5--5--5--5--5--5--5--|--------------------------|
--5--5--5--5--5--5--5--5--|--5--5--5--5--5--5--5--5--|
--3--3--3--3--3--3--3--3--|--5--5--5--5--5--5--5--5--|
--------------------------|--5--5--5--5--5--5--5--5--|


  E  E  E  E  E  E  E  E     E  E  E  E  E  E  E  E   
--------------------------|--------------------------|
--------------------------|--------------------------|
--------------------------|--3--3--3--3--3--3--3--3--|
--0--0--0--0--0--0--0--0--|--3--3--3--3--3--3--3--3--|
--0--0--0--0--0--0--0--0--|--1--1--1--1--1--1--1--1--|
--0--0--0--0--0--0--0--0--|--------------------------|


  E  E  E  E  E  E  E  E     E  E  E  E  E  E  E  E   
--------------------------|--------------------------|
--------------------------|--------------------------|
--5--5--5--5--5--5--5--5--|--------------------------|
--5--5--5--5--5--5--5--5--|--0--0--0--2--2--3--3--5--|
--3--3--3--3--3--3--3--3--|--0--0--0--2--2--3--3--5--|
--------------------------|--0--0--0--2--2--3--3--5--|


  E  E  E  E  E  E  E  E     E  E  E  E  E  E  E  E   
--------------------------|--------------------------|
--------------------------|--------------------------|
--------------------------|--3--3--3--3--3--3--3--3--|
--0--0--0--0--0--0--0--0--|--3--3--3--3--3--3--3--3--|
--0--0--0--0--0--0--0--0--|--1--1--1--1--1--1--1--1--|
--0--0--0--0--0--0--0--0--|--------------------------|


  E  E  E  E  E  E  E  E     E  E  E  E  E  E  E  E   
--------------------------|--------------------------|
--------------------------|--------------------------|
--5--5--5--5--5--5--5--5--|--------------------------|
--5--5--5--5--5--5--5--5--|--5--5--5--5--5--5--5--5--|
--3--3--3--3--3--3--3--3--|--5--5--5--5--5--5--5--5--|
--------------------------|--5--5--5--5--5--5--5--5--|


  E  E  E  E  E  E  E  E     E  E  E  E  E  E  E  E   
--------------------------|--------------------------|
--------------------------|--------------------------|
--------------------------|--3--3--3--3--3--3--3--3--|
--0--0--0--0--0--0--0--0--|--3--3--3--3--3--3--3--3--|
--0--0--0--0--0--0--0--0--|--1--1--1--1--1--1--1--1--|
--0--0--0--0--0--0--0--0--|--------------------------|


  E  E  E  E  E  E  E  E     E  E  E  E  E  E  E  E   
--------------------------|--------------------------|
--------------------------|--------------------------|
--5--5--5--5--5--5--5--5--|--------------------------|
--5--5--5--5--5--5--5--5--|--0--0--0--2--2--3--3--5--|
--3--3--3--3--3--3--3--3--|--0--0--0--2--2--3--3--5--|
--------------------------|--0--0--0--2--2--3--3--5--|


  PM PM PM PM                                              
  S  S  S  S  Q    E  E   Q       E  E  E  E  E  E  E  E   
-------------------------------|--------------------------|
-------------------------------|--------------------------|
--------------7----L--L\-------|--3--3--3--5--5--5--5--5--|
--------------7----L--L\-------|--3--3--3--5--5--5--5--5--|
--------------5----L--L\-------|--1--1--1--3--3--3--3--3--|
--0--0--0--0-------------------|--------------------------|


  PM PM PM PM                                              
  S  S  S  S  Q    E  E   Q       E  E  E  E  E  E  E  E   
-------------------------------|--------------------------|
-------------------------------|--------------------------|
--------------7----L--L\-------|--------------------------|
--------------7----L--L\-------|--8--8--8--5--5--5--5--5--|
--------------5----L--L\-------|--8--8--8--5--5--5--5--5--|
--0--0--0--0-------------------|--8--8--8--5--5--5--5--5--|


  PM PM PM PM                                              
  S  S  S  S  Q    E  E   Q       E  E  E  E  E  E  E  E   
-------------------------------|--------------------------|
-------------------------------|--------------------------|
--------------7----L--L\-------|--3--3--3--5--5--5--5--5--|
--------------7----L--L\-------|--3--3--3--5--5--5--5--5--|
--------------5----L--L\-------|--1--1--1--3--3--3--3--3--|
--0--0--0--0-------------------|--------------------------|


  PM PM PM PM                                              
  S  S  S  S  Q    E  E   Q       E  E  E  E  E  E  E  E   
-------------------------------|--------------------------|
-------------------------------|--------------------------|
--------------7----L--L\-------|--------------------------|
--------------7----L--L\-------|--8--8--8--3--3--3--3--3--|
--------------5----L--L\-------|--8--8--8--3--3--3--3--3--|
--0--0--0--0-------------------|--8--8--8--3--3--3--3--3--|


     PM PM    PM PM PM PM       PM PM    PM PM PM PM               
  E  E  E  E  E  E  E  E     E  E  E  E  E  E  E  E                
--------------------------|--------------------------|-----|-----||
--------------------------|--------------------------|-----|-----||
--------------------------|--------------------------|-----|-----||
--------------------------|--------------------------|-----|-----||
--5--------1-----------3--|--5--------1-----------3--|-----|-----||
-----0--3-----0--3--5-----|-----0--3-----0--3--5-----|-----|-----||









Rhythm Guitar # 2 (Jesper):


                                           PM PM          PM PM    PM PM PM PM  
                              Q    Q    E  E  E  E     E  E  E  E  E  E  E  E   
C ||-------|-------|-------|------------------------|--------------------------|
G ||-------|-------|-------|------------------------|--------------------------|
D#||-------|-------|-------|------------------------|--------------------------|
A#||-------|-------|-------|------------------------|--3--------5--------------|
F ||-------|-------|-------|---------------------3--|-----------------------3--|
A#||-------|-------|-------|---------------3--5-----|-----0--3-----0--3--5-----|


     PM PM    PM PM PM PM       PM PM    PM PM PM PM  
  E  E  E  E  E  E  E  E     E  E  E  E  E  E  E  E   
--------------------------|--------------------------|
--------------------------|--------------------------|
--------------------------|--------------------------|
--3--------5--------------|--3--------5--------------|
-----------------------3--|-----------------------3--|
-----0--3-----0--3--5-----|-----0--3-----0--3--5-----|


     PM PM    PM PM PM PM       PM PM    PM PM PM           
  E  E  E  E  E  E  E  E     E  E  E  E  E  E  E  E         
--------------------------|--------------------------|-----|
--------------------------|--------------------------|-----|
--------------------------|--------------------------|-----|
--3--------5--------------|--3--------5--------------|-----|
-----------------------3--|-----------------------3--|-----|
-----0--3-----0--3--5-----|-----0--3-----0--3--5-----|-----|


     PM PM    PM PM PM PM       PM PM    PM PM PM PM  
  E  E  E  E  E  E  E  E     E  E  E  E  E  E  E  E   
--------------------------|--------------------------|
--------------------------|--------------------------|
--------------------------|--------------------------|
--------------------------|--------------------------|
--5--------1-----------3--|--5--------1-----------3--|
-----0--3-----0--3--5-----|-----0--3-----0--3--5-----|


     PM PM    PM PM PM PM       PM PM    PM PM PM PM  
  E  E  E  E  E  E  E  E     E  E  E  E  E  E  E  E   
--------------------------|--------------------------|
--------------------------|--------------------------|
--------------------------|--------------------------|
--------------------------|--------------------------|
--5--------1-----------3--|--5--------1-----------3--|
-----0--3-----0--3--5-----|-----0--3-----0--3--5-----|


     PM PM    PM PM PM PM       PM PM    PM PM PM PM  
  E  E  E  E  E  E  E  E     E  E  E  E  E  E  E  E   
--------------------------|--------------------------|
--------------------------|--------------------------|
--------------------------|--------------------------|
--------------------------|--------------------------|
--5--------1-----------3--|--5--------1-----------3--|
-----0--3-----0--3--5-----|-----0--3-----0--3--5-----|


     PM PM    PM PM PM PM       PM PM    PM PM PM PM  
  E  E  E  E  E  E  E  E     E  E  E  E  E  E  E  E   
--------------------------|--------------------------|
--------------------------|--------------------------|
--------------------------|--------------------------|
--------------------------|--------------------------|
--5--------1-----------3--|--5--------1-----------3--|
-----0--3-----0--3--5-----|-----0--3-----0--3--5-----|


  PM PM PM PM                                              
  S  S  S  S  Q    E  E   Q       E  E  E  E  E  E  E  E   
-------------------------------|--------------------------|
-------------------------------|--------------------------|
--------------7----L--L\-------|--3--3--3--5--5--5--5--5--|
--------------7----L--L\-------|--3--3--3--5--5--5--5--5--|
--------------5----L--L\-------|--1--1--1--3--3--3--3--3--|
--0--0--0--0-------------------|--------------------------|


  PM PM PM PM                                              
  S  S  S  S  Q    E  E   Q       E  E  E  E  E  E  E  E   
-------------------------------|--------------------------|
-------------------------------|--------------------------|
--------------7----L--L\-------|--------------------------|
--------------7----L--L\-------|--8--8--8--5--5--5--5--5--|
--------------5----L--L\-------|--8--8--8--5--5--5--5--5--|
--0--0--0--0-------------------|--8--8--8--5--5--5--5--5--|


  PM PM PM PM                                              
  S  S  S  S  Q    E  E   Q       E  E  E  E  E  E  E  E   
-------------------------------|--------------------------|
-------------------------------|--------------------------|
--------------7----L--L\-------|--3--3--3--5--5--5--5--5--|
--------------7----L--L\-------|--3--3--3--5--5--5--5--5--|
--------------5----L--L\-------|--1--1--1--3--3--3--3--3--|
--0--0--0--0-------------------|--------------------------|


  PM PM PM PM                                              
  S  S  S  S  Q    E  E   Q       E  E  E  E  E  E  E  E   
-------------------------------|--------------------------|
-------------------------------|--------------------------|
--------------7----L--L\-------|--------------------------|
--------------7----L--L\-------|--8--8--8--3--3--3--3--3--|
--------------5----L--L\-------|--8--8--8--3--3--3--3--3--|
--0--0--0--0-------------------|--8--8--8--3--3--3--3--3--|


     PM PM    PM PM PM PM       PM PM    PM PM PM PM  
  E  E  E  E  E  E  E  E     E  E  E  E  E  E  E  E   
--------------------------|--------------------------|
--------------------------|--------------------------|
--------------------------|--------------------------|
--------------------------|--------------------------|
--5--------1-----------3--|--5--------1-----------3--|
-----0--3-----0--3--5-----|-----0--3-----0--3--5-----|


     PM PM    PM PM PM PM       PM PM    PM PM PM PM  
  E  E  E  E  E  E  E  E     E  E  E  E  E  E  E  E   
--------------------------|--------------------------|
--------------------------|--------------------------|
--------------------------|--------------------------|
--------------------------|--------------------------|
--5--------1-----------3--|--5--------1-----------3--|
-----0--3-----0--3--5-----|-----0--3-----0--3--5-----|


  PM PM PM PM                                              
  S  S  S  S  Q    E  E   Q       E  E  E  E  E  E  E  E   
-------------------------------|--------------------------|
-------------------------------|--------------------------|
--------------7----L--L\-------|--3--3--3--5--5--5--5--5--|
--------------7----L--L\-------|--3--3--3--5--5--5--5--5--|
--------------5----L--L\-------|--1--1--1--3--3--3--3--3--|
--0--0--0--0-------------------|--------------------------|


  PM PM PM PM                                              
  S  S  S  S  Q    E  E   Q       E  E  E  E  E  E  E  E   
-------------------------------|--------------------------|
-------------------------------|--------------------------|
--------------7----L--L\-------|--------------------------|
--------------7----L--L\-------|--8--8--8--5--5--5--5--5--|
--------------5----L--L\-------|--8--8--8--5--5--5--5--5--|
--0--0--0--0-------------------|--8--8--8--5--5--5--5--5--|


  PM PM PM PM                                              
  S  S  S  S  Q    E  E   Q       E  E  E  E  E  E  E  E   
-------------------------------|--------------------------|
-------------------------------|--------------------------|
--------------7----L--L\-------|--3--3--3--5--5--5--5--5--|
--------------7----L--L\-------|--3--3--3--5--5--5--5--5--|
--------------5----L--L\-------|--1--1--1--3--3--3--3--3--|
--0--0--0--0-------------------|--------------------------|


  PM PM PM PM                                              
  S  S  S  S  Q    E  E   Q       E  E  E  E  E  E  E  E   
-------------------------------|--------------------------|
-------------------------------|--------------------------|
--------------7----L--L\-------|--------------------------|
--------------7----L--L\-------|--8--8--8--3--3--3--3--3--|
--------------5----L--L\-------|--8--8--8--3--3--3--3--3--|
--0--0--0--0-------------------|--8--8--8--3--3--3--3--3--|


                                PM PM PM      PM  PM  PM  
  E  E  E  E  E  E  E  E     E  E  E  E   E   E   E   E   
--------------------------|------------------------------|
--------------------------|------------------------------|
--------------------------|------------------------------|
--5--5--5--5--5--5--5--5--|--8-----------10--------------|
--5--5--5--5--5--5--5--5--|--8--8--8--8--10--10--10--10--|
--5--5--5--5--5--5--5--5--|--8--8--8--8--10--10--10--10--|


  E  E  E  E  E  E  E  E     E  E  E  E  E  E  E  E   
--------------------------|--------------------------|
--------------------------|--------------------------|
--------------------------|--3--3--3--3--3--3--3--3--|
--0--0--0--0--0--0--0--0--|--3--3--3--3--3--3--3--3--|
--0--0--0--0--0--0--0--0--|--1--1--1--1--1--1--1--1--|
--0--0--0--0--0--0--0--0--|--------------------------|


  E  E  E  E  E  E  E  E     E  E  E  E  E  E  E  E   
--------------------------|--------------------------|
--------------------------|--------------------------|
--5--5--5--5--5--5--5--5--|--------------------------|
--5--5--5--5--5--5--5--5--|--5--5--5--5--5--5--5--5--|
--3--3--3--3--3--3--3--3--|--5--5--5--5--5--5--5--5--|
--------------------------|--5--5--5--5--5--5--5--5--|


  E  E  E  E  E  E  E  E     E  E  E  E  E  E  E  E   
--------------------------|--------------------------|
--------------------------|--------------------------|
--------------------------|--3--3--3--3--3--3--3--3--|
--0--0--0--0--0--0--0--0--|--3--3--3--3--3--3--3--3--|
--0--0--0--0--0--0--0--0--|--1--1--1--1--1--1--1--1--|
--0--0--0--0--0--0--0--0--|--------------------------|


  E  E  E  E  E  E  E  E     E  E  E  E  E  E  E  E     E  E  Q.     E  E  E   
--------------------------|--------------------------|------------------------|
--------------------------|--------------------------|------------------------|
--5--5--5--5--5--5--5--5--|--------------------------|------------------------|
--5--5--5--5--5--5--5--5--|--0--0--0--2--2--3--3--5--|------------------------|
--3--3--3--3--3--3--3--3--|--0--0--0--2--2--3--3--5--|--0--0---------3--5--3--|
--------------------------|--0--0--0--2--2--3--3--5--|--0--0---------3--5--3--|


  PM PM                                              PM PM                  
  E  E  Q    E  E  E  E     E  E  Q.     E  E  E     E  E  Q    E.  E.  E   
-------------------------|------------------------|------------------------|
-------------------------|------------------------|------------------------|
-------------------------|------------------------|------------------------|
--------3----------------|------------------------|--------7---------------|
-------------7--5--7--5--|--0--0---------3--5--3--|-------------5---7---8--|
--0--0-------7--5--7--5--|--0--0---------3--5--3--|--0--0-------5---7---8--|


                           PM PM                        PM PM PM    PM PM     
  E  E  Q.     E  E  E     E  E  Q    E  E  E  E     E  E  E  E  E  E  E  E   
------------------------|-------------------------|--------------------------|
------------------------|-------------------------|--------------------------|
------------------------|-------------------------|--------------------------|
------------------------|--------3----------------|--3-----------5--------3--|
--0--0---------3--5--3--|-------------7--5--7--5--|--------------------------|
--0--0---------3--5--3--|--0--0-------7--5--7--5--|-----0--0--0-----0--0-----|


  PM PM    PM PM                PM PM    PM PM PM PM  
  E  E  E  E  E  E  E  E     E  E  E  E  E  E  E  E   
--------------------------|--------------------------|
--------------------------|--------------------------|
--------------------------|--------------------------|
--------3--------3--5--7--|--------------------------|
--------------------------|--5--------1-----------3--|
--0--0-----0--0-----------|-----0--3-----0--3--5-----|


     PM PM    PM PM PM PM       PM PM    PM PM PM PM  
  E  E  E  E  E  E  E  E     E  E  E  E  E  E  E  E   
--------------------------|--------------------------|
--------------------------|--------------------------|
--------------------------|--------------------------|
--------------------------|--------------------------|
--5--------1-----------3--|--5--------1-----------3--|
-----0--3-----0--3--5-----|-----0--3-----0--3--5-----|


     PM PM    PM PM PM PM    PM PM PM PM                   
  E  E  E  E  E  E  E  E     S  S  S  S  Q    E  E   Q     
--------------------------|-------------------------------|
--------------------------|-------------------------------|
--------------------------|--------------7----L--L\-------|
--------------------------|--------------7----L--L\-------|
--5--------1-----------3--|--------------5----L--L\-------|
-----0--3-----0--3--5-----|--0--0--0--0-------------------|


                             PM PM PM PM                   
  E  E  E  E  E  E  E  E     S  S  S  S  Q    E  E   Q     
--------------------------|-------------------------------|
--------------------------|-------------------------------|
--3--3--3--5--5--5--5--5--|--------------7----L--L\-------|
--3--3--3--5--5--5--5--5--|--------------7----L--L\-------|
--1--1--1--3--3--3--3--3--|--------------5----L--L\-------|
--------------------------|--0--0--0--0-------------------|


                             PM PM PM PM                   
  E  E  E  E  E  E  E  E     S  S  S  S  Q    E  E   Q     
--------------------------|-------------------------------|
--------------------------|-------------------------------|
--------------------------|--------------7----L--L\-------|
--8--8--8--5--5--5--5--5--|--------------7----L--L\-------|
--8--8--8--5--5--5--5--5--|--------------5----L--L\-------|
--8--8--8--5--5--5--5--5--|--0--0--0--0-------------------|


                             PM PM PM PM                   
  E  E  E  E  E  E  E  E     S  S  S  S  Q    E  E   Q     
--------------------------|-------------------------------|
--------------------------|-------------------------------|
--3--3--3--5--5--5--5--5--|--------------7----L--L\-------|
--3--3--3--5--5--5--5--5--|--------------7----L--L\-------|
--1--1--1--3--3--3--3--3--|--------------5----L--L\-------|
--------------------------|--0--0--0--0-------------------|


  E  E  E  E  E  E  E  E     E  E  E  E  E  E  E  E   
--------------------------|--------------------------|
--------------------------|--------------------------|
--------------------------|--------------------------|
--8--8--8--3--3--3--3--3--|--5--5--5--5--5--5--5--5--|
--8--8--8--3--3--3--3--3--|--5--5--5--5--5--5--5--5--|
--8--8--8--3--3--3--3--3--|--5--5--5--5--5--5--5--5--|


     PM PM PM      PM  PM  PM                             
  E  E  E  E   E   E   E   E     E  E  E  E  E  E  E  E   
------------------------------|--------------------------|
------------------------------|--------------------------|
------------------------------|--------------------------|
--8-----------10--------------|--0--0--0--0--0--0--0--0--|
--8--8--8--8--10--10--10--10--|--0--0--0--0--0--0--0--0--|
--8--8--8--8--10--10--10--10--|--0--0--0--0--0--0--0--0--|


  E  E  E  E  E  E  E  E     E  E  E  E  E  E  E  E   
--------------------------|--------------------------|
--------------------------|--------------------------|
--3--3--3--3--3--3--3--3--|--5--5--5--5--5--5--5--5--|
--3--3--3--3--3--3--3--3--|--5--5--5--5--5--5--5--5--|
--1--1--1--1--1--1--1--1--|--3--3--3--3--3--3--3--3--|
--------------------------|--------------------------|


  E  E  E  E  E  E  E  E     E  E  E  E  E  E  E  E   
--------------------------|--------------------------|
--------------------------|--------------------------|
--------------------------|--------------------------|
--5--5--5--5--5--5--5--5--|--0--0--0--0--0--0--0--0--|
--5--5--5--5--5--5--5--5--|--0--0--0--0--0--0--0--0--|
--5--5--5--5--5--5--5--5--|--0--0--0--0--0--0--0--0--|


  E  E  E  E  E  E  E  E     E  E  E  E  E  E  E  E   
--------------------------|--------------------------|
--------------------------|--------------------------|
--3--3--3--3--3--3--3--3--|--5--5--5--5--5--5--5--5--|
--3--3--3--3--3--3--3--3--|--5--5--5--5--5--5--5--5--|
--1--1--1--1--1--1--1--1--|--3--3--3--3--3--3--3--3--|
--------------------------|--------------------------|


  E  E  E  E  E  E  E  E     E  E  E  E  E  E  E  E   
--------------------------|--------------------------|
--------------------------|--------------------------|
--------------------------|--------------------------|
--0--0--0--2--2--3--3--5--|--0--0--0--0--0--0--0--0--|
--0--0--0--2--2--3--3--5--|--0--0--0--0--0--0--0--0--|
--0--0--0--2--2--3--3--5--|--0--0--0--0--0--0--0--0--|


  E  E  E  E  E  E  E  E     E  E  E  E  E  E  E  E   
--------------------------|--------------------------|
--------------------------|--------------------------|
--3--3--3--3--3--3--3--3--|--5--5--5--5--5--5--5--5--|
--3--3--3--3--3--3--3--3--|--5--5--5--5--5--5--5--5--|
--1--1--1--1--1--1--1--1--|--3--3--3--3--3--3--3--3--|
--------------------------|--------------------------|


  E  E  E  E  E  E  E  E     E  E  E  E  E  E  E  E   
--------------------------|--------------------------|
--------------------------|--------------------------|
--------------------------|--------------------------|
--5--5--5--5--5--5--5--5--|--0--0--0--0--0--0--0--0--|
--5--5--5--5--5--5--5--5--|--0--0--0--0--0--0--0--0--|
--5--5--5--5--5--5--5--5--|--0--0--0--0--0--0--0--0--|


  E  E  E  E  E  E  E  E     E  E  E  E  E  E  E  E   
--------------------------|--------------------------|
--------------------------|--------------------------|
--3--3--3--3--3--3--3--3--|--5--5--5--5--5--5--5--5--|
--3--3--3--3--3--3--3--3--|--5--5--5--5--5--5--5--5--|
--1--1--1--1--1--1--1--1--|--3--3--3--3--3--3--3--3--|
--------------------------|--------------------------|


                                                      PM PM                   
  E  E  E  E  E  E  E  E     E  E  Q.     E  E  E     E  E  Q    E  E  E  E   
--------------------------|------------------------|-------------------------|
--------------------------|------------------------|-------------------------|
--------------------------|------------------------|-------------------------|
--0--0--0--2--2--3--3--5--|------------------------|--------3----------------|
--0--0--0--2--2--3--3--5--|--0--0---------3--5--3--|-------------7--5--7--5--|
--0--0--0--2--2--3--3--5--|--0--0---------3--5--3--|--0--0-------7--5--7--5--|


                           PM PM                                            
  E  E  Q.     E  E  E     E  E  Q    E  E  E  E     E  E  Q.     E  E  E   
------------------------|-------------------------|------------------------|
------------------------|-------------------------|------------------------|
------------------------|-------------------------|------------------------|
------------------------|--------7----------------|------------------------|
--0--0---------3--5--3--|-------------5--7--7--8--|--0--0---------3--5--3--|
--0--0---------3--5--3--|--0--0-------5--7--7--8--|--0--0---------3--5--3--|


  PM PM                        PM PM PM    PM PM       PM PM    PM PM           
  E  E  Q    E  E  E  E     E  E  E  E  E  E  E  E     E  E  E  E  E  E  E  E   
-------------------------|--------------------------|--------------------------|
-------------------------|--------------------------|--------------------------|
-------------------------|--------------------------|--------------------------|
--------3----------------|--3-----------5--------3--|--------3--------3--5--7--|
-------------7--5--7--5--|--------------------------|--------------------------|
--0--0-------7--5--7--5--|-----0--0--0-----0--0-----|--0--0-----0--0-----------|


  E  E  E  E  E  E  E  E     E  E  E  E  E  E  E  E   
--------------------------|--------------------------|
--------------------------|--------------------------|
--------------------------|--3--3--3--3--3--3--3--3--|
--0--0--0--0--0--0--0--0--|--3--3--3--3--3--3--3--3--|
--0--0--0--0--0--0--0--0--|--1--1--1--1--1--1--1--1--|
--0--0--0--0--0--0--0--0--|--------------------------|


  E  E  E  E  E  E  E  E     E  E  E  E  E  E  E  E   
--------------------------|--------------------------|
--------------------------|--------------------------|
--5--5--5--5--5--5--5--5--|--------------------------|
--5--5--5--5--5--5--5--5--|--5--5--5--5--5--5--5--5--|
--3--3--3--3--3--3--3--3--|--5--5--5--5--5--5--5--5--|
--------------------------|--5--5--5--5--5--5--5--5--|


  E  E  E  E  E  E  E  E     E  E  E  E  E  E  E  E   
--------------------------|--------------------------|
--------------------------|--------------------------|
--------------------------|--3--3--3--3--3--3--3--3--|
--0--0--0--0--0--0--0--0--|--3--3--3--3--3--3--3--3--|
--0--0--0--0--0--0--0--0--|--1--1--1--1--1--1--1--1--|
--0--0--0--0--0--0--0--0--|--------------------------|


  E  E  E  E  E  E  E  E     E  E  E  E  E  E  E  E         
--------------------------|--------------------------|-----|
--------------------------|--------------------------|-----|
--5--5--5--5--5--5--5--5--|--------------------------|-----|
--5--5--5--5--5--5--5--5--|--0--0--0--2--2--3--3--5--|-----|
--3--3--3--3--3--3--3--3--|--0--0--0--2--2--3--3--5--|-----|
--------------------------|--0--0--0--2--2--3--3--5--|-----|


               <                                             
  H.           Q       W                   W                 
--------------------|-------------------|-------------------|
--------------------|-------------------|-------------------|
--------------------|-------------------|-------------------|
---------------0----|--0----------------|--L----------------|
---------------0----|--0----------------|--L----------------|
---------------0----|--0----------------|--L----------------|


  E  E  E  E  E  E  E  E     E  E  E  E  E  E  E  E   
--------------------------|--------------------------|
--------------------------|--------------------------|
--------------------------|--3--3--3--3--3--3--3--3--|
--0--0--0--0--0--0--0--0--|--3--3--3--3--3--3--3--3--|
--0--0--0--0--0--0--0--0--|--1--1--1--1--1--1--1--1--|
--0--0--0--0--0--0--0--0--|--------------------------|


  E  E  E  E  E  E  E  E     E  E  E  E  E  E  E  E   
--------------------------|--------------------------|
--------------------------|--------------------------|
--5--5--5--5--5--5--5--5--|--------------------------|
--5--5--5--5--5--5--5--5--|--5--5--5--5--5--5--5--5--|
--3--3--3--3--3--3--3--3--|--5--5--5--5--5--5--5--5--|
--------------------------|--5--5--5--5--5--5--5--5--|


  E  E  E  E  E  E  E  E     E  E  E  E  E  E  E  E   
--------------------------|--------------------------|
--------------------------|--------------------------|
--------------------------|--3--3--3--3--3--3--3--3--|
--0--0--0--0--0--0--0--0--|--3--3--3--3--3--3--3--3--|
--0--0--0--0--0--0--0--0--|--1--1--1--1--1--1--1--1--|
--0--0--0--0--0--0--0--0--|--------------------------|


  E  E  E  E  E  E  E  E     E  E  E  E  E  E  E  E   
--------------------------|--------------------------|
--------------------------|--------------------------|
--5--5--5--5--5--5--5--5--|--------------------------|
--5--5--5--5--5--5--5--5--|--0--0--0--2--2--3--3--5--|
--3--3--3--3--3--3--3--3--|--0--0--0--2--2--3--3--5--|
--------------------------|--0--0--0--2--2--3--3--5--|


  E  E  E  E  E  E  E  E     E  E  E  E  E  E  E  E   
--------------------------|--------------------------|
--------------------------|--------------------------|
--------------------------|--3--3--3--3--3--3--3--3--|
--0--0--0--0--0--0--0--0--|--3--3--3--3--3--3--3--3--|
--0--0--0--0--0--0--0--0--|--1--1--1--1--1--1--1--1--|
--0--0--0--0--0--0--0--0--|--------------------------|


  E  E  E  E  E  E  E  E     E  E  E  E  E  E  E  E   
--------------------------|--------------------------|
--------------------------|--------------------------|
--5--5--5--5--5--5--5--5--|--------------------------|
--5--5--5--5--5--5--5--5--|--5--5--5--5--5--5--5--5--|
--3--3--3--3--3--3--3--3--|--5--5--5--5--5--5--5--5--|
--------------------------|--5--5--5--5--5--5--5--5--|


  E  E  E  E  E  E  E  E     E  E  E  E  E  E  E  E   
--------------------------|--------------------------|
--------------------------|--------------------------|
--------------------------|--3--3--3--3--3--3--3--3--|
--0--0--0--0--0--0--0--0--|--3--3--3--3--3--3--3--3--|
--0--0--0--0--0--0--0--0--|--1--1--1--1--1--1--1--1--|
--0--0--0--0--0--0--0--0--|--------------------------|


  E  E  E  E  E  E  E  E     E  E  E  E  E  E  E  E   
--------------------------|--------------------------|
--------------------------|--------------------------|
--5--5--5--5--5--5--5--5--|--------------------------|
--5--5--5--5--5--5--5--5--|--0--0--0--2--2--3--3--5--|
--3--3--3--3--3--3--3--3--|--0--0--0--2--2--3--3--5--|
--------------------------|--0--0--0--2--2--3--3--5--|


  PM PM PM PM                                              
  S  S  S  S  Q    E  E   Q       E  E  E  E  E  E  E  E   
-------------------------------|--------------------------|
-------------------------------|--------------------------|
--------------7----L--L\-------|--3--3--3--5--5--5--5--5--|
--------------7----L--L\-------|--3--3--3--5--5--5--5--5--|
--------------5----L--L\-------|--1--1--1--3--3--3--3--3--|
--0--0--0--0-------------------|--------------------------|


  PM PM PM PM                                              
  S  S  S  S  Q    E  E   Q       E  E  E  E  E  E  E  E   
-------------------------------|--------------------------|
-------------------------------|--------------------------|
--------------7----L--L\-------|--------------------------|
--------------7----L--L\-------|--8--8--8--5--5--5--5--5--|
--------------5----L--L\-------|--8--8--8--5--5--5--5--5--|
--0--0--0--0-------------------|--8--8--8--5--5--5--5--5--|


  PM PM PM PM                                              
  S  S  S  S  Q    E  E   Q       E  E  E  E  E  E  E  E   
-------------------------------|--------------------------|
-------------------------------|--------------------------|
--------------7----L--L\-------|--3--3--3--5--5--5--5--5--|
--------------7----L--L\-------|--3--3--3--5--5--5--5--5--|
--------------5----L--L\-------|--1--1--1--3--3--3--3--3--|
--0--0--0--0-------------------|--------------------------|


  PM PM PM PM                                              
  S  S  S  S  Q    E  E   Q       E  E  E  E  E  E  E  E   
-------------------------------|--------------------------|
-------------------------------|--------------------------|
--------------7----L--L\-------|--------------------------|
--------------7----L--L\-------|--8--8--8--3--3--3--3--3--|
--------------5----L--L\-------|--8--8--8--3--3--3--3--3--|
--0--0--0--0-------------------|--8--8--8--3--3--3--3--3--|


     PM PM    PM PM PM PM       PM PM    PM PM PM PM               
  E  E  E  E  E  E  E  E     E  E  E  E  E  E  E  E                
--------------------------|--------------------------|-----|-----||
--------------------------|--------------------------|-----|-----||
--------------------------|--------------------------|-----|-----||
--------------------------|--------------------------|-----|-----||
--5--------1-----------3--|--5--------1-----------3--|-----|-----||
-----0--3-----0--3--5-----|-----0--3-----0--3--5-----|-----|-----||









Lead Guitar # 1 (Björn):


C ||-------|-------|-------|-----------|-------|-------|-------|-------|-------|
G ||-------|-------|-------|-----------|-------|-------|-------|-------|-------|
D#||-------|-------|-------|-----------|-------|-------|-------|-------|-------|
A#||-------|-------|-------|-----------|-------|-------|-------|-------|-------|
F ||-------|-------|-------|-----------|-------|-------|-------|-------|-------|
A#||-------|-------|-------|-----------|-------|-------|-------|-------|-------|


-------|-------|-------|-------|-------|-------|-------|-------|-------|
-------|-------|-------|-------|-------|-------|-------|-------|-------|
-------|-------|-------|-------|-------|-------|-------|-------|-------|
-------|-------|-------|-------|-------|-------|-------|-------|-------|
-------|-------|-------|-------|-------|-------|-------|-------|-------|
-------|-------|-------|-------|-------|-------|-------|-------|-------|


      PM PM     PM PM                                           
   E  E  E   E  E  E   Q         Q     E    E   E   E   E   E   
-----------------------------|--------15b---L---L--13--12--13--|
----------------------13~----|---L-----------------------------|
--10--------12---------------|---------------------------------|
------0--0------0--0---------|---------------------------------|
-----------------------------|---------------------------------|
-----------------------------|---------------------------------|


                   PM  PM                                    
  Q      Q     E   E   E   E      Q.       Q.        Q       
--L~--------------------------|-----------------------------|
------------------------------|-----------------------------|
--------------------------12--|--12b------12b~------12b~----|
--------14b----L--12--10------|-----------------------------|
------------------------------|-----------------------------|
------------------------------|-----------------------------|


   S  S   S   S  S  S  S  S   S   S  S  S  S  S   S   S  
--------------------------------------------------------|
--13------------13----13------------15----15------------|
-----14p-12h-14----14----14p-12h-14----14----14p-12h-14-|
--------------------------------------------------------|
--------------------------------------------------------|
--------------------------------------------------------|


   S  S   S   S  S  S  S  S   S   S  S  S  S  S   S   S  
--13------------13----13------------15----15------------|
-----15p-13h-15----15----15p-13h-15----15----15p-13h-15-|
--------------------------------------------------------|
--------------------------------------------------------|
--------------------------------------------------------|
--------------------------------------------------------|


                                 |---3---|                          
   H         Q    E   E      E   S   S   S  E   E   E   E   E   E   
--15b--------L----L--13--|--13--12h-13p-12-------------------------|
-------------------------|-----------------15--13--15--13--11--13--|
-------------------------|-----------------------------------------|
-------------------------|-----------------------------------------|
-------------------------|-----------------------------------------|
-------------------------|-----------------------------------------|


   E  Q     E   H                                                         
-------------------------|-------|-------|-------|-------|-------|-------|
--15--L~----L\-----------|-------|-------|-------|-------|-------|-------|
-------------------------|-------|-------|-------|-------|-------|-------|
-------------------------|-------|-------|-------|-------|-------|-------|
-------------------------|-------|-------|-------|-------|-------|-------|
-------------------------|-------|-------|-------|-------|-------|-------|


                                           E   E   E   E   E   E   E   E   
-------|-------|-------|-------|-------|----------------------------------|
-------|-------|-------|-------|-------|--------------13--13--13----------|
-------|-------|-------|-------|-------|--10--10--10--------------10--10--|
-------|-------|-------|-------|-------|----------------------------------|
-------|-------|-------|-------|-------|----------------------------------|
-------|-------|-------|-------|-------|----------------------------------|


   E   E   E   E  E  E  E  E      E   E   E   Q     E   E   E   
--10--10--10--10--8--8--8--8--|--------------------------------|
------------------------------|--------------------------------|
------------------------------|--------------14~----L----------|
------------------------------|--15--14--15------------14--15--|
------------------------------|--------------------------------|
------------------------------|--------------------------------|


   E   E   E   Q     E   E   E      E   E   E   Q     E   E   E   
--------------------------------|--------------------------------|
--------------------------------|--------------------------------|
--------------------------------|--------------12~----L----------|
--15--14--15------------12--14--|--15--14--15------------14--15--|
--------------15~----L----------|--------------------------------|
--------------------------------|--------------------------------|


   E   E   E   Q     E   E   E      E   E   E   Q     E   E   E   
--------------------------------|--------------------------------|
--------------------------------|--------------------------------|
--------------17~----L----------|--------------14~----L----------|
--15--14--15------------14--15--|--15--14--15------------14--15--|
--------------------------------|--------------------------------|
--------------------------------|--------------------------------|


   E   E   E   Q     E   E   E      E   E   E   Q     E   E   E   
--------------------------------|--------------------------------|
--------------------------------|--------------------------------|
--------------------------------|--------------12~----L----------|
--15--14--15------------12--14--|--15--14--15------------14--15--|
--------------15~----L----------|--------------------------------|
--------------------------------|--------------------------------|


   E   E   E   E   E   E   E   E                                             
----------------------------------|-----|-----|-----|-----|-----|-----|-----|
----------------------------------|-----|-----|-----|-----|-----|-----|-----|
----------------------------------|-----|-----|-----|-----|-----|-----|-----|
--12--12--12--14--14--15--15--17--|-----|-----|-----|-----|-----|-----|-----|
----------------------------------|-----|-----|-----|-----|-----|-----|-----|
----------------------------------|-----|-----|-----|-----|-----|-----|-----|


-----|-----|-------|-------|-------|-------|-------|-------|-------|-------|
-----|-----|-------|-------|-------|-------|-------|-------|-------|-------|
-----|-----|-------|-------|-------|-------|-------|-------|-------|-------|
-----|-----|-------|-------|-------|-------|-------|-------|-------|-------|
-----|-----|-------|-------|-------|-------|-------|-------|-------|-------|
-----|-----|-------|-------|-------|-------|-------|-------|-------|-------|


                           E   E   E   E   E   E   E   E   
-------|-------|-------|----------------------------------|
-------|-------|-------|--------------13--13--13----------|
-------|-------|-------|--10--10--10--------------10--10--|
-------|-------|-------|----------------------------------|
-------|-------|-------|----------------------------------|
-------|-------|-------|----------------------------------|


   E   E   E   E  E  E  E  E      E   E   E   Q     E   E   E   
--10--10--10--10--8--8--8--8--|--------------------------------|
------------------------------|--------------------------------|
------------------------------|--------------14~----L----------|
------------------------------|--15--14--15------------14--15--|
------------------------------|--------------------------------|
------------------------------|--------------------------------|


   E   E   E   Q     E   E   E      E   E   E   Q     E   E   E   
--------------------------------|--------------------------------|
--------------------------------|--------------------------------|
--------------------------------|--------------12~----L----------|
--15--14--15------------12--14--|--15--14--15------------14--15--|
--------------15~----L----------|--------------------------------|
--------------------------------|--------------------------------|


   E   E   E   Q     E   E   E      E   E   E   Q     E   E   E   
--------------------------------|--------------------------------|
--------------------------------|--------------------------------|
--------------17~----L----------|--------------14~----L----------|
--15--14--15------------14--15--|--15--14--15------------14--15--|
--------------------------------|--------------------------------|
--------------------------------|--------------------------------|


   E   E   E   Q     E   E   E      E   E   E   Q     E   E   E   
--------------------------------|--------------------------------|
--------------------------------|--------------------------------|
--------------------------------|--------------12~----L----------|
--15--14--15------------12--14--|--15--14--15------------14--15--|
--------------15~----L----------|--------------------------------|
--------------------------------|--------------------------------|


   E   E   E   E   E   E   E   E      E   E   E   Q     E   E   E   
----------------------------------|--------------------------------|
----------------------------------|--------------------------------|
----------------------------------|--------------14~----L----------|
--12--12--12--14--14--15--15--17--|--15--14--15------------14--15--|
----------------------------------|--------------------------------|
----------------------------------|--------------------------------|


   E   E   E   Q     E   E   E      E   E   E   Q     E   E   E   
--------------------------------|--------------------------------|
--------------------------------|--------------------------------|
--------------------------------|--------------12~----L----------|
--15--14--15------------12--14--|--15--14--15------------14--15--|
--------------15~----L----------|--------------------------------|
--------------------------------|--------------------------------|


   E   E   E   Q     E   E   E      E   E   E   Q     E   E   E   
--------------------------------|--------------------------------|
--------------------------------|--------------------------------|
--------------17~----L----------|--------------14~----L----------|
--15--14--15------------14--15--|--15--14--15------------14--15--|
--------------------------------|--------------------------------|
--------------------------------|--------------------------------|


   E   E   E   Q     E   E   E      E   E   E   Q     E   E   E   
--------------------------------|--------------------------------|
--------------------------------|--------------------------------|
--------------------------------|--------------12~----L----------|
--15--14--15------------12--14--|--15--14--15------------14--15--|
--------------15~----L----------|--------------------------------|
--------------------------------|--------------------------------|


   E   E   E   E   E   E   E   E                                             
----------------------------------|-----|-----|-----|-----|-----|-----|-----|
----------------------------------|-----|-----|-----|-----|-----|-----|-----|
----------------------------------|-----|-----|-----|-----|-----|-----|-----|
--12--12--12--14--14--15--15--17--|-----|-----|-----|-----|-----|-----|-----|
----------------------------------|-----|-----|-----|-----|-----|-----|-----|
----------------------------------|-----|-----|-----|-----|-----|-----|-----|


         E   E   E   Q     E   E   E      E   E   E   Q     E   E   E   
-----|--------------------------------|--------------------------------|
-----|--------------------------------|--------------------------------|
-----|--------------14~----L----------|--------------------------------|
-----|--15--14--15------------14--15--|--15--14--15------------12--14--|
-----|--------------------------------|--------------15~----L----------|
-----|--------------------------------|--------------------------------|


   E   E   E   Q     E   E   E      E   E   E   Q     E   E   E   
--------------------------------|--------------------------------|
--------------------------------|--------------------------------|
--------------12~----L----------|--------------17~----L----------|
--15--14--15------------14--15--|--15--14--15------------14--15--|
--------------------------------|--------------------------------|
--------------------------------|--------------------------------|


   E   E   E   Q     E   E   E      E   E   E   Q     E   E   E   
--------------------------------|--------------------------------|
--------------------------------|--------------------------------|
--------------14~----L----------|--------------------------------|
--15--14--15------------14--15--|--15--14--15------------12--14--|
--------------------------------|--------------15~----L----------|
--------------------------------|--------------------------------|


   E   E   E   Q     E   E   E      E   E   E   E   E   E   E   E   
--------------------------------|----------------------------------|
--------------------------------|----------------------------------|
--------------12~----L----------|----------------------------------|
--15--14--15------------14--15--|--12--12--12--14--14--15--15--17--|
--------------------------------|----------------------------------|
--------------------------------|----------------------------------|


  E  E  E  E  E  E  E  E     E  E  E  E  E  E  E  E   
--------------------------|--------------------------|
--------------6--6--6--6--|--5--5--5--5--------------|
--7--7--7--7--7--7--7--7--|--7--7--7--7--7--7--7--7--|
--7--7--7--7--7--7--7--7--|--7--7--7--7--7--7--7--7--|
--5--5--5--5--5--5--5--5--|--5--5--5--5--5--5--5--5--|
--------------------------|--------------------------|


   E   E   E   E   E   E   E   E      E   E   E   E   E   E   E   E   
----------------------------------|----------------------------------|
--------------13--13--13----------|--------------13--13--13----------|
--10--10--10--------------10--10--|--10--10--10--------------10--10--|
----------------------------------|----------------------------------|
----------------------------------|----------------------------------|
----------------------------------|----------------------------------|


   E   E   E   Q     E   E   E      E   E   E   Q     E   E   E   
--------------------------------|--------------------------------|
--------------------------------|--------------------------------|
--------------14~----L----------|--------------------------------|
--15--14--15------------14--15--|--15--14--15------------12--14--|
--------------------------------|--------------15~----L----------|
--------------------------------|--------------------------------|


   E   E   E   Q     E   E   E      E   E   E   Q     E   E   E   
--------------------------------|--------------------------------|
--------------------------------|--------------------------------|
--------------12~----L----------|--------------17~----L----------|
--15--14--15------------14--15--|--15--14--15------------14--15--|
--------------------------------|--------------------------------|
--------------------------------|--------------------------------|


   E   E   E   Q     E   E   E      E   E   E   Q     E   E   E   
--------------------------------|--------------------------------|
--------------------------------|--------------------------------|
--------------14~----L----------|--------------------------------|
--15--14--15------------14--15--|--15--14--15------------12--14--|
--------------------------------|--------------15~----L----------|
--------------------------------|--------------------------------|


   E   E   E   Q     E   E   E      E   E   E   E   E   E   E   E   
--------------------------------|----------------------------------|
--------------------------------|----------------------------------|
--------------12~----L----------|----------------------------------|
--15--14--15------------14--15--|--12--12--12--14--14--15--15--17--|
--------------------------------|----------------------------------|
--------------------------------|----------------------------------|


   E   E   E   Q     E   E   E      E   E   E   Q     E   E   E   
--------------------------------|--------------------------------|
--------------------------------|--------------------------------|
--------------14~----L----------|--------------------------------|
--15--14--15------------14--15--|--15--14--15------------12--14--|
--------------------------------|--------------15~----L----------|
--------------------------------|--------------------------------|


   E   E   E   Q     E   E   E      E   E   E   Q     E   E   E   
--------------------------------|--------------------------------|
--------------------------------|--------------------------------|
--------------12~----L----------|--------------17~----L----------|
--15--14--15------------14--15--|--15--14--15------------14--15--|
--------------------------------|--------------------------------|
--------------------------------|--------------------------------|


   E   E   E   Q     E   E   E      E   E   E   Q     E   E   E   
--------------------------------|--------------------------------|
--------------------------------|--------------------------------|
--------------14~----L----------|--------------------------------|
--15--14--15------------14--15--|--15--14--15------------12--14--|
--------------------------------|--------------15~----L----------|
--------------------------------|--------------------------------|


   E   E   E   Q     E   E   E      E   E   E   E   E   E   E   E               
--------------------------------|----------------------------------|-----|-----|
--------------------------------|----------------------------------|-----|-----|
--------------12~----L----------|----------------------------------|-----|-----|
--15--14--15------------14--15--|--12--12--12--14--14--15--15--17--|-----|-----|
--------------------------------|----------------------------------|-----|-----|
--------------------------------|----------------------------------|-----|-----|


-----|-----|-----|-----|-----|-----|-----|-----|-----|-----||
-----|-----|-----|-----|-----|-----|-----|-----|-----|-----||
-----|-----|-----|-----|-----|-----|-----|-----|-----|-----||
-----|-----|-----|-----|-----|-----|-----|-----|-----|-----||
-----|-----|-----|-----|-----|-----|-----|-----|-----|-----||
-----|-----|-----|-----|-----|-----|-----|-----|-----|-----||









Lead Guitar # 2 (Jesper):



C ||-------|-------|-------|-------|-------|-------|-------|-------|-------|
G ||-------|-------|-------|-------|-------|-------|-------|-------|-------|
D#||-------|-------|-------|-------|-------|-------|-------|-------|-------|
A#||-------|-------|-------|-------|-------|-------|-------|-------|-------|
F ||-------|-------|-------|-------|-------|-------|-------|-------|-------|
A#||-------|-------|-------|-------|-------|-------|-------|-------|-------|


-------|-------|-------|-------|-------|-------|-------|-------|-------|
-------|-------|-------|-------|-------|-------|-------|-------|-------|
-------|-------|-------|-------|-------|-------|-------|-------|-------|
-------|-------|-------|-------|-------|-------|-------|-------|-------|
-------|-------|-------|-------|-------|-------|-------|-------|-------|
-------|-------|-------|-------|-------|-------|-------|-------|-------|


      PM PM     PM PM                                            
   E  E  E   E  E  E   Q         Q     E     E   E   E   E   E   
-----------------------------|----------------------------------|
----------------------13~----|---L----17br---L---L--15--13--15--|
--10--------12---------------|----------------------------------|
------0--0------0--0---------|----------------------------------|
-----------------------------|----------------------------------|
-----------------------------|----------------------------------|


                   PM  PM                                    
  Q      Q     E   E   E   E      Q.       Q.        Q       
------------------------------|-----------------------------|
--L~--------------------------|-----------------------------|
--------------------------12--|--12b------12b~------12b~----|
--------14b----L--12--10------|-----------------------------|
------------------------------|-----------------------------|
------------------------------|-----------------------------|


   S  S   S   S  S  S  S  S   S   S  S  S  S  S   S   S  
--------------------------------------------------------|
--13------------13----13------------15----15------------|
-----14p-12h-14----14----14p-12h-14----14----14p-12h-14-|
--------------------------------------------------------|
--------------------------------------------------------|
--------------------------------------------------------|


   S  S   S   S  S  S  S  S   S   S  S  S  S  S   S   S  
--13------------13----13------------15----15------------|
-----15p-13h-15----15----15p-13h-15----15----15p-13h-15-|
--------------------------------------------------------|
--------------------------------------------------------|
--------------------------------------------------------|
--------------------------------------------------------|


                                 |---3---|                          
   H         Q    E   E      E   S   S   S  E   E   E   E   E   E   
--15b--------L----L--17--|--17--15h-17p-15-13--12--13--12--10--12--|
-------------------------|-----------------------------------------|
-------------------------|-----------------------------------------|
-------------------------|-----------------------------------------|
-------------------------|-----------------------------------------|
-------------------------|-----------------------------------------|


   E  Q     E   H                                                         
--13--L~----L\-----------|-------|-------|-------|-------|-------|-------|
-------------------------|-------|-------|-------|-------|-------|-------|
-------------------------|-------|-------|-------|-------|-------|-------|
-------------------------|-------|-------|-------|-------|-------|-------|
-------------------------|-------|-------|-------|-------|-------|-------|
-------------------------|-------|-------|-------|-------|-------|-------|


                                           E   E   E   E   E   E   E   E   
-------|-------|-------|-------|-------|----------------------------------|
-------|-------|-------|-------|-------|----------------------------------|
-------|-------|-------|-------|-------|----------------------------------|
-------|-------|-------|-------|-------|--15--15--15--14--14--14----------|
-------|-------|-------|-------|-------|--------------------------15--15--|
-------|-------|-------|-------|-------|----------------------------------|


   E   E   E   E   E   E   E   E      E   E   E   Q     E   E   E   
----------------------------------|--------------------------------|
----------------------------------|--------------------------------|
--14--14--14--14--12--12--12--12--|--------------14~----L----------|
----------------------------------|--15--14--15------------14--15--|
----------------------------------|--------------------------------|
----------------------------------|--------------------------------|


   E   E   E   Q     E   E   E      E   E   E   Q     E   E   E   
--------------------------------|--------------------------------|
--------------------------------|--------------------------------|
--------------------------------|--------------12~----L----------|
--15--14--15------------12--14--|--15--14--15------------14--15--|
--------------15~----L----------|--------------------------------|
--------------------------------|--------------------------------|


   E   E   E   Q     E   E   E      E   E   E   Q     E   E   E   
--------------------------------|--------------------------------|
--------------------------------|--------------------------------|
--------------17~----L----------|--------------14~----L----------|
--15--14--15------------14--15--|--15--14--15------------14--15--|
--------------------------------|--------------------------------|
--------------------------------|--------------------------------|


   E   E   E   Q     E   E   E      E   E   E   Q     E   E   E   
--------------------------------|--------------------------------|
--------------------------------|--------------------------------|
--------------------------------|--------------12~----L----------|
--15--14--15------------12--14--|--15--14--15------------14--15--|
--------------15~----L----------|--------------------------------|
--------------------------------|--------------------------------|


   E   E   E   E   E   E   E   E                                           
----------------------------------|-------|-------|-------|-------|-------|
----------------------------------|-------|-------|-------|-------|-------|
----------------------------------|-------|-------|-------|-------|-------|
--12--12--12--14--14--15--15--17--|-------|-------|-------|-------|-------|
----------------------------------|-------|-------|-------|-------|-------|
----------------------------------|-------|-------|-------|-------|-------|


-------|-------|-------|-------|-------|-------|-------|-------|-------|-------|
-------|-------|-------|-------|-------|-------|-------|-------|-------|-------|
-------|-------|-------|-------|-------|-------|-------|-------|-------|-------|
-------|-------|-------|-------|-------|-------|-------|-------|-------|-------|
-------|-------|-------|-------|-------|-------|-------|-------|-------|-------|
-------|-------|-------|-------|-------|-------|-------|-------|-------|-------|


                                           E   E   E   E   E   E   E   E   
-------|-------|-------|-------|-------|----------------------------------|
-------|-------|-------|-------|-------|----------------------------------|
-------|-------|-------|-------|-------|----------------------------------|
-------|-------|-------|-------|-------|--15--15--15--14--14--14----------|
-------|-------|-------|-------|-------|--------------------------15--15--|
-------|-------|-------|-------|-------|----------------------------------|


   E   E   E   E   E   E   E   E      E   E   E   Q     E   E   E   
----------------------------------|--------------------------------|
----------------------------------|--------------------------------|
--14--14--14--14--12--12--12--12--|--------------14~----L----------|
----------------------------------|--15--14--15------------14--15--|
----------------------------------|--------------------------------|
----------------------------------|--------------------------------|


   E   E   E   Q     E   E   E      E   E   E   Q     E   E   E   
--------------------------------|--------------------------------|
--------------------------------|--------------------------------|
--------------------------------|--------------12~----L----------|
--15--14--15------------12--14--|--15--14--15------------14--15--|
--------------15~----L----------|--------------------------------|
--------------------------------|--------------------------------|


   E   E   E   Q     E   E   E      E   E   E   Q     E   E   E   
--------------------------------|--------------------------------|
--------------------------------|--------------------------------|
--------------17~----L----------|--------------14~----L----------|
--15--14--15------------14--15--|--15--14--15------------14--15--|
--------------------------------|--------------------------------|
--------------------------------|--------------------------------|


   E   E   E   Q     E   E   E      E   E   E   Q     E   E   E   
--------------------------------|--------------------------------|
--------------------------------|--------------------------------|
--------------------------------|--------------12~----L----------|
--15--14--15------------12--14--|--15--14--15------------14--15--|
--------------15~----L----------|--------------------------------|
--------------------------------|--------------------------------|


   E   E   E   E   E   E   E   E      E   E   E   Q     E   E   E   
----------------------------------|--------------------------------|
----------------------------------|--------------------------------|
----------------------------------|--------------14~----L----------|
--12--12--12--14--14--15--15--17--|--15--14--15------------14--15--|
----------------------------------|--------------------------------|
----------------------------------|--------------------------------|


   E   E   E   Q     E   E   E      E   E   E   Q     E   E   E   
--------------------------------|--------------------------------|
--------------------------------|--------------------------------|
--------------------------------|--------------12~----L----------|
--15--14--15------------12--14--|--15--14--15------------14--15--|
--------------15~----L----------|--------------------------------|
--------------------------------|--------------------------------|


   E   E   E   Q     E   E   E      E   E   E   Q     E   E   E   
--------------------------------|--------------------------------|
--------------------------------|--------------------------------|
--------------17~----L----------|--------------14~----L----------|
--15--14--15------------14--15--|--15--14--15------------14--15--|
--------------------------------|--------------------------------|
--------------------------------|--------------------------------|


   E   E   E   Q     E   E   E      E   E   E   Q     E   E   E   
--------------------------------|--------------------------------|
--------------------------------|--------------------------------|
--------------------------------|--------------12~----L----------|
--15--14--15------------12--14--|--15--14--15------------14--15--|
--------------15~----L----------|--------------------------------|
--------------------------------|--------------------------------|


   E   E   E   E   E   E   E   E                                             
----------------------------------|-----|-----|-----|-----|-----|-----|-----|
----------------------------------|-----|-----|-----|-----|-----|-----|-----|
----------------------------------|-----|-----|-----|-----|-----|-----|-----|
--12--12--12--14--14--15--15--17--|-----|-----|-----|-----|-----|-----|-----|
----------------------------------|-----|-----|-----|-----|-----|-----|-----|
----------------------------------|-----|-----|-----|-----|-----|-----|-----|


         E   E   E   Q     E   E   E      E   E   E   Q     E   E   E   
-----|--------------------------------|--------------------------------|
-----|--------------------------------|--------------------------------|
-----|--------------14~----L----------|--------------------------------|
-----|--15--14--15------------14--15--|--15--14--15------------12--14--|
-----|--------------------------------|--------------15~----L----------|
-----|--------------------------------|--------------------------------|


   E   E   E   Q     E   E   E      E   E   E   Q     E   E   E   
--------------------------------|--------------------------------|
--------------------------------|--------------------------------|
--------------12~----L----------|--------------17~----L----------|
--15--14--15------------14--15--|--15--14--15------------14--15--|
--------------------------------|--------------------------------|
--------------------------------|--------------------------------|


   E   E   E   Q     E   E   E      E   E   E   Q     E   E   E   
--------------------------------|--------------------------------|
--------------------------------|--------------------------------|
--------------14~----L----------|--------------------------------|
--15--14--15------------14--15--|--15--14--15------------12--14--|
--------------------------------|--------------15~----L----------|
--------------------------------|--------------------------------|


   E   E   E   Q     E   E   E      E   E   E   E   E   E   E   E               
--------------------------------|----------------------------------|-----|-----|
--------------------------------|----------------------------------|-----|-----|
--------------12~----L----------|----------------------------------|-----|-----|
--15--14--15------------14--15--|--12--12--12--14--14--15--15--17--|-----|-----|
--------------------------------|----------------------------------|-----|-----|
--------------------------------|----------------------------------|-----|-----|


   E   E   E   E   E   E   E   E      E   E   E   E   E   E   E   E   
----------------------------------|----------------------------------|
----------------------------------|----------------------------------|
----------------------------------|----------------------------------|
--15--15--15--14--14--14----------|--15--15--15--14--14--14----------|
--------------------------15--15--|--------------------------15--15--|
----------------------------------|----------------------------------|


   E   E   E   Q     E   E   E      E   E   E   Q     E   E   E   
--------------------------------|--------------------------------|
--------------------------------|--------------------------------|
--------------14~----L----------|--------------------------------|
--15--14--15------------14--15--|--15--14--15------------12--14--|
--------------------------------|--------------15~----L----------|
--------------------------------|--------------------------------|


   E   E   E   Q     E   E   E      E   E   E   Q     E   E   E   
--------------------------------|--------------------------------|
--------------------------------|--------------------------------|
--------------12~----L----------|--------------17~----L----------|
--15--14--15------------14--15--|--15--14--15------------14--15--|
--------------------------------|--------------------------------|
--------------------------------|--------------------------------|


   E   E   E   Q     E   E   E      E   E   E   Q     E   E   E   
--------------------------------|--------------------------------|
--------------------------------|--------------------------------|
--------------14~----L----------|--------------------------------|
--15--14--15------------14--15--|--15--14--15------------12--14--|
--------------------------------|--------------15~----L----------|
--------------------------------|--------------------------------|


   E   E   E   Q     E   E   E      E   E   E   E   E   E   E   E   
--------------------------------|----------------------------------|
--------------------------------|----------------------------------|
--------------12~----L----------|----------------------------------|
--15--14--15------------14--15--|--12--12--12--14--14--15--15--17--|
--------------------------------|----------------------------------|
--------------------------------|----------------------------------|


   E   E   E   Q     E   E   E      E   E   E   Q     E   E   E   
--------------------------------|--------------------------------|
--------------------------------|--------------------------------|
--------------14~----L----------|--------------------------------|
--15--14--15------------14--15--|--15--14--15------------12--14--|
--------------------------------|--------------15~----L----------|
--------------------------------|--------------------------------|


   E   E   E   Q     E   E   E      E   E   E   Q     E   E   E   
--------------------------------|--------------------------------|
--------------------------------|--------------------------------|
--------------12~----L----------|--------------17~----L----------|
--15--14--15------------14--15--|--15--14--15------------14--15--|
--------------------------------|--------------------------------|
--------------------------------|--------------------------------|


   E   E   E   Q     E   E   E      E   E   E   Q     E   E   E   
--------------------------------|--------------------------------|
--------------------------------|--------------------------------|
--------------14~----L----------|--------------------------------|
--15--14--15------------14--15--|--15--14--15------------12--14--|
--------------------------------|--------------15~----L----------|
--------------------------------|--------------------------------|


   E   E   E   Q     E   E   E      E   E   E   E   E   E   E   E               
--------------------------------|----------------------------------|-----|-----|
--------------------------------|----------------------------------|-----|-----|
--------------12~----L----------|----------------------------------|-----|-----|
--15--14--15------------14--15--|--12--12--12--14--14--15--15--17--|-----|-----|
--------------------------------|----------------------------------|-----|-----|
--------------------------------|----------------------------------|-----|-----|


-----|-----|-----|-----|-----|-----|-----|-----|-----|-----||
-----|-----|-----|-----|-----|-----|-----|-----|-----|-----||
-----|-----|-----|-----|-----|-----|-----|-----|-----|-----||
-----|-----|-----|-----|-----|-----|-----|-----|-----|-----||
-----|-----|-----|-----|-----|-----|-----|-----|-----|-----||
-----|-----|-----|-----|-----|-----|-----|-----|-----|-----||






Duration Legend
---------------
W - whole
H - half
Q - quarter
E - 8th
S - 16th
T - 32nd
X - 64th
. - note dotted
|-n-|  - n-tuplets


Tablature Legend
----------------
L - tied note
x - dead note
g - grace note
(n) - ghost note
> - accentuded note
NH - natural harmonic
AH - artificial harmonic
TH - tapped harmonic
SH - semi harmonic
PH - pitch harmonic
h - hammer on
p - pull off
b - bend
br - bendRelease
pb - preBend
pbr - preBendRelease
brb - bendReleaseBend
\n/ - tremolo bar dip
\n - tremolo bar dive
-/n - tremolo bar Release up
/n\ - tremolo bar inverted dip
/n - tremolo bar return
-\n - tremolo bar Release down
S - shift slide
s - legato slide
/ -  slide into from below or out of upwards
\ -  slide into from above or out of downwards
~ - vibrato
W - wide vibrato
tr - trill
TP - tremolo picking
T - tapping
S - slap
P - pop
< - fade in
^ - brush up
v - brush down
comments
We did not receive enough feedback on this tab! Please rate:
print report bad tab
1 2 3 4 5
2 comments total.
0 reply
Les Paul11 wrote on August 21 2008, 01:03 pm

Bjorns little solo isn't right.

0 reply
1sheldon wrote on January 3 2009, 10:52 pm

this looks like a legit tab but its just not right

I want to post or [tab]
guest
You may want to rate the tab now too:
select rating
Please do not post tabs as comments. Select "correction" instead!