Oops, an error
Loading. Please wait.

The Mirrors Truth Tab

ver2
ver2

Solo

Whole song

More versions @911Tabs.com
23,542 views 30 this week
9 commentsread comments
1 2 3 4 5
excellent!
x 13
Autoscroll
+/-
esc
set tempo
stop
Contributor
NEW! There's an official Ultimate Guitar app which is ideal
for learning songs when you're away from computer. Get the app
WARNING: You are trying to view
                                    content from Ultimate-Guitar.com
                                    in an unauthorized application,
                                    which is prohibited.

                                    Please use an official Ultimate
                                    Guitar Tabs application for iPhone,
                                    iPad or Android to access legitimate
                                    chords, guitar, bass, and drum tabs
                                    from Ultimate-Guitar.com database.

                                    Type "ultimate guitar tabs" in Apple
                                    App Store's or Android Market's
                                    search to find the application.
[The Mirror's Truth]
[A Sense Of Purpose / The Mirror's Truth EP]
[In Flames]

Yes! It Matches Up! Yay! this took me forever n is kinda 
confusing.. i tihnk. lemme kno if you like the layout. its 
exported from my gp version with some mild changes. if
this turns out good i'll convert more of my gps from this album 
to tab (Y)

Follow the times, symbols at the bottum. 

--March 08, 2009/5:18 ** Chorus typo fixed--

Tuning: Drop A# / C G D# A# F A# / Drop D + 2 Steps Down
Tab: joshuaoliveira@hotmail.com

[Intro] - [00:00] - [00:13] -----------------------------------------------
     E  E  E  E  E  E  E  E     E  E  E  E  E  E  E  E   
C ||--------------------------|--------------------------|
G ||--------------------------|--------------------------|
D#||--------------------------|--------------------------|
A#||--------------------------|--------------------------|
F ||--5--------1-----------0--|--5--------1-----------0--|
A#||-----0--3-----0--3--5-----|-----0--3-----0--3--5-----|
PM      ....     .......           ....     .......      |
C ||--------------------------|--------------------------|
G ||--------------------------|--------------------------|
D#||--------------------------|--------------------------|
A#||--------------------------|--------------------------|
F ||--------------------------|--------------------------|
A#||--------------------------|--------------------------|

  E  E  E  E  E  E  E  E     E  E  E  E  E  E  E  E   
--------------------------|--------------------------|
--------------------------|--------------------------|
--------------------------|--------------------------|
--------------------------|--------------------------|
--5--------1-----------0--|--5--------1-----------0--|
-----0--3-----0--3--5-----|-----0--3-----0--3--5-----|
PM   ....     .......           ....     .......     |
--------------------------|--------------------------|
--------------------------|--------------------------|
--------------------------|--------------------------|
--------------------------|--------------------------|
--------------------------|-----------------------0--|
--------------------------|-----------------3--5-----|
PM                                          ....
   
  E  E  E  E  E  E  E  E     E  E  E  E  E  E  E  E   
--------------------------|--------------------------|
--------------------------|--------------------------|
--------------------------|--------------------------|
--------------------------|--------------------------|
--5--------1-----------0--|--5--------1-----------0--|
-----0--3-----0--3--5-----|-----0--3-----0--3--5-----|
PM   ....     .......           ....     .......     | 
--------------------------|--------------------------|
--------------------------|--------------------------|
--------------------------|--------------------------|
--3--------5--------------|--3--------5--------------|
-----------------------0--|-----------------------0--|
-----0--3-----0--3--5-----|-----0--3-----0--3--5-----|
PM   ....     ..........        ....     ..........
 
  E  E  E  E  E  E  E  E     E  E  E  E  E  E  E  E   
--------------------------|--------------------------|
--------------------------|--------------------------|
--------------------------|--------------------------|
--------------------------|--------------------------|
--5--------1-----------0--|--5--------1-----------0--|
-----0--3-----0--3--5-----|-----0--3-----0--3--5-----|
PM   ....     .......           ....     .......     |
--------------------------|--------------------------|
--------------------------|--------------------------|
--------------------------|--------------------------|
--3--------5--------------|--3--------5--------------|
-----------------------0--|-----------------------0--|
-----0--3-----0--3--5-----|-----0--3-----0--3--5-----|
PM   ....     ..........        ....     ..........
    
  E  E  E  E  E  E  E  E     W
--------------------------|-------------------|
--------------------------|-------------------|
--------------------------|-------------------|
--------------------------|-------------------|
--5--------1-----------0--|-------------------|
-----0--3-----0--3--5-----|-------------------|
PM   ....     .......                         |
--------------------------|-------------------|
--------------------------|-------------------|
--------------------------|-------------------|
--3--------5--------------|-------------------|
-----------------------0--|-------------------|
-----0--3-----0--3--5-----|-------------------|
PM   ....     .......

[Verse] - [00:13] - [00:24] 8x --------------------------------------------
     E  E  E  E  E  E  E  E     
C ||--------------------------|
G ||--------------------------|
D#||--------------------------|
A#||--------------------------|
F ||--5--------1-----------0--|
A#||-----0--3-----0--3--5-----|
PM      ....     .......

[Intro Solo] - [00:24] - [00:36]
     S  S  S  S  S  S  S  S  S  S  S  S  S  S  S 
C ||----------------------------------------------|
G ||----------------------------------------------|
D#||----------------------------------------------|
A#||--7--7--7--7--7\------------------------------|
F ||--5--5--5--5--5\------------------------------|
A#||----------------------------------------------|
PM   ..........                                   |
C ||----------------------------------------------|
G ||-------------------------------------13b~-----|
D#||-10----------------12-------------------------|
A#||-------12----12----------12----12-------------|
F ||----------------------------------------------|
A#||----------------------------------------------|
PM        ........          ........

  E  E  E  E  E  E  E  E      E   E   E   E   E   E   E   E 
---------------------------|---------------------------------|
---------------------------|---------------------------------|
---------------------------|---------------------------------|
--3--3--3--5--5--5--5--5---|--7-7-7-7-7\---------------------|
--1--1--1--3--3--3--3--3---|--5-5-5-5-5\---------------------|
---------------------------|---------------------------------|
PM                            .......                        |
--------12b----------------|---------------------------------|
-----------------15-13-15~-|---------------------------------|
---------------------------|-----------------------------12--|
---------------------------|---------14b---------12----------|
---------------------------|---------------------------------|
---------------------------|---------------------------------|
                                                             |
--------15b------13-12-13~-|---------------------------------|
---------------------------|---------------------------------|
---------------------------|---------------------------------|
---------------------------|---------------------------------|
---------------------------|---------------------------------|
---------------------------|---------------------------------|

  E   E   E   E   E   E   E   E    S S S  SS SS S S  S S S S S S  S
--------------------------------|-----------------------------------|
--------------------------------|-----------------------------------|
--------------------------------|-----------------------------------|
--8---8---8---5---5---5---5---5-|--7-7-7--77\-----------------------|
--8---8---8---5---5---5---5---5-|--5-5-5--55\-----------------------|
--8---8---8---5---5---5---5---5-|-----------------------------------|
PM                                 ........                         |
--------------------------------|--8-------8--8-------10--10--------|
--------------------------------|---10-8-10-10-10-8-10--10--10-8-10-|
--12b---------12b~----12b-12b~--|-----------------------------------|
--------------------------------|-----------------------------------|
--------------------------------|-----------------------------------|
--------------------------------|-----------------------------------|

   S  S  S  S  S  S  S  S  S  S  S  S  S  S  S  S  
--------------------------------------------------|
--------------------------------------------------|
--------------------------------------------------|
---3-----3-----3-----5-----5-----5-----5-----5----|
---1-----1-----1-----3-----3-----3-----3-----3----|
--------------------------------------------------|
                                                  |
--13----------13----13----------15----15----------|
-----15-13-15----15----15-13-15----15----15-13-15-|
--------------------------------------------------|
--------------------------------------------------|
--------------------------------------------------|
--------------------------------------------------|

                                 |--3--|
  SSSS  E  E  E  E  E  E      E  S  S  S  E  E  E  E  E  E   
---------------------------|--------------------------------|
---------------------------|--------------------------------|
---------------------------|--------------------------------|
--7777--7\-----------------|--8--8--------8--3--3--3--3--3--|
--5555--5\-----------------|--8--8--------8--3--3--3--3--3--|
---------------------------|--8--8--------8--3--3--3--3--3--|
PM....                                                      |
-15b-------------------17--|----15h17p15--------------------|
---------------------------|-------------18-17-18-17-15-----|
---------------------------|----------------------------17--|
---------------------------|--------------------------------|
---------------------------|--------------------------------|
---------------------------|--------------------------------|
                                                            |
---------------------------|--------------------------------|
------------------------18-|----17h18p17--------------------|
---------------------------|-------------19-17-19-17--------|
---------------------------|-------------------------19-17--|
---------------------------|--------------------------------|
---------------------------|--------------------------------|

  E  E  E  E  E  E  E  E    
--------------------------|
--------------------------|
--------------------------|
--------------------------|
--5--------1-----------0--|
-----0--3-----0--3--5-----|
PM   ....     .......     |    
--------------------------|
-15-----------------------|
--------------------------|
--------------------------|
--------------------------|
--------------------------|
                          |
--------------------------|
--------------------------|
--------------------------|
-19-----------------------|
--------------------------|
--------------------------|

[Verse] - [00:36] - [00:41] 3x ------------------------------------------

[Pre-Chorus] - [00:41] - [00:54] ----------------------------------------
      S S S S H.               E  E  E  E  E  E  E  E   
C ||------------------------|--------------------------|
G ||------------------------|--------------------------|
D#||------------------------|--------------------------|
A#||--7-7-7-7-7\------------|--3--3--3--5--5--5--5--5--|
F ||--5-5-5-5-5\------------|--1--1--1--3--3--3--3--3--|
A#||------------------------|--------------------------|


  S S S S H.               E  E  E  E  E  E  E  E   
------------------------|--------------------------|
------------------------|--------------------------|
------------------------|--------------------------|
--7-7-7-7-7\------------|--8--8--8--5--5--5--5--5--|
--5-5-5-5-5\------------|--8--8--8--5--5--5--5--5--|
------------------------|--8--8--8--5--5--5--5--5--|


  S S S S H.               E  E  E  E  E  E  E  E   
------------------------|--------------------------|
------------------------|--------------------------|
------------------------|--------------------------|
--7-7-7-7-7\------------|--3--3--3--5--5--5--5--5--|
--5-5-5-5-5\------------|--1--1--1--3--3--3--3--3--|
------------------------|--------------------------|


  S S S S H.               E  E  E  E  E  E  E  E    
------------------------|--------------------------|
------------------------|--------------------------|
------------------------|--------------------------|
--7-7-7-7-7\------------|--8--8--8--3--3--3--3--3--|
--5-5-5-5-5\------------|--8--8--8--3--3--3--3--3--|
------------------------|--8--8--8--3--3--3--3--3--|

  E  E  E  E  E  E  E  E     E  E  E  E  E  E  E  E  
--------------------------|--------------------------|
--------------------------|--------------------------|
--------------------------|--------------------------|
--5--5--5--5--5--5--5--5--|--3--3--3--3--5--5--5--5--|
--5--5--5--5--5--5--5--5--|--1--1--1--1--3--3--3--3--|
--5--5--5--5--5--5--5--5--|--------------------------|
PM                              .......     .     .  |
--------------------------|--------------------------|
--------------------------|--------------------------|
--10-10-10-9--9--9--------|--10-10-10-10-9--9--------|
--------------------7--7--|--------------------7--7--|
--------------------------|--------------------------|
--------------------------|--------------------------|
                                                     |
--------------------------|--------------------------|
--10-10-10----------------|--10-10-10-10-------------|
-----------12-12-12-10-10-|--------------12-12-9--9--|
--------------------------|--------------------------|
--------------------------|--------------------------|
--------------------------|--------------------------|

[Chorus] - [00:54] - [01:05] --------------------------------------------
      E  E  E  Q.     E  E     E  E  E  Q.     E  E 
C ||------------------------|------------------------|
G ||------------------------|------------------------|
D#||------------------------|------------------------|
A#||--7--7--7--7------7--7--|--3--3--3--3------3--3--|
F ||--5--5--5--5------5--5--|--1--1--1--1------1--1--|
A#||--0--0--0--0------0--0--|------------------------|
                                                     |
C ||------------------------|------------------------|
G ||----------10------------|------------------------|
D#||-10p-9h10---------9h10--|-10p-9h10---------7h-9--|
A#||------------------------|----------10------------|
F ||------------------------|------------------------|
A#||------------------------|------------------------|

  E  E  E  Q.     E  E     E  E  E  Q.     E  E  
------------------------|------------------------|
------------------------|------------------------|
------------------------|------------------------|
--5--5--5--5------5--5--|--5--5--5--5------5--5--|
--3--3--3--3------3--3--|--5--5--5--5------5--5--|
------------------------|--5--5--5--5------5--5--|
                                                 |
------------------------|-----------8------------|
-----------8------------|------------------------|
--9p-7h-9---------9h-10-|--10p9h-10--------9h10--|
------------------------|------------------------|
------------------------|------------------------|
------------------------|------------------------|

  E  E  E  Q.     E  E     E  E  E  Q.     E  E 
------------------------|------------------------|
------------------------|------------------------|
------------------------|------------------------|
--7--7--7--7------7--7--|--3--3--3--3------3--3--|
--5--5--5--5------5--5--|--1--1--1--1------1--1--|
--0--0--0--0------0--0--|------------------------|
                                                 |
------------------------|------------------------|
----------10------------|------------------------|
-10p-9h10---------9h10--|-10p-9h10---------7h-9--|
------------------------|----------10------------|
------------------------|------------------------|
------------------------|------------------------|

  E  E  E  Q.     E  E     E  E  E  E  E  E  E  E  
------------------------|--------------------------|
------------------------|--------------------------|
------------------------|--------------------------|
--5--5--5--5------5--5--|--5--5--5--2--2--3--3--5--|
--3--3--3--3------3--3--|--5--5--5--0--0--1--1--3--|
------------------------|--5--5--5-----------------|
                                                   |
------------------------|--------------------------|
-----------8------------|-----------------------8--|
--9p-7h-9---------9h-10-|-----7--7--9--9-10-10-----|
------------------------|-10-----------------------|
------------------------|--------------------------|
------------------------|--------------------------|

[Post-Chorus 1] - [01:05] - [01:15] ---------------------------------------
     E  E  E  E  E  E  E  E     E  E  Q     E  E  E  E 
C ||--------------------------|--------------------------|
G ||--------------------------|--------------------------|
D#||--------------------------|-------10\----------------|
A#||--0--0-----------3--5--3--|--------x-----7--5--7--5--|
F ||--0--0-----------3--5--3--|--0--0--8\----7--5--7--5--|
A#||--0--0-----------3--5--3--|--0--0--------7--5--7--5--|
PM                               ....                    |
C ||--------------------------|--------------------------|
G ||--------------------------|--------------------------|
D#||--------------------------|--------7\----------------|
A#||--0--0-----------3--5--3--|--------x-----7--5--7--5--|
F ||--0--0-----------3--5--3--|--0--0--5\----7--5--7--5--|
A#||--0--0-----------3--5--3--|--0--0--------7--5--7--5--|
PM                               ....

  E  E  E  E  E  E  E  E     E  E  Q     E.  E.  E 
--------------------------|-------------------------|
--------------------------|-------------------------|
--------------------------|-------14\---------------|
--0--0-----------3--5--3--|--------x-----5---7---8--|
--0--0-----------3--5--3--|--0--0-12\----5---7---8--|
--0--0-----------3--5--3--|--0--0--------5---7---8--|
PM                           ....                   |
--------------------------|-------------------------|
--------------------------|-------------------------|
--------------------------|-------10\---------------|
--0--0-----------3--5--3--|--------x-----5---7---8--|
--0--0-----------3--5--3--|--0--0--8\----5---7---8--|
--0--0-----------3--5--3--|--0--0--------5---7---8--|
PM                           ....

  E  E  E  E  E  E  E  E     E  E  Q     E  E  E  E 
--------------------------|--------------------------|
--------------------------|--------------------------|
--------------------------|-------10\----------------|
--0--0-----------3--5--3--|--------x-----7--5--7--5--|
--0--0-----------3--5--3--|--0--0--8\----7--5--7--5--|
--0--0-----------3--5--3--|--0--0--------7--5--7--5--|
PM                           ....                    |
--------------------------|--------------------------|
--------------------------|--------------------------|
--------------------------|--------7\----------------|
--0--0-----------3--5--3--|--------x-----7--5--7--5--|
--0--0-----------3--5--3--|--0--0--5\----7--5--7--5--|
--0--0-----------3--5--3--|--0--0--------7--5--7--5--|
PM                           ....

  E  E  E  E  E  E  E  E     E  E  E  E  E  E  E  E   
--------------------------|--------------------------|
--------------------------|--------------------------|
--7-----------------------|--------------------------|
--------------8--------7--|--------7--------7--8--7--|
--------------------------|--------------------------|
-----0--0--0-----0--0-----|--0--0-----0--0-----------| 
PM   .......     ....        ....     ....           |  
--------------------------|--------------------------|
--------------------------|--------------------------|
--------------------------|--------------------------|
--3-----------5--------3--|--------3--------0--2--0--|
--------------------------|--------------------------|
-----0--0--0-----0--0-----|--0--0-----0--0-----------|
PM   .......     ....        ....     ....

[Verse] - [01:15] - [01:21] 4x --------------------------------------------
[Pre-Chorus] - [01:21] - [01:34]
[Chorus] - [01:34] - [01:56] 2x -------------------------------------------

[Post-Chorus 2] - [01:56] - [02:07] ---------------------------------------
     E  E  E  E  E  E  E  E     E  E  Q     E  E  E  E 
C ||--------------------------|--------------------------|
G ||--------------------------|--------------------------|
D#||--------------------------|-------10\----------------|
A#||--0--0-----------3--5--3--|--------x-----7--5--7--5--|
F ||--0--0-----------3--5--3--|--0--0--8\----7--5--7--5--|
A#||--0--0-----------3--5--3--|--0--0--------7--5--7--5--|
PM                              ....                    |
C ||--------------------------|--------------------------|
G ||--------------------------|--------------------------|
D#||--------------------------|--------7\----------------|
A#||--0--0-----------3--5--3--|--------x-----7--5--7--5--|
F ||--0--0-----------3--5--3--|--0--0--5\----7--5--7--5--|
A#||--0--0-----------3--5--3--|--0--0--------7--5--7--5--|
PM                              ....

  E  E  E  E  E  E  E  E     E  E  Q     E  E  E  E 
--------------------------|--------------------------|
--------------------------|--------------------------|
--------------------------|-------14\----------------|
--0--0-----------3--5--3--|--------x-----7--5--7--8--|
--0--0-----------3--5--3--|--0--0-12\----7--5--7--8--|
--0--0-----------3--5--3--|--0--0--------7--5--7--8--|
PM                           ....                    |
--------------------------|--------------------------|
--------------------------|--------------------------|
--------------------------|-------10\----------------|
--0--0-----------3--5--3--|--------x-----7--5--7--8--|
--0--0-----------3--5--3--|--0--0--8\----7--5--7--8--|
--0--0-----------3--5--3--|--0--0--------7--5--7--8--|
PM                           ....

  E  E  E  E  E  E  E  E     E  E  Q     E  E  E  E 
--------------------------|--------------------------|
--------------------------|--------------------------|
--------------------------|-------10\----------------|
--0--0-----------3--5--3--|--------x-----7--5--7--5--|
--0--0-----------3--5--3--|--0--0--8\----7--5--7--5--|
--0--0-----------3--5--3--|--0--0--------7--5--7--5--|
PM                           ....                    |
--------------------------|--------------------------|
--------------------------|--------------------------|
--------------------------|--------7\----------------|
--0--0-----------3--5--3--|--------x-----7--5--7--5--|
--0--0-----------3--5--3--|--0--0--5\----7--5--7--5--|
--0--0-----------3--5--3--|--0--0--------7--5--7--5--|
PM                           ....

  E  E  E  E  E  E  E  E     E  E  E  E  E  E  E  E   
--------------------------|--------------------------|
--------------------------|--------------------------|
--7-----------------------|--------------------------|
--------------8--------7--|--------7--------7--8--7--|
--------------------------|--------------------------|
-----0--0--0-----0--0-----|--0--0-----0--0-----------| 
PM   .......     ....        ....     ....           |  
--------------------------|--------------------------|
--------------------------|--------------------------|
--------------------------|--------------------------|
--3-----------5--------3--|--------3--------0--2--0--|
--------------------------|--------------------------|
-----0--0--0-----0--0-----|--0--0-----0--0-----------|
PM   .......     ....        ....     ....

[Chorus] - [02:07] - [02:18] ----------------------------------------------

[Interlude] - [02:18] - [02:24] -------------------------------------------
       E   E   E   E   E   E   E   E      E   E   E   E   E   E   E   E    
C ||------------------13--13--13--13--|--12--12--12--12--10--10--10--10--|
G ||--10--10--10--10--10--10--10--10--|--10--10--10--10--10--10--10--10--|
D#||--10--10--10--10--10--10--10--10--|--10--10--10--10--10--10--10--10--|
A#||----------------------------------|----------------------------------|
F ||----------------------------------|----------------------------------|
A#||----------------------------------|----------------------------------|
                                       Fade In To Full Volume By Half Bar|
C ||----------------------------------|----------------------------------|
G ||----------------------------------|----------------------------------|
D#||----------------------------------|----------------------------------|
A#||----------------------------------|0<--------------------------------|
F ||----------------------------------|0<--------------------------------|
A#||----------------------------------|0<--------------------------------|

   E   E   E  E  E  E   E   E      E   E   E   E  E  E  E  E
--------------8----------------|------------------------------|
-------------------------------|------------------------------|
--10--10--10-----9--9--10--10--|--10--10--10--10--9--9--------|
-------------------------------|------------------------7--7--|
-------------------------------|------------------------------|
-------------------------------|------------------------------|
                                                              |
-------------------------------|------------------------------|
--10--10--10-------------------|------10--10--10--------------|
-------------12-12-12----------|------------------12-12-------|
-----------------------10--10--|--10--------------------10-10-|
-------------------------------|------------------------------|
-------------------------------|------------------------------|
And Let Ring                                                  |
-------------------------------|------------------------------|
-------------------------------|------------------------------|
-------------------------------|------------------------------|
--(0)--------------------------|--(0)-------------------------|
--(0)--------------------------|--(0)-------------------------|
--(0)--------------------------|--(0)-------------------------|

[Chorus] - [02:24] - [02:45] 2x -------------------------------------------

[Pre-Outro] - [02:45] - [02:56] ------------------------------------------
      S S S S H.               E  E  E  E  E  E  E  E   
C ||------------------------|--------------------------|
G ||------------------------|--------------------------|
D#||------------------------|--------------------------|
A#||--7-7-7-7-7\------------|--3--3--3--5--5--5--5--5--|
F ||--5-5-5-5-5\------------|--1--1--1--3--3--3--3--3--|
A#||------------------------|--------------------------|
PM    .......

  S S S S H.               E  E  E  E  E  E  E  E   
------------------------|--------------------------|
------------------------|--------------------------|
------------------------|--------------------------|
--7-7-7-7-7\------------|--8--8--8--5--5--5--5--5--|
--5-5-5-5-5\------------|--8--8--8--5--5--5--5--5--|
------------------------|--8--8--8--5--5--5--5--5--|
PM.......

  S S S S H.               E  E  E  E  E  E  E  E   
------------------------|--------------------------|
------------------------|--------------------------|
------------------------|--------------------------|
--7-7-7-7-7\------------|--3--3--3--5--5--5--5--5--|
--5-5-5-5-5\------------|--1--1--1--3--3--3--3--3--|
------------------------|--------------------------|
PM.......

  S S S S H.               E  E  E  E  E  E  E  E    
------------------------|--------------------------|
------------------------|--------------------------|
------------------------|--------------------------|
--7-7-7-7-7\------------|--8--8--8--3--3--3--3--3--|
--5-5-5-5-5\------------|--8--8--8--3--3--3--3--3--|
------------------------|--8--8--8--3--3--3--3--3--|
PM.......

[Outro] - [02:56] - [03:04] 2x --------------------------------------------
      E  E  E  E  E  E  E  E    
C ||--------------------------|
G ||--------------------------|
D#||--------------------------|
A#||--------------------------|
F ||--5--------1-----------0--|
A#||-----0--3-----0--3--5-----|
PM       ....     .......

Duration Legend
---------------
W - whole
H - half
Q - quarter
E - 8th
S - 16th
T - 32nd
X - 64th
. - note dotted
|-n-|  - n-tuplets


Tablature Legend
----------------
L - tied note
x - dead note
g - grace note
(n) - ghost note
> - accentuded note
NH - natural harmonic
AH - artificial harmonic
TH - tapped harmonic
SH - semi harmonic
PH - pitch harmonic
h - hammer on
p - pull off
b - bend
br - bendRelease
pb - preBend
pbr - preBendRelease
brb - bendReleaseBend
\n/ - tremolo bar dip
\n - tremolo bar dive
-/n - tremolo bar Release up
/n\ - tremolo bar inverted dip
/n - tremolo bar return
-\n - tremolo bar Release down
PM... - palm mute notes with ... under them
S - shift slide
s - legato slide
/ -  slide into from below or out of upwards
\ -  slide into from above or out of downwards
~ - vibrato
W - wide vibrato
tr - trill
TP - tremolo picking
T - tapping
S - slap
P - pop
< - fade in
^ - brush up
v - brush down

both rate n comment plz! :)
comments
print report bad tab
9 comments total. Showing first comments.
+3 reply
jackass18241 wrote on March 5 2009, 05:13 am

Hey mate. What an amazing tab!
Look like you've put A LOT of work into it.
Thanks heaps!

+2 reply
josh-josh-josh wrote on March 5 2009, 05:22 pm

:) glad you like it! lol

+2 reply
James TH wrote on April 22 2009, 11:41 am

nicely done man!

I want to post or [tab]
guest
You may want to rate the tab now too:
select rating
Please do not post tabs as comments. Select "correction" instead!