Oops, an error
Loading. Please wait.

World Of Promises Tab

ver1
ver1

Whole song

Interactive

More versions @911Tabs.com
1,449 views 1 this week
no commentswrite comment
1 2 3 4 5
worth learning
x 1
Autoscroll
+/-
esc
set tempo
stop
Hey! There's an official Ultimate Guitar app which is ideal
for learning songs when you're away from computer. Get the app
WARNING: You are trying to view
                                    content from Ultimate-Guitar.com
                                    in an unauthorized application,
                                    which is prohibited.

                                    Please use an official Ultimate
                                    Guitar Tabs application for iPhone,
                                    iPad or Android to access legitimate
                                    chords, guitar, bass, and drum tabs
                                    from Ultimate-Guitar.com database.

                                    Type "ultimate guitar tabs" in Apple
                                    App Store's or Android Market's
                                    search to find the application.
                              World Of Promises                                 


                                                                       In Flames
Guitar 1



                               |--3--|                         
      W                    E   S  S  S E   E  E   E   E    E   
C ||-------------------|--------------------------------------|
G ||-------------------|--------------------------------------|
D#||-------------------|--12--11-12-11-9----------------------|
A#||-------------------|------------------12--9~--L--12~---L--|
F ||-------------------|--------------------------------------|
C ||-------------------|--------------------------------------|


                                        |--3--|                       
   E   E   E   E   E   E  E  E      E   S  S  S E   E  E  E   E   E   
--------------------------------|------------------------------------|
--------------------------------|------------------------------------|
--------------------------------|--12--11-12-11-9--------------------|
--14~--L---L--12--12~--L--L--L--|------------------12--9--L--12---L--|
--------------------------------|------------------------------------|
--------------------------------|------------------------------------|


                                      |--3--|                       
   E  E   E   E   E  E  E  E      E   S  S  S E   E  E  E   E   E   
------------------------------|------------------------------------|
------------------------------|------------------------------------|
------------------------------|--12--11-12-11-9--------------------|
--12--L---L--14--14--L--L--L--|------------------12--9--L--12---L--|
------------------------------|------------------------------------|
------------------------------|------------------------------------|


   E  E   E   E   E  E  E  E     E   H          Q.      
------------------------------|------------------------|
------------------------------|-----19b~--------L------|
------------------------------|------------------------|
--14--L---L--12--12--L--L--L--|------------------------|
------------------------------|------------------------|
------------------------------|------------------------|


             W                    PM PM PM PM PM PM          PM PM PM PM PM PM  
  E   E  E   H        E     E  E  E  E  E  E  E  E     E  E  E  E  E  E  E  E   
-----19-----19--------L--|--------------------------|--------------------------|
-------------------------|--------------------------|--------------------------|
-------------------------|--------------------------|--------------------------|
-------------------------|--2--2--------------------|--5--5--------------------|
-------------------------|--2--2--------------------|--5--5--------------------|
-------------------------|--0--0--0--0--0--0--0--0--|--3--3--3--3--3--3--3--3--|


        PM PM PM PM PM PM                             
  E  E  E  E  E  E  E  E     E  E  E  E  E  E  E  E   
--------------------------|--5--7-----5--5-----5--7--|
--------------------------|--------8--------8--------|
--7--7--------------------|--------------------------|
--7--7--------------------|--------------------------|
--5--5--5--5--5--5--5--5--|--------------------------|
--------------------------|--------------------------|


        PM PM PM PM PM PM          PM PM PM PM PM PM  
  E  E  E  E  E  E  E  E     E  E  E  E  E  E  E  E   
--------------------------|--------------------------|
--------------------------|--------------------------|
--------------------------|--------------------------|
--2--2--------------------|--5--5--------------------|
--2--2--------------------|--5--5--------------------|
--0--0--0--0--0--0--0--0--|--3--3--3--3--3--3--3--3--|


        PM PM PM PM PM PM                              PM PM PM PM PM PM  
  E  E  E  E  E  E  E  E     W                   E  E  E  E  E  E  E  E   
--------------------------|-------------------|--------------------------|
--------------------------|-------------------|--------------------------|
--7--7--------------------|--2----------------|--------------------------|
--7--7--------------------|--2----------------|--2--2--------------------|
--5--5--5--5--5--5--5--5--|--0----------------|--2--2--------------------|
--------------------------|-------------------|--0--0--0--0--0--0--0--0--|


        PM PM PM PM PM PM          PM PM PM PM PM PM  
  E  E  E  E  E  E  E  E     E  E  E  E  E  E  E  E   
--------------------------|--------------------------|
--------------------------|--------------------------|
--------------------------|--7--7--------------------|
--5--5--------------------|--7--7--------------------|
--5--5--------------------|--5--5--5--5--5--5--5--5--|
--3--3--3--3--3--3--3--3--|--------------------------|


                                   PM PM PM PM PM PM  
  E  E  E  E  E  E  E  E     E  E  E  E  E  E  E  E   
--5--7-----5--5-----5--7--|--------------------------|
--------8--------8--------|--------------------------|
--------------------------|--------------------------|
--------------------------|--2--2--------------------|
--------------------------|--2--2--------------------|
--------------------------|--0--0--0--0--0--0--0--0--|


        PM PM PM PM PM PM          PM PM PM PM PM PM                      
  E  E  E  E  E  E  E  E     E  E  E  E  E  E  E  E     W                 
--------------------------|--------------------------|-------------------|
--------------------------|--------------------------|-------------------|
--------------------------|--7--7--------------------|--2----------------|
--5--5--------------------|--7--7--------------------|--2----------------|
--5--5--------------------|--5--5--5--5--5--5--5--5--|--0----------------|
--3--3--3--3--3--3--3--3--|--------------------------|-------------------|


  Q     E   E   E   E   E   E      E   E   E   E   E   E   E  E   
-------------------------------|---------------------------------|
-------------------------------|---------------------------------|
-------12---L---L--12--12---L--|--12b--L---L--12--12---L---L--L--|
-------------------------------|---------------------------------|
-------------------------------|---------------------------------|
-------------------------------|---------------------------------|


  Q     Q     Q     Q        E    E  E   E    E  E  E  E   
-------------------------|--------------------------------|
-------------------------|--------------------------------|
-------12----12----12----|--14b~--L--L--14~---L--L--L--L--|
-------------------------|--------------------------------|
-------------------------|--------------------------------|
-------------------------|--------------------------------|


  Q     E   E   E   E   E   E      W                 
-------------------------------|--------------------|
-------------------------------|--------------------|
-------12---L---L--12--12---L--|--12----------------|
-------------------------------|--------------------|
-------------------------------|--------------------|
-------------------------------|--------------------|


       |--3--|                                                      
   E   S  S  S E   E  E  E   E   E      E  E   E   E   E  E  E  E   
------------------------------------|------------------------------|
------------------------------------|------------------------------|
--12--11-12-11-9--------------------|------------------------------|
------------------12--9--L--12---L--|--14--L---L--12--12--L--L--L--|
------------------------------------|------------------------------|
------------------------------------|------------------------------|


       |--3--|                                                      
   E   S  S  S E   E  E  E   E   E      E  E   E   E   E  E  E  E   
------------------------------------|------------------------------|
------------------------------------|------------------------------|
--12--11-12-11-9--------------------|------------------------------|
------------------12--9--L--12---L--|--12--L---L--14--14--L--L--L--|
------------------------------------|------------------------------|
------------------------------------|------------------------------|


       |--3--|                                                      
   E   S  S  S E   E  E  E   E   E      E  E   E   E   E  E  E  E   
------------------------------------|------------------------------|
------------------------------------|------------------------------|
--12--11-12-11-9--------------------|------------------------------|
------------------12--9--L--12---L--|--14--L---L--12--12--L--L--L--|
------------------------------------|------------------------------|
------------------------------------|------------------------------|


  Q     E  E   E  E  E   E     E   E   E   E    E   E    E  E   
----------------------------|----------------------------------|
--5~----L--7~--L--L--8~--L--|--L--10~--L---L~--12---L~--13--L--|
----------------------------|----------------------------------|
----------------------------|----------------------------------|
----------------------------|----------------------------------|
----------------------------|----------------------------------|


       |--3--|                                                      
   E   S  S  S E   E  E  E   E   E      E  E   E   E   E  E  E  E   
------------------------------------|------------------------------|
------------------------------------|------------------------------|
--12--11-12-11-9--------------------|------------------------------|
------------------12--9--L--12---L--|--14--L---L--12--12--L--L--L--|
------------------------------------|------------------------------|
------------------------------------|------------------------------|


       |--3--|                                                      
   E   S  S  S E   E  E  E   E   E      E  E   E   E   E  E  E  E   
------------------------------------|------------------------------|
------------------------------------|------------------------------|
--12--11-12-11-9--------------------|------------------------------|
------------------12--9--L--12---L--|--12--L---L--14--14--L--L--L--|
------------------------------------|------------------------------|
------------------------------------|------------------------------|


       |--3--|                                                      
   E   S  S  S E   E  E  E   E   E      E  E   E   E   E  E  E  E   
------------------------------------|------------------------------|
------------------------------------|------------------------------|
--12--11-12-11-9--------------------|------------------------------|
------------------12--9--L--12---L--|--14--L---L--12--12--L--L--L--|
------------------------------------|------------------------------|
------------------------------------|------------------------------|


   Q.       Q.       Q        E   Q.       H             W                 
--12~------14~------15~----|--L--17~------17b~--------|--L----------------|
---------------------------|--------------------------|-------------------|
---------------------------|--------------------------|-------------------|
---------------------------|--------------------------|-------------------|
---------------------------|--------------------------|-------------------|
---------------------------|--------------------------|-------------------|


     PM PM PM PM PM PM     PM     PM          PM PM PM PM PM PM    PM    PM     
  E  S  S  S  S  S  S  S S S  S S S  E     E  S  S  S  S  S  S  E  S  E  S  E   
----------------------------------------|--------------------------------------|
----------------------------------------|--------------------------------------|
-----------------------4-L----2-L----4--|-----------------------5-----4-----5--|
----------------------------------------|--7-----------------------------------|
--5-------------------------------------|--5--5--5--5--5--5--5-----5-----5-----|
--0--3--3--3--3--3--3------3------3-----|--------------------------------------|


     PM PM PM PM PM PM    PM    PM          PM PM PM PM PM PM    PM    PM     
  E  S  S  S  S  S  S  E  S  E  S  E     E  S  S  S  S  S  S  E  S  E  S  E   
--------------------------------------|--------------------------------------|
--------------------------------------|--------------------------------------|
-----------------------5-----4-----2--|--------------------------------------|
--2-----------------------------------|-----------------------5-----4-----5--|
--0--0--0--0--0--0--0-----0-----0-----|--2-----------------------------------|
--------------------------------------|--0--0--0--0--0--0--0-----0-----0-----|


     PM PM PM PM PM PM    PM    PM          PM PM PM PM PM PM    PM    PM     
  E  S  S  S  S  S  S  E  S  E  S  E     E  S  S  S  S  S  S  E  S  E  S  E   
--------------------------------------|--------------------------------------|
--------------------------------------|--------------------------------------|
-----------------------4-----2-----4--|-----------------------5-----4-----5--|
--------------------------------------|--7-----------------------------------|
--5-----------------------------------|--5--5--5--5--5--5--5-----5-----5-----|
--3--3--3--3--3--3--3-----3-----3-----|--------------------------------------|


     PM PM PM PM PM PM    PM    PM                                     
  E  S  S  S  S  S  S  E  S  E  S  E     Q     E   E   E   E   E   E   
--------------------------------------|-------------------------------|
--------------------------------------|-------------------------------|
-----------------------5-----4-----2--|-------12---L---L--12--12---L--|
--2-----------------------------------|-------------------------------|
--0--0--0--0--0--0--0-----0-----0-----|-------------------------------|
--------------------------------------|-------------------------------|


   E   E   E   E   E   E   E  E     Q     Q     Q     Q     
---------------------------------|-------------------------|
---------------------------------|-------------------------|
--12b--L---L--12--12---L---L--L--|-------12----12----12----|
---------------------------------|-------------------------|
---------------------------------|-------------------------|
---------------------------------|-------------------------|


   E    E  E   E    E  E  E  E     Q     E   E   E   E   E   E   
--------------------------------|-------------------------------|
--------------------------------|-------------------------------|
--14b~--L--L--14~---L--L--L--L--|-------12---L---L--12--12---L--|
--------------------------------|-------------------------------|
--------------------------------|-------------------------------|
--------------------------------|-------------------------------|


                            |--3--|                       
   W                    E   S  S  S E   E  E  E   E   E   
--------------------|------------------------------------|
--------------------|------------------------------------|
--12----------------|--12--11-12-11-9--------------------|
--------------------|------------------12--9--L--12---L--|
--------------------|------------------------------------|
--------------------|------------------------------------|


                                      |--3--|                       
   E  E   E   E   E  E  E  E      E   S  S  S E   E  E  E   E   E   
------------------------------|------------------------------------|
------------------------------|------------------------------------|
------------------------------|--12--11-12-11-9--------------------|
--14--L---L--12--12--L--L--L--|------------------12--9--L--12---L--|
------------------------------|------------------------------------|
------------------------------|------------------------------------|


                                      |--3--|                       
   E  E   E   E   E  E  E  E      E   S  S  S E   E  E  E   E   E   
------------------------------|------------------------------------|
------------------------------|------------------------------------|
------------------------------|--12--11-12-11-9--------------------|
--12--L---L--14--14--L--L--L--|------------------12--9--L--12---L--|
------------------------------|------------------------------------|
------------------------------|------------------------------------|


   E  E   E   E   E  E  E  E     Q     E  E   E  E  E   E   
------------------------------|----------------------------|
------------------------------|--5~----L--7~--L--L--8~--L--|
------------------------------|----------------------------|
--14--L---L--12--12--L--L--L--|----------------------------|
------------------------------|----------------------------|
------------------------------|----------------------------|


                                          |--3--|                       
  E   E   E   E    E   E    E  E      E   S  S  S E   E  E  E   E   E   
----------------------------------|------------------------------------|
--L--10~--L---L~--12---L~--13--L--|------------------------------------|
----------------------------------|--12--11-12-11-9--------------------|
----------------------------------|------------------12--9--L--12---L--|
----------------------------------|------------------------------------|
----------------------------------|------------------------------------|


                                      |--3--|                       
   E  E   E   E   E  E  E  E      E   S  S  S E   E  E  E   E   E   
------------------------------|------------------------------------|
------------------------------|------------------------------------|
------------------------------|--12--11-12-11-9--------------------|
--14--L---L--12--12--L--L--L--|------------------12--9--L--12---L--|
------------------------------|------------------------------------|
------------------------------|------------------------------------|


                                      |--3--|                       
   E  E   E   E   E  E  E  E      E   S  S  S E   E  E  E   E   E   
------------------------------|------------------------------------|
------------------------------|------------------------------------|
------------------------------|--12--11-12-11-9--------------------|
--12--L---L--14--14--L--L--L--|------------------12--9--L--12---L--|
------------------------------|------------------------------------|
------------------------------|------------------------------------|


   E  E   E   E   E  E  E  E      Q.       Q.       Q        W                 
------------------------------|--15~------17~------19~----|--L----------------|
------------------------------|---------------------------|-------------------|
------------------------------|---------------------------|-------------------|
--14--L---L--12--12--L--L--L--|---------------------------|-------------------|
------------------------------|---------------------------|-------------------|
------------------------------|---------------------------|-------------------|


   E  E   E  E   H            E  E  E  Q    E  Q      
--------------------------|--------------------------|
--------------------------|--------------------------|
--------------------------|--------------------------|
--------------------------|--------------------------|
--10-----10--9~--L--------|--10--9-----9----7--7~----|
--------------------------|--------------------------|


   E  E   E  E   H           E  E  E   E   H         
--------------------------|-------------------------|
--------------------------|-------------------------|
--------------------------|-------------------------|
--------------------------|-------------------------|
--10-----10--9~--L--------|--9--7-----10~--L--------|
--------------------------|-------------------------|


   E  E   E   E   E   E   Q        Q     E   Q     E  Q      
-------------------------------|----------------------------|
-------------------------------|----------------------------|
--12-----12--11~--L--12--11----|--12----11--12----11--9~----|
-------------------------------|----------------------------|
-------------------------------|----------------------------|
-------------------------------|----------------------------|


   E  E   E   E   E   E   Q        E    E  E   E   H         
-------------------------------|----------------------------|
-------------------------------|----------------------------|
--12-----12--11~--L--12--11----|--11h--12--9--12~--L--------|
-------------------------------|----------------------------|
-------------------------------|----------------------------|
-------------------------------|----------------------------|


   E  E   E   E   E   E   Q        Q     E   Q     E  Q      
-------------------------------|----------------------------|
-------------------------------|----------------------------|
--12-----12--11~--L--12--11----|--12----11--12----11--9~----|
-------------------------------|----------------------------|
-------------------------------|----------------------------|
-------------------------------|----------------------------|


                                   |----3----|                    
   E  E   E   E   E   E   Q        E    E    E  E   E   H         
-------------------------------|---------------------------------|
-------------------------------|---------------------------------|
--12-----12--11~--L--12--11----|--11h--12p--11--9--12~--L--------|
-------------------------------|---------------------------------|
-------------------------------|---------------------------------|
-------------------------------|---------------------------------|


   E  E   E   E  E   E   Q        Q     E   Q     E  Q      
--12-----12--10--L--12--10----|--12----10--12----10--8~----|
------------------------------|----------------------------|
------------------------------|----------------------------|
------------------------------|----------------------------|
------------------------------|----------------------------|
------------------------------|----------------------------|


   E  E   E   E  E   E   Q        E    E  E   E   H         
--12-----12--10--L--12--10----|--10h--12--8--12~--L--------|
------------------------------|----------------------------|
------------------------------|----------------------------|
------------------------------|----------------------------|
------------------------------|----------------------------|
------------------------------|----------------------------|


   E  E   E   E  E   E   Q        Q     E   Q     E  Q      
--12-----12--10--L--12--10----|--12----10--12----10--8~----|
------------------------------|----------------------------|
------------------------------|----------------------------|
------------------------------|----------------------------|
------------------------------|----------------------------|
------------------------------|----------------------------|


                                  |----3----|                    
   E  E   E   E  E   E   Q        E    E    E  E   E   H         
--12-----12--10--L--12--10----|--10h--12p--10--8--12~--L--------|
------------------------------|---------------------------------|
------------------------------|---------------------------------|
------------------------------|---------------------------------|
------------------------------|---------------------------------|
------------------------------|---------------------------------|


   E  E   E   E  E   E   Q        Q     E   Q     E  Q      
--12-----12--10--L--12--10----|--12----10--12----10--8~----|
------------------------------|----------------------------|
------------------------------|----------------------------|
------------------------------|----------------------------|
------------------------------|----------------------------|
------------------------------|----------------------------|


   E  E   E   E  E   E   Q        E    E  E   E   H         
--12-----12--10--L--12--10----|--10h--12--8--12~--L--------|
------------------------------|----------------------------|
------------------------------|----------------------------|
------------------------------|----------------------------|
------------------------------|----------------------------|
------------------------------|----------------------------|


   E  E   E   E  E   E   Q        Q     E   Q     E  Q      
--12-----12--10--L--12--10----|--12----10--12----10--8~----|
------------------------------|----------------------------|
------------------------------|----------------------------|
------------------------------|----------------------------|
------------------------------|----------------------------|
------------------------------|----------------------------|


                                  |----3----|                    
   E  E   E   E  E   E   Q        E    E    E  E   E   H         
--12-----12--10--L--12--10----|--10h--12p--10--8--12~--L--------|
------------------------------|---------------------------------|
------------------------------|---------------------------------|
------------------------------|---------------------------------|
------------------------------|---------------------------------|
------------------------------|---------------------------------|


   E    S  S  E    S  S  E    S  S  E    S  S  
--12---12-12-12---12-12-12---12-12-12---12-12-|
--15b--------15b--------15b--------15b--------|
----------------------------------------------|
----------------------------------------------|
----------------------------------------------|
----------------------------------------------|


   S  S  S  S  S  S  S  S  S  S  S  S  S  S  S  S  
--15-12----12-15-12----12-15-12-14-15-17-19-20-22-|
--------15----------15----------------------------|
--------------------------------------------------|
--------------------------------------------------|
--------------------------------------------------|
--------------------------------------------------|


   E   E   E  E   E   E   E  E     S S S S S S S S S S S S  Q      
--22b--L---L--L--20b--L---L--L--|---------------------------------|
--------------------------------|---------------------------------|
--------------------------------|--7-0-5-0-4-0-2-0-4-0-2-0-21~----|
--------------------------------|---------------------------------|
--------------------------------|---------------------------------|
--------------------------------|---------------------------------|


  S S S S S S S S S S S S  S  S  S  S  
--------------------------15-14-12----|
-----------------------------------15-|
--5-0-4-0-5-0-4-0-2-0-4-0-------------|
--------------------------------------|
--------------------------------------|
--------------------------------------|


   S  S  S  S  S  S  S  S  S  S  S  S  S  S  S S  
-------------------------------------------------|
--13-12------------------------------------------|
--------16-14-12---------------------------------|
-----------------16-14-12------------------------|
--------------------------15-14-12---------------|
-----------------------------------15-14-12-10-9-|


   S  S  S  S  S  S  S  S  S  S  S  S  S  S  S  S  
-----------------------------------------------12-|
--------------------------------------12-13-15----|
-----------------------------12-14-16-------------|
--------------------12-14-15----------------------|
-----------12-14-15-------------------------------|
--12-14-15----------------------------------------|


                                           |--3--|                       
   E   E   E    E    E    E  E  E      E   S  S  S E   E  E  E   E   E   
--15~--L--17~--19~--22b~--------L--|---L---L--L--L-L---L--L--L---L---L--|
-----------------------------------|------------------------------------|
-----------------------------------|--12--11-12-11-9--------------------|
-----------------------------------|------------------12--9--L--12---L--|
-----------------------------------|------------------------------------|
-----------------------------------|------------------------------------|


                                      |--3--|                       
   E  E   E   E   E  E  E  E      E   S  S  S E   E  E  E   E   E   
------------------------------|------------------------------------|
------------------------------|------------------------------------|
------------------------------|--12--11-12-11-9--------------------|
--14--L---L--12--12--L--L--L--|------------------12--9--L--12---L--|
------------------------------|------------------------------------|
------------------------------|------------------------------------|


                                      |--3--|                       
   E  E   E   E   E  E  E  E      E   S  S  S E   E  E  E   E   E   
------------------------------|------------------------------------|
------------------------------|------------------------------------|
------------------------------|--12--11-12-11-9--------------------|
--12--L---L--14--14--L--L--L--|------------------12--9--L--12---L--|
------------------------------|------------------------------------|
------------------------------|------------------------------------|


   E  E   E   E   E  E  E  E     Q     E  E   E  E  E   E   
------------------------------|----------------------------|
------------------------------|--5~----L--7~--L--L--8~--L--|
------------------------------|----------------------------|
--14--L---L--12--12--L--L--L--|--------L------L--L---------|
------------------------------|----------------------------|
------------------------------|----------------------------|


                                          |--3--|                       
  E   E   E   E    E   E    E  E      E   S  S  S E   E  E  E   E   E   
----------------------------------|---L---L--L--L-L---L--L--L---L---L--|
--L--10~--L---L~--12---L~--13--L--|------------------------------------|
----------------------------------|--12--11-12-11-9--------------------|
--L-------L-----------------------|------------------12--9--L--12---L--|
----------------------------------|------------------------------------|
----------------------------------|------------------------------------|


                                      |--3--|                       
   E  E   E   E   E  E  E  E      E   S  S  S E   E  E  E   E   E   
------------------------------|------------------------------------|
------------------------------|------------------------------------|
------------------------------|--12--11-12-11-9--------------------|
--14--L---L--12--12--L--L--L--|------------------12--9--L--12---L--|
------------------------------|------------------------------------|
------------------------------|------------------------------------|


                                      |--3--|                       
   E  E   E   E   E  E  E  E      E   S  S  S E   E  E  E   E   E   
------------------------------|------------------------------------|
------------------------------|------------------------------------|
------------------------------|--12--11-12-11-9--------------------|
--12--L---L--14--14--L--L--L--|------------------12--9--L--12---L--|
------------------------------|------------------------------------|
------------------------------|------------------------------------|


   E  E   E   E   E  E  E  E        E      E  E  E  E  E  E  E   
------------------------------|---------------------------------|
------------------------------|--<>21b---<>L--L--L--L--L--L--L--|
------------------------------|---------------------------------|
--14--L---L--12--12--L--L--L--|---------------------------------|
------------------------------|---------------------------------|
------------------------------|---------------------------------|


  E  E  E  E  E  E  E  E      W                    W                 
--------------------------|---------------------|-------------------|
--L--L--L--L--L--L--L--L--|--21b----------------|--L----------------|
--------------------------|---------------------|-------------------|
--------------------------|---------------------|-------------------|
--------------------------|---------------------|-------------------|
--------------------------|---------------------|-------------------|


       |--3--|                                                        
   E   S  S  S  E   E   E  E   E   E      E  E   E   E   E  E  E  E   
---L---L--L--L--L---L---L--L---L---L--|------------------------------|
--------------------------------------|------------------------------|
--14--13-14-13-11---------------------|------------------------------|
-------------------14--11--L--14---L--|--16--L---L--14--14--L--L--L--|
--------------------------------------|------------------------------|
--------------------------------------|------------------------------|


       |--3--|                                                        
   E   S  S  S  E   E   E  E   E   E      E  E   E   E   E  E  E  E   
--------------------------------------|------------------------------|
--------------------------------------|------------------------------|
--14--13-14-13-11---------------------|------------------------------|
-------------------14--11--L--14---L--|--14--L---L--16--16--L--L--L--|
--------------------------------------|------------------------------|
--------------------------------------|------------------------------|


       |--3--|                                                        
   E   S  S  S  E   E   E  E   E   E      E  E   E   E   E  E  E  E   
---L----------------------------------|------------------------------|
--------------------------------------|------------------------------|
--14--13-14-13-11---------------------|------------------------------|
-------------------14--11--L--14---L--|--16--L---L--14--14--L--L--L--|
--------------------------------------|------------------------------|
--------------------------------------|------------------------------|


  Q     E  E   E  E   E   E     E   E   E   E    E   E    E  E   
-----------------------------|----------------------------------|
--7~----L--9~--L--L--10~--L--|--L--12~--L---L~--14---L~--15--L--|
-----------------------------|----------------------------------|
--------L------L--L----------|--L-------L-----------------------|
-----------------------------|----------------------------------|
-----------------------------|----------------------------------|


       |--3--|                                                        
   E   S  S  S  E   E   E  E   E   E      E  E   E   E   E  E  E  E   
---L---L--L--L--L---L---L--L---L---L--|------------------------------|
--------------------------------------|------------------------------|
--14--13-14-13-11---------------------|------------------------------|
-------------------14--11--L--14---L--|--16--L---L--14--14--L--L--L--|
--------------------------------------|------------------------------|
--------------------------------------|------------------------------|


       |--3--|                                                        
   E   S  S  S  E   E   E  E   E   E      E  E   E   E   E  E  E  E   
--------------------------------------|------------------------------|
--------------------------------------|------------------------------|
--14--13-14-13-11---------------------|------------------------------|
-------------------14--11--L--14---L--|--14--L---L--16--16--L--L--L--|
--------------------------------------|------------------------------|
--------------------------------------|------------------------------|


       |--3--|                                                        
   E   S  S  S  E   E   E  E   E   E      E  E   E   E   E  E  E  E   
---L----------------------------------|------------------------------|
--------------------------------------|------------------------------|
--14--13-14-13-11---------------------|------------------------------|
-------------------14--11--L--14---L--|--16--L---L--14--14--L--L--L--|
--------------------------------------|------------------------------|
--------------------------------------|------------------------------|


  Q     E  E   E  E   E   E     E   E   E   E    E   E    E  E    
-----------------------------|----------------------------------||
--7~----L--9~--L--L--10~--L--|--L--12~--L---L~--14---L~--15--L--||
-----------------------------|----------------------------------||
--------L------L--L----------|--L-------L--------------------L--||
-----------------------------|----------------------------------||
-----------------------------|----------------------------------||




Duration Legend
---------------
W - whole
H - half
Q - quarter
E - 8th
S - 16th
T - 32nd
X - 64th
. - note dotted
|-n-|  - n-tuplets


Tablature Legend
----------------
L - tied note
x - dead note
g - grace note
(n) - ghost note
> - accentuded note
NH - natural harmonic
AH - artificial harmonic
TH - tapped harmonic
SH - semi harmonic
PH - pitch harmonic
h - hammer on
p - pull off
b - bend
br - bendRelease
pb - preBend
pbr - preBendRelease
brb - bendReleaseBend
\n/ - tremolo bar dip
\n - tremolo bar dive
-/n - tremolo bar Release up
/n\ - tremolo bar inverted dip
/n - tremolo bar return
-\n - tremolo bar Release down
S - shift slide
s - legato slide
/ -  slide into from below or out of upwards
\ -  slide into from above or out of downwards
~ - vibrato
W - wide vibrato
tr - trill
TP - tremolo picking
T - tapping
S - slap
P - pop
< - fade in
^ - brush up
v - brush down
comments
We did not receive enough feedback on this tab! Please rate:
print report bad tab
1 2 3 4 5
I want to post or [tab]
guest
You may want to rate the tab now too:
select rating
Please do not post tabs as comments. Select "correction" instead!