Oops, an error
Loading. Please wait.

Zombie Inc Tab

ver3
ver3

Solo

Whole song

More versions @911Tabs.com
11,497 views 22 this week
no commentswrite comment
1 2 3 4 5
excellent!
x 4
Autoscroll
+/-
esc
set tempo
stop
Contributor
Tuning
C F A# D# G C
Hey! There's an official Ultimate Guitar app which is ideal
for learning songs when you're away from computer. Get the app
WARNING: You are trying to view
                                    content from Ultimate-Guitar.com
                                    in an unauthorized application,
                                    which is prohibited.

                                    Please use an official Ultimate
                                    Guitar Tabs application for iPhone,
                                    iPad or Android to access legitimate
                                    chords, guitar, bass, and drum tabs
                                    from Ultimate-Guitar.com database.

                                    Type "ultimate guitar tabs" in Apple
                                    App Store's or Android Market's
                                    search to find the application.
#----------------------------------PLEASE NOTE---------------------------------#
#This file is the author's own work and represents their interpretation of the #
#song. You may only use this file for private study, scholarship, or research. #
#------------------------------------------------------------------------------#

ZOMBIE INC.
As recorded by In Flames
(From the 1999 Album COLONY)

Transcribed by Carlos Acosta (Geeko)
	

Words by Anders Fridén Music by Jesper Strömblad, Björn Gelotte , Peter Iwers, Daniel Svensson
Arranged by In Flames

A5
x 0 2 2 x x
	
E5
0 2 2 x x x
	
C5
x 3 5 5 x x
	
G5
3 5 5 x x x

D5
x 5 7 7 x x
	
B5
x 2 4 4 x x
	
F#5
2 4 4 x x x
	
A5(type 2)
5 7 7 x x x

E5(type 2)
x 7 9 9 x x
	
A5(type 3)
5 7 x x x x
	
E5(type 3)
0 2 x x x x
	
F5
1 3 x x x x

G5(type 2)
3 5 x x x x
	
F5(type 2)
1 3 3 x x x
	
G5/D
x 5 5 7 x x
	
A5/E
x 7 7 9 x x

Esus2
x 7 9 9 7 x
	
D5(type 2)
x 5 7 x x x
	
B5(type 2)
x 2 4 x x x
	
F#m
x x x x 19 17
G
x x x x 20 19
	
Am
x x x x 22 20
	
Em
x x x x 17 15
	
Bm
x x x 16 15 x

E5(type 4)
x 7 9 x x x
	
C5(type 2)
x 3 5 x x x
	
F
1 3 3 2 x x
	
Amopen
x 0 2 2 1 x

GIII
3 5 5 4 x x
	
GIII(type 2)
3 x x x x x
	
G5/D(type 2)
x 5 5 7 x x
	
E
x 7 x x x x

Gtr I (C F Bb Eb G C) - 'Jesper Lead'
Gtr II (C F Bb Eb G C) - 'Bjorn Lead'
Gtr III (C F Bb Eb G C) - 'Jesper Rhthym'
Gtr IV (C F Bb Eb G C) - 'Bjorn Rhythm'
Gtr V (C F Bb Eb G C) - 'Solo Backing'

  Intro
   Fast Metal Q=170
   A5                    E5
  2/2
   Gtr III
    H       +Q.          E   +W
    |        |           |    |
    /        /           /    /

   Gtrs I, II
                                      ~~~~~~~~~~~
                |-3--|
    E Q   Q     S  S S E E   +E   E E E +Q   +Q
||-------------------------|----------------------|
||-------------------------|----------------------|
||-------------------------|----------9-(9)--(9)--|
||-10-9--10-----9h10p9-7---|--------9-------------|
||-----------------------7-|-(7)-10---------------|
||-------------------------|----------------------|
|
|  Gtr IV
|   H       +Q.          E   +W
||-------------------------|----------------------|
||-------------------------|----------------------|
||-------------------------|----------------------|
||--7-------(7)----------2-|-(2)------------------|
||--7-------(7)----------2-|-(2)------------------|
||--5-------(5)----------0-|-(0)------------------|


  C5               G5
   H       +Q.     E   +W
   |        |      |    |
   /        /      /    /

                                ~~~~~~~~~~~
   Q   E Q      Q  E   +E   E E E +Q   +Q
|--------------------|------------------------|
|--------------------|------------------------|
|--------9---------7-|-(7)--------------------|
|-10--10-------10----|-----10-9-7-(7)--(7)----|
|--------------------|------------------------|
|--------------------|------------------------|
|
|  H       +Q.     E   +W
|--------------------|------------------------|
|--------------------|------------------------|
|--5-------(5)-------|------------------------|
|--5-------(5)-----5-|-(5)--------------------|
|--3-------(3)-----5-|-(5)--------------------|
|------------------3-|-(3)--------------------|


  A5                    E5  E5
   H       +Q.          E   +W
   |        |           |    |
   /        /           /    /

                                     ~~~~~~~~~~~
               |-3--|
   E Q   Q     S  S S E E   +E   E E E +Q   +Q
|-------------------------|----------------------|
|-------------------------|----------------------|
|-------------------------|----------9-(9)--(9)--|
|-10-9--10-----9h10p9-7---|--------9-------------|
|-----------------------7-|-(7)-10---------------|
|-------------------------|----------------------|
|
|  H       +Q.          E   +W
|-------------------------|----------------------|
|-------------------------|----------------------|
|--2-------(2)------------|----------------------|
|--2-------(2)----------2-|-(2)------------------|
|--0-------(0)----------2-|-(2)------------------|
|-----------------------0-|-(0)------------------|


  C5                D5  D5
   H       +Q.      E   +W
   |        |       |    |
   /        /       /    /

                                     ~~
   Q   E Q     E  E E   +Q.    Q  E  Q
|---------------------|-------------------||
|---------------------|-------------------||
|-------------------7-|-(7)---------------||
|-10--10-9-----7------|-------10--9-------||
|----------------10---|-------------10----||
|---------------------|-------------------||
|
|  H       +Q.      E   +W
|---------------------|-------------------||
|---------------------|-------------------||
|--5-------(5)------7-|-(7)---------------||
|--5-------(5)------7-|-(7)---------------||
|--3-------(3)------5-|-(5)---------------||
|---------------------|-------------------||


   B5                       F#5 F#5
    H        +Q.            E   +W
    |         |             |    |
    /         /             /    /

   Gtr I
                                           ~~~~~~~~~~~~~
                  |--3--|
    E  Q   Q      S  S  S E E   +E   E  E  E  +Q    +Q
||----------------------------|--------------------------|
||----------------------------|--------------------------|
||----------------------------|-----------11-(11)--(11)--|
||-12-11--12-----11h12p11-9---|--------11----------------|
||--------------------------9-|-(9)-12-------------------|
||----------------------------|--------------------------|
|
|  Gtr II
|                                          ~~~~~~~~~~~~~
|                 |--3--|
|   E  Q   Q      S  S  S E E   +E   E  E  E  +Q    +Q
||----------------------------|--------------------------|
||----------------------------|--------------------------|
||----------------------------|-----------11-(11)--(11)--|
||-12-11--12-----11h12p11-9---|--------11----------------|
||--------------------------9-|-(9)-12-------------------|
||----------------------------|--------------------------|
|
|  Gtr IV
|   H        +Q.            E   +W
||----------------------------|--------------------------|
||----------------------------|--------------------------|
||--4--------(4)--------------|--------------------------|
||--4--------(4)------------4-|-(4)----------------------|
||--2--------(2)------------4-|-(4)----------------------|
||--------------------------2-|-(2)----------------------|


  D5                 A5(tA5e 2)
    H        +Q.     E   +W
    |         |      |    |
    /         /      /    /

           ~~                      ~~~~~~~~~~~
    Q   E  Q      Q  E   +E   E  E E +Q   +Q
|----------------------|-----------------------|
|----------------------|-----------------------|
|---------11---------9-|-(9)-------------------|
|-/12--12--------12----|-----12-11-9-(9)--(9)--|
|----------------------|-----------------------|
|----------------------|-----------------------|
|
|          ~~                      ~~~~~~~~~~~
|   Q   E  Q      Q  E   +E   E  E E +Q   +Q
|----------------------|-----------------------|
|---------10---------8-|-(8)--7----------------|
|-/11--11--------11----|---------9-7-(7)--(7)--|
|----------------------|-----------------------|
|----------------------|-----------------------|
|----------------------|-----------------------|
|
|   H        +Q.     E   +W
|----------------------|-----------------------|
|----------------------|-----------------------|
|---7--------(7)-------|-----------------------|
|---7--------(7)-----7-|-(7)-------------------|
|---5--------(5)-----7-|-(7)-------------------|
|--------------------5-|-(5)-------------------|


  B5                       F#5 F#5
   H        +Q.            E   +W
   |         |             |    |
   /         /             /    /

                                          ~~~~~~~~~~~~~
                 |--3--|
   E  Q   Q      S  S  S E E   +E   E  E  E  +Q    +Q
|----------------------------|--------------------------|
|----------------------------|--------------------------|
|----------------------------|-----------11-(11)--(11)--|
|-12-11--12-----11h12p11-9---|--------11----------------|
|--------------------------9-|-(9)-12-------------------|
|----------------------------|--------------------------|
|
|                                         ~~~~~~~~~~~~~
|                |--3--|
|  E  Q   Q      S  S  S E E   +E   E  E  E  +Q    +Q
|----------------------------|--------------------------|
|----------------------------|--------------------------|
|----------------------------|-----------11-(11)--(11)--|
|-12-11--12-----11h12p11-9---|--------11----------------|
|--------------------------9-|-(9)-12-------------------|
|----------------------------|--------------------------|
|
|  H        +Q.            E   +W
|----------------------------|--------------------------|
|----------------------------|--------------------------|
|--4--------(4)--------------|--------------------------|
|--4--------(4)------------4-|-(4)----------------------|
|--2--------(2)------------4-|-(4)----------------------|
|--------------------------2-|-(2)----------------------|


  D5                 E5(tE5e 2)
   H        +Q.      E   +W
   |         |       |    |
   /         /       /    /

                     ~~~~~~~~
   Q   E  Q     E  E E   +Q.    Q   E  Q
|----------------------|-------------------||
|----------------------|-------------------||
|--------------------9-|-(9)---------------||
|-12--12-11-----9------|-------12--11------||
|-----------------12---|--------------12---||
|----------------------|-------------------||
|
|                    ~~~~~~~~
|  Q   E  Q     E  E E   +Q.    Q   E  Q
|----------------------|-------------------||
|--------------------8-|-(8)---------------||
|----------------------|-------11---9------||
|-12--12-11-----9------|--------------11---||
|-----------------12---|-------------------||
|----------------------|-------------------||
|
|  H        +Q.      E   +W
|----------------------|-------------------||
|----------------------|-------------------||
|--7--------(7)------9-|-(9)---------------||
|--7--------(7)------9-|-(9)---------------||
|--5--------(5)------7-|-(7)---------------||
|----------------------|-------------------||


 Verse
  A5(type 3)                A5                E5(type
 4/4
   E  E  E  E  E  E  E  E    E  E  E  E  E  E  Q
   |  |     |  |  |     |    |  |     |  |  |  |
   /  /     /  /  /     /    /  /     /  /  /  /

  Gtr I
   PM------------------------------------------------
   E  E  E  E  E  E  E  E    E  E  E  E  E  E  E  E
|-------------------------|-------------------------|
|-------------------------|-------------------------|
|-------------------------|-------------------------|
|-------------------------|----------------------14-|
|-12-15-14-15-12-15-14-15-|-12-15-14-15-12-15-14----|
|-------------------------|-------------------------|
|
| Gtr II
|  PM------------------------------------------------
|  E  E  E  E  E  E  E  E    E  E  E  E  E  E  E  E
|-------------------------|-------------------------|
|-------------------------|-------------------------|
|-------------------------|----------------------12-|
|----14-12-14----14-12-14-|----14-12-14----14-12----|
|-12----------12----------|-12----------12----------|
|-------------------------|-------------------------|
|
|  PM|      PM---|      PM-----|      PM---|
|  E  E  E  E  E  E  E  E    E  E  E  E  E  E  Q
|-------------------------|-------------------------|
|-------------------------|-------------------------|
|-------------------------|-------------------------|
|-------------------------|-------------------------|
|--7--7-----7--7--7-----7-|--7--7-----7--7--7--2----|
|--5--5-----5--5--5-----5-|--5--5-----5--5--5--0----|


  F5                        F5                G5(type 2)
   E  E  E  E  E  E  E  E    E  E  E  E  E  E  Q
   |  |     |  |  |     |    |  |     |  |  |  |
   /  /     /  /  /     /    /  /     /  /  /  /

 ------------------------------------------------|
   E  E  E  E  E  E  E  E    E  E  E  E  E  E  E  E
|-------------------------|-------------------------|
|-------------------------|-------------------------|
|-------------------------|-------------------------|
|-------------------------|-------------12----------|
|----15-14-15----15-14-15-|----15-14-15----15-14----|
|-13----------13----------|-13-------------------15-|
|
|------------------------------------------------|
|  E  E  E  E  E  E  E  E    E  E  E  E  E  E  E  E
|-------------------------|-------------------------|
|-------------------------|-------------------------|
|-------------------------|-------------------------|
|----14-12-14----14-12-14-|----14-12-14-15-14-12----|
|-12----------12----------|-12-------------------14-|
|-------------------------|-------------------------|
|
|  PM|      PM---|      PM-----|      PM---|
|  E  E  E  E  E  E  E  E    E  E  E  E  E  E  Q
|-------------------------|-------------------------|
|-------------------------|-------------------------|
|-------------------------|-------------------------|
|-------------------------|-------------------------|
|--3--3-----3--3--3-----3-|--3--3-----3--3--3--5----|
|--1--1-----1--1--1-----1-|--1--1-----1--1--1--3----|


  A5(type 3)                A5                E5(type
   E  E  E  E  E  E  E  E    E  E  E  E  E  E  Q
   |  |     |  |  |     |    |  |     |  |  |  |
   /  /     /  /  /     /    /  /     /  /  /  /

   PM------------------------------------------------
   E  E  E  E  E  E  E  E    E  E  E  E  E  E  E  E
|-------------------------|-------------------------|
|-------------------------|-------------------------|
|-------------------------|-------------------------|
|-------------------------|----------------------14-|
|-12-15-14-15-12-15-14-15-|-12-15-14-15-12-15-14----|
|-------------------------|-------------------------|
|
|  PM------------------------------------------------
|  E  E  E  E  E  E  E  E    E  E  E  E  E  E  E  E
|-------------------------|-------------------------|
|-------------------------|-------------------------|
|-------------------------|----------------------12-|
|----14-12-14----14-12-14-|----14-12-14----14-12----|
|-12----------12----------|-12----------12----------|
|-------------------------|-------------------------|
|
|  PM|      PM---|      PM-----|      PM---|
|  E  E  E  E  E  E  E  E    E  E  E  E  E  E  Q
|-------------------------|-------------------------|
|-------------------------|-------------------------|
|-------------------------|-------------------------|
|-------------------------|-------------------------|
|--7--7-----7--7--7-----7-|--7--7-----7--7--7--2----|
|--5--5-----5--5--5-----5-|--5--5-----5--5--5--0----|


  F5                        B  C  B  D  G5
   E  E  E  E  E  E  Q       E  E  E  E  +H
   |  |     |  |  |          |  |  |  |   |
   /  /     /  /  /          o  o  o  o   /

 ---------------------------------|   ~~~~~~~
   E  E  E  E  E  E  E  E    E  E  E  E  +H
|-------------------------|---------------------|
|-------------------------|---------------------|
|-------------------------|---------------------|
|-------------------------|----------14-(14)----|
|----15-14-15----15-14-15-|----15-14------------|
|-13----------13----------|-13------------------|
|
|---------------------------------|   ~~~~~~~
|  E  E  E  E  E  E  E  E    E  E  E  E  +H
|-------------------------|---------------------|
|-------------------------|---------------------|
|-------------------------|----------12-(12)----|
|----14-12-14----14-12-14-|----14-12------------|
|-12----------12----------|-12------------------|
|-------------------------|---------------------|
|
|  PM|      PM---|                    ~~~~~~~
|  E  E  E  E  E  E  Q       E  E  E  E  +H
|-------------------------|---------------------|
|-------------------------|---------------------|
|-------------------------|---------------------|
|-------------------------|---------------------|
|--3--3-----3--3--3-------|--2--3--2--5--(5)----|
|--1--1-----1--1--1-------|---------------------|


  A5(type 3)                                  E5(type
   E  E  E  E  E  E  E  E    E  E  E  E  E  E  Q
   |  |     |  |  |     |    |  |     |  |  |  |
   /  /     /  /  /     /    /  /     /  /  /  /

   PM------------------------------------------------
   E  E  E  E  E  E  E  E    E  E  E  E  E  E  E  E
|-------------------------|-------------------------|
|-------------------------|-------------------------|
|-------------------------|-------------------------|
|-------------------------|----------------------14-|
|-12-15-14-15-12-15-14-15-|-12-15-14-15-12-15-14----|
|-------------------------|-------------------------|
|
|  PM------------------------------------------------
|  E  E  E  E  E  E  E  E    E  E  E  E  E  E  E  E
|-------------------------|-------------------------|
|-------------------------|-------------------------|
|-------------------------|----------------------12-|
|----14-12-14----14-12-14-|----14-12-14----14-12----|
|-12----------12----------|-12----------12----------|
|-------------------------|-------------------------|
|
|  PM|      PM---|      PM-----|      PM---|
|  E  E  E  E  E  E  E  E    E  E  E  E  E  E  Q
|-------------------------|-------------------------|
|-------------------------|-------------------------|
|-------------------------|-------------------------|
|-------------------------|-------------------------|
|--7--7-----7--7--7-----7-|--7--7-----7--7--7--2----|
|--5--5-----5--5--5-----5-|--5--5-----5--5--5--0----|


  F5                                          G5(type 2)
   E  E  E  E  E  E  E  E    E  E  E  E  E  E  Q
   |  |     |  |  |     |    |  |     |  |  |  |
   /  /     /  /  /     /    /  /     /  /  /  /

 ------------------------------------|
   E  E  E  E  E  E  E  E    E  E  E  E  Q     Q
|-------------------------|-------------------------|
|-------------------------|-------------------------|
|-------------------------|-------------------------|
|-------------------------|-------------13----12----|
|----15-14-15----15-14-15-|----15-14-15-------------|
|-13----------13----------|-13----------------------|
|
|------------------------------------------------|
|  E  E  E  E  E  E  E  E    E  E  E  E  E  E  E  E
|-------------------------|-------------------------|
|-------------------------|-------------------------|
|-------------------------|-------------------------|
|----14-12-14----14-12-14-|----14-12-14-15-14-12----|
|-12----------12----------|-12-------------------14-|
|-------------------------|-------------------------|
|
|  PM|      PM---|      PM-----|      PM---|
|  E  E  E  E  E  E  E  E    E  E  E  E  E  E  Q
|-------------------------|-------------------------|
|-------------------------|-------------------------|
|-------------------------|-------------------------|
|-------------------------|-------------------------|
|--3--3-----3--3--3-----3-|--3--3-----3--3--3--5----|
|--1--1-----1--1--1-----1-|--1--1-----1--1--1--3----|


  A5(type 3)                                  E
   E  E  E  E  E  E  E  E    E  E  E  E  E  E  Q
   |  |     |  |  |     |    |  |     |  |  |  |
   /  /     /  /  /     /    /  /     /  /  /  o

         PM------------------------------------------
   Q     E  E  E  E  E  E    E  E  E  E  E  E  E  E
|-------------------------|-------------------------|
|-------------------------|-------------------------|
|-------------------------|-------------------------|
|-------------------------|----------------------14-|
|-15----14-15-12-15-14-15-|-12-15-14-15-12-15-14----|
|-------------------------|-------------------------|
|
|  PM------------------------------------------------
|  E  E  E  E  E  E  E  E    E  E  E  E  E  E  E  E
|-------------------------|-------------------------|
|-------------------------|-------------------------|
|-------------------------|----------------------12-|
|----14-12-14----14-12-14-|----14-12-14----14-12----|
|-12----------12----------|-12----------12----------|
|-------------------------|-------------------------|
|
|  PM|      PM---|      PM-----|      PM---|
|  E  E  E  E  E  E  E  E    E  E  E  E  E  E  Q
|-------------------------|-------------------------|
|-------------------------|-------------------------|
|-------------------------|-------------------------|
|-------------------------|-------------------------|
|--7--7-----7--7--7-----7-|--7--7-----7--7--7--2----|
|--5--5-----5--5--5-----5-|--5--5-----5--5--5--0----|


  F5                                            F
   E  E  E  E  E  E  E  E    E  E  H          E  E
   |  |     |  |  |     |    |  |                |
   /  /     /  /  /     /    /  /                /

 ---------------------------------|   ~~~~~~~
   E  E  E  E  E  E  E  E    E  E  E  E  +Q.     E
|-------------------------|------------------------|
|-------------------------|------------------------|
|-------------------------|------------------------|
|-------------------------|----------14-(14)-------|
|----15-14-15----15-14-15-|----15-14-------------8-|
|-13----------13----------|-13---------------------|
|
|---------------------------------|   ~~~~~~~
|  E  E  E  E  E  E  E  E    E  E  E  E  +Q.     E
|-------------------------|------------------------|
|-------------------------|------------------------|
|-------------------------|----------12-(12)-------|
|----14-12-14----14-12-14-|----14-12---------------|
|-12----------12----------|-12-------------------8-|
|-------------------------|------------------------|
|
|  PM|      PM---|      PM-----|                 ~~
|  E  E  E  E  E  E  E  E    E  E  H          E  E
|-------------------------|------------------------|
|-------------------------|------------------------|
|-------------------------|---------------------14-|
|-------------------------|------------------------|
|--3--3-----3--3--3-----3-|--3--3------------------|
|--1--1-----1--1--1-----1-|--1--1------------------|


 Chorus
  F                          Amopen                           GIII
 2/2
   +H..                       E    +H..                        E
    |                         |     |                          |
    /                         /     /                          /

  Gtr I
                                         PM---|
               |--3---|
   +E   E Q    E   E  E   E   E    +E    E  E  E   E   E   E   E
|-------------------------------|--------------------------------|
|-------------------------------|--------------------------------|
|-------------------------------|--------------9--10p==9---------|
|-----------------------------7-|--(7)--10-12-------------12---9-|
|--(8)--7-8---10h=12p10-------0-|--(0)---------------------------|
|------------------------12-----|--------------------------------|
|
| Gtr II
|                                        PM---|
|              |--3---|
|  +E   E Q    E   E  E   E   E    +E    E  E  E   E   E   E   E
|-------------------------------|--------------------------------|
|-------------------------------|--------------------------------|
|-------------------------------|--------------------------------|
|-----------------------------7-|--(7)------9-10--12p=10---9-----|
|--(8)--7-8----7h==8p=7-------0-|--(0)--12--------------------10-|
|-------------------------8-----|--------------------------------|
|
|   ~~~~~~~~~~~~~~~~~~~~~~~~~~~~~~~~~~~~~~~~~~~~~~~~~~~~~~~~~~~~~~
|  +H         +Q         +E   E    +H             +Q      +E   E
|-------------------------------|--------------------------------|
|----------------------------13-|-(13)-----------(13)----(13)-12-|
|-(14)-------(14)-------(14)----|--------------------------------|
|-------------------------------|--------------------------------|
|-------------------------------|--------------------------------|
|-------------------------------|--------------------------------|


       GIIGIIIpe 2)     C5   C5                          F
   +E   E Q    Q.        E    +H..                        E
    |   | |    |         |     |                          |
    /   / /    /         /     /                          /

        PM     ~~~~
   +E   E Q    Q.        E    +E    E  E  E   E   E   E   E
|--------------------------|---------------------------------|
|--------------------------|---------------------------------|
|------------------------9-|--(9)--10-----9------------------|
|--(9)----9----9-----------|----------12-----10--12---9------|
|------10------------------|------------------------------8--|
|--------------------------|---------------------------------|
|
|       PM     ~~~~      PM-------------------------|
|  +E   E Q    Q.        E    +E    E  E  E   E   E   E   E
|--------------------------|---------------------------------|
|--------------------------|---------------------------------|
|--------------------------|---------------------------------|
|---------9----9--------10-|-(10)--12--9-10-------9----------|
|-(10)-10------------------|-----------------12------10---8--|
|--------------------------|---------------------------------|
|
|~~~~~~~~~~~~~~~~~~~~~~~~~~~~~~~~~~~~~~~~~~~~~~~~~~~~~~~~
|  +H         +Q    +E   E    +H             +Q      +E   E
|--------------------------|---------------------------------|
|-(12)-------(12)--(12)-13-|-(13)-----------(13)----(13)-13--|
|--------------------------|---------------------------------|
|--------------------------|---------------------------------|
|--------------------------|---------------------------------|
|--------------------------|---------------------------------|


  F                            Amopen                           GIII
   +H..                         E    +H..                        E
    |                           |     |                          |
    /                           /     /                          /

                                           PM---|
                 |--3---|
   +E    E  Q    E   E  E   E   E    +E    E  E  E   E   E   E   E
|---------------------------------|--------------------------------|
|---------------------------------|--------------------------------|
|---------------------------------|--------------9--10p==9---------|
|-------------------------------7-|--(7)--10-12-------------12---9-|
|--(8)---7--8---10h=12p10-------0-|--(0)---------------------------|
|--------------------------12-----|--------------------------------|
|
|                                          PM---|
|                |--3---|
|  +E    E  Q    E   E  E   E   E    +E    E  E  E   E   E   E   E
|---------------------------------|--------------------------------|
|---------------------------------|--------------------------------|
|---------------------------------|--------------------------------|
|-------------------------------7-|--(7)------9-10--12p=10---9-----|
|--(8)---7--8----7h==8p=7-------0-|--(0)--12--------------------10-|
|---------------------------8-----|--------------------------------|
|
|        ~~~~~~~~~~~~~~~~~~~~~~~~~~~~~~~~~~~~~~~~~~~~~~~~~~~~~~~~~~~
|  +E    E  Q   +Q         +E   E    +H             +Q      +E   E
|---------------------------------|--------------------------------|
|-(13)--12------------------------|--------------------------------|
|----------14--(14)-------(14)----|--------------------------------|
|------------------------------14-|-(14)-----------(14)----(14)-12-|
|---------------------------------|--------------------------------|
|---------------------------------|--------------------------------|


   +E   E Q    Q.        E     W
    |   | |    |
    /   / /    /

        PM     ~~~~
   +E   E Q    Q.        E    +E   E  E  E   E   E   Q
|--------------------------|---------------------------------|
|--------------------------|---------------------------------|
|------------------------9-|--(9)-10-----9-------------------|
|--(9)----9----9-----------|---------12-----10--12---9\------|
|------10------------------|---------------------------------|
|--------------------------|---------------------------------|
|
|       PM     ~~~~      PM---------------------|
|  +E   E Q    Q.        E    +E   E  E  E   E   E   Q
|--------------------------|---------------------------------|
|--------------------------|---------------------------------|
|--------------------------|---------------------------------|
|---------9----9--------10-|-(10)-12--9-10-------9-----------|
|-(10)-10------------------|----------------12------10\------|
|--------------------------|---------------------------------|
|
|~~~~~~~~~~~~~~~~~~~~~~~~~~~~~~~~~~~~~~~~~~~~~~~~~~~~~~~
|  +H         +Q    +E   E    +H            +Q      +E   +E
|--------------------------|---------------------------------|
|-----------------------13-|-(13)----------(13)----(13)-(13)-|
|--------------------------|---------------------------------|
|-(12)-------(12)--(12)----|---------------------------------|
|--------------------------|---------------------------------|
|--------------------------|---------------------------------|


   Verse
    $
    A5(type 3)                A5                E5(type
   4/4
     E  E  E  E  E  E  E  E    E  E  E  E  E  E  Q
     |  |     |  |  |     |    |  |     |  |  |  |
     /  /     /  /  /     /    /  /     /  /  /  /

     PM------------------------------------------------
     E  E  E  E  E  E  E  E    E  E  E  E  E  E  E  E
||--------------------------|-------------------------|
||o-------------------------|-------------------------|
||--------------------------|-------------------------|
||--------------------------|----------------------14-|
||o-12-15-14-15-12-15-14-15-|-12-15-14-15-12-15-14----|
||--------------------------|-------------------------|
|
|    PM------------------------------------------------
|    E  E  E  E  E  E  E  E    E  E  E  E  E  E  E  E
||--------------------------|-------------------------|
||o-------------------------|-------------------------|
||--------------------------|----------------------12-|
||-----14-12-14----14-12-14-|----14-12-14----14-12----|
||o-12----------12----------|-12----------12----------|
||--------------------------|-------------------------|
|
|   Gtr IV
|    PM|      PM---|      PM-----|      PM---|
|    E  E  E  E  E  E  E  E    E  E  E  E  E  E  Q
||--------------------------|-------------------------|
||o-------------------------|-------------------------|
||--------------------------|-------------------------|
||--------------------------|-------------------------|
||o--7--7-----7--7--7-----7-|--7--7-----7--7--7--2----|
||---5--5-----5--5--5-----5-|--5--5-----5--5--5--0----|


  F5                        F5                G5(type 2)
   E  E  E  E  E  E  E  E    E  E  E  E  E  E  Q
   |  |     |  |  |     |    |  |     |  |  |  |
   /  /     /  /  /     /    /  /     /  /  /  /

 ------------------------------------------------|
   E  E  E  E  E  E  E  E    E  E  E  E  E  E  E  E
|-------------------------|--------------------------|
|-------------------------|--------------------------|
|-------------------------|--------------------------|
|-------------------------|-------------12-----------|
|----15-14-15----15-14-15-|----15-14-15----15-14-----|
|-13----------13----------|-13-------------------15--|
|
|------------------------------------------------|
|  E  E  E  E  E  E  E  E    E  E  E  E  E  E  E  E
|-------------------------|--------------------------|
|-------------------------|--------------------------|
|-------------------------|--------------------------|
|----14-12-14----14-12-14-|----14-12-14-15-14-12-----|
|-12----------12----------|-12-------------------14--|
|-------------------------|--------------------------|
|
|  PM|      PM---|      PM-----|      PM---|
|  E  E  E  E  E  E  E  E    E  E  E  E  E  E  Q
|-------------------------|--------------------------|
|-------------------------|--------------------------|
|-------------------------|--------------------------|
|-------------------------|--------------------------|
|--3--3-----3--3--3-----3-|--3--3-----3--3--3--5-----|
|--1--1-----1--1--1-----1-|--1--1-----1--1--1--3-----|


  1.
  A5(type 3)                A5                E5(type
   E  E  E  E  E  E  E  E    E  E  E  E  E  E  Q
   |  |     |  |  |     |    |  |     |  |  |  |
   /  /     /  /  /     /    /  /     /  /  /  /

   PM------------------------------------------------
   E  E  E  E  E  E  E  E    E  E  E  E  E  E  E  E
|-------------------------|-------------------------|
|-------------------------|-------------------------|
|-------------------------|-------------------------|
|-------------------------|----------------------14-|
|-12-15-14-15-12-15-14-15-|-12-15-14-15-12-15-14----|
|-------------------------|-------------------------|
|
|  PM------------------------------------------------
|  E  E  E  E  E  E  E  E    E  E  E  E  E  E  E  E
|-------------------------|-------------------------|
|-------------------------|-------------------------|
|-------------------------|----------------------12-|
|----14-12-14----14-12-14-|----14-12-14----14-12----|
|-12----------12----------|-12----------12----------|
|-------------------------|-------------------------|
|
|  PM|      PM---|      PM-----|      PM---|
|  E  E  E  E  E  E  E  E    E  E  E  E  E  E  Q
|-------------------------|-------------------------|
|-------------------------|-------------------------|
|-------------------------|-------------------------|
|-------------------------|-------------------------|
|--7--7-----7--7--7-----7-|--7--7-----7--7--7--2----|
|--5--5-----5--5--5-----5-|--5--5-----5--5--5--0----|


  F5                        B  C  B  D       G5
   E  E  E  E  E  E  Q       E  E  E  E  +H
   |  |     |  |  |          |  |  |  |   |
   /  /     /  /  /          o  o  o  o   /

 ---------------------------------|   ~~~~~~~
   E  E  E  E  E  E  E  E    E  E  E  E  +H
|-------------------------|----------------------||
|-------------------------|---------------------o||
|-------------------------|----------------------||
|-------------------------|----------14-(14)-----||
|----15-14-15----15-14-15-|----15-14------------o||
|-13----------13----------|-13-------------------||
|
|---------------------------------|   ~~~~~~~
|  E  E  E  E  E  E  E  E    E  E  E  E  +H
|-------------------------|----------------------||
|-------------------------|---------------------o||
|-------------------------|----------12-(12)-----||
|----14-12-14----14-12-14-|----14-12-------------||
|-12----------12----------|-12------------------o||
|-------------------------|----------------------||
|
|  PM|      PM---|                    ~~~~~~~
|  E  E  E  E  E  E  Q       E  E  E  E  +H
|-------------------------|----------------------||
|-------------------------|---------------------o||
|-------------------------|----------------------||
|-------------------------|----------------------||
|--3--3-----3--3--3-------|--2--3--2--5--(5)----o||
|--1--1-----1--1--1-------|----------------------||


  2.
  A5(type 3)                                  E5(type
   E  E  E  E  E  E  E  E    E  E  E  E  E  E  Q
   |  |     |  |  |     |    |  |     |  |  |  |
   /  /     /  /  /     /    /  /     /  /  /  /

   PM------------------------------------------------
   E  E  E  E  E  E  E  E    E  E  E  E  E  E  E  E
|-------------------------|-------------------------|
|-------------------------|-------------------------|
|-------------------------|-------------------------|
|-------------------------|----------------------14-|
|-12-15-14-15-12-15-14-15-|-12-15-14-15-12-15-14----|
|-------------------------|-------------------------|
|
|  PM------------------------------------------------
|  E  E  E  E  E  E  E  E    E  E  E  E  E  E  E  E
|-------------------------|-------------------------|
|-------------------------|-------------------------|
|-------------------------|----------------------12-|
|----14-12-14----14-12-14-|----14-12-14----14-12----|
|-12----------12----------|-12----------12----------|
|-------------------------|-------------------------|
|
|  PM|      PM---|      PM-----|      PM---|
|  E  E  E  E  E  E  E  E    E  E  E  E  E  E  Q
|-------------------------|-------------------------|
|-------------------------|-------------------------|
|-------------------------|-------------------------|
|-------------------------|-------------------------|
|--7--7-----7--7--7-----7-|--7--7-----7--7--7--2----|
|--5--5-----5--5--5-----5-|--5--5-----5--5--5--0----|


  F5                        B  C  B  D          F
   E  E  E  E  E  E  Q       E  E  E  E  +Q.     E
   |  |     |  |  |          |  |  |  |   |      |
   /  /     /  /  /          o  o  o  o   /      /

 ---------------------------------|   ~~~~~~~
   E  E  E  E  E  E  E  E    E  E  E  E  +Q.     E
|-------------------------|------------------------||
|-------------------------|------------------------||
|-------------------------|------------------------||
|-------------------------|----------14-(14)-------||
|----15-14-15----15-14-15-|----15-14-------------8-||
|-13----------13----------|-13---------------------||
|
|---------------------------------|   ~~~~~~~
|  E  E  E  E  E  E  E  E    E  E  E  E  +Q.     E
|-------------------------|------------------------||
|-------------------------|------------------------||
|-------------------------|----------12-(12)-------||
|----14-12-14----14-12-14-|----14-12---------------||
|-12----------12----------|-12-------------------8-||
|-------------------------|------------------------||
|
|  PM|      PM---|      PM-----|                 ~~
|  E  E  E  E  E  E  E  E    E  E  H          E  E
|-------------------------|------------------------||
|-------------------------|------------------------||
|-------------------------|---------------------14-||
|-------------------------|------------------------||
|--3--3-----3--3--3-----3-|--3--3------------------||
|--1--1-----1--1--1-----1-|--1--1------------------||


   Chorus
    F                         Amopen                          GIII
   2/2
     +H        +Q.             E    +H            +Q.          E
      |         |              |     |             |           |
      /         /              /     /             /           /

    Gtr I
                                         PM---|
                |--3---|
     +E  E Q    E   E  E   E   E    +E   E  E  E   E   E   E   E
||-------------------------------|-------------------------------|
||o------------------------------|-------------------------------|
||-------------------------------|-------------9--10p==9---------|
||-----------------------------7-|--(7)-10-12-------------12---9-|
||o--(8)-7-8---10h=12p10-------0-|--(0)--------------------------|
||------------------------12-----|-------------------------------|
|
|   Gtr II
|                                        PM---|
|               |--3---|
|    +E  E Q    E   E  E   E   E    +E   E  E  E   E   E   E   E
||-------------------------------|-------------------------------|
||o------------------------------|-------------------------------|
||-------------------------------|-------------------------------|
||-----------------------------7-|--(7)-----9-10--12p=10---9-----|
||o--(8)-7-8----7h==8p=7-------0-|--(0)-12--------------------10-|
||-------------------------8-----|-------------------------------|
|
|     ~~~~~~~~~~~~~~~~~~~~~~~~~~~~~~~~~~~~~~~~~~~~~~~~~~~~~~~~~~~~
|    +H        +Q         +E   E    +H            +Q      +E   E
||-------------------------------|-------------------------------|
||o---------------------------13-|-(13)----------(13)----(13)-12-|
||--(14)------(14)-------(14)----|-------------------------------|
||-------------------------------|-------------------------------|
||o------------------------------|-------------------------------|
||-------------------------------|-------------------------------|


                        C5                               F
   +E   E Q    Q.        E    +H..                        E
    |   | |    |         |     |                          |
    /   / /    /         /     /                          /

        PM     ~~~~
   +E   E Q    Q.        E    +E    E  E  E   E   E   E   E
|--------------------------|--------------------------------|
|--------------------------|--------------------------------|
|------------------------9-|--(9)--10-----9-----------------|
|--(9)----9----9-----------|----------12-----10--12---9-----|
|------10------------------|------------------------------8-|
|--------------------------|--------------------------------|
|
|       PM     ~~~~      PM-------------------------|
|  +E   E Q    Q.        E    +E    E  E  E   E   E   E   E
|--------------------------|--------------------------------|
|--------------------------|--------------------------------|
|--------------------------|--------------------------------|
|---------9----9--------10-|-(10)--12--9-10-------9---------|
|-(10)-10------------------|-----------------12------10---8-|
|--------------------------|--------------------------------|
|
|~~~~~~~~~~~~~~~~~~~~~~~~~~~~~~~~~~~~~~~~~~~~~~~~~~~~~~~~
|  +H         +Q    +E   E    +H             +Q      +E   E
|--------------------------|--------------------------------|
|-(12)-------(12)--(12)-13-|-(13)-----------(13)----(13)-13-|
|--------------------------|--------------------------------|
|--------------------------|--------------------------------|
|--------------------------|--------------------------------|
|--------------------------|--------------------------------|


  1.
  F                           Amopen                           GIII
  +H..                         E    +H..                        E
   |                           |     |                          |
   /                           /     /                          /

                                          PM---|
                |--3---|
  +E    E  Q    E   E  E   E   E    +E    E  E  E   E   E   E   E
|--------------------------------|--------------------------------|
|--------------------------------|--------------------------------|
|--------------------------------|--------------9--10p==9---------|
|------------------------------7-|--(7)--10-12-------------12---9-|
|-(8)---7--8---10h=12p10-------0-|--(0)---------------------------|
|-------------------------12-----|--------------------------------|
|
|                                         PM---|
|               |--3---|
| +E    E  Q    E   E  E   E   E    +E    E  E  E   E   E   E   E
|--------------------------------|--------------------------------|
|--------------------------------|--------------------------------|
|--------------------------------|--------------------------------|
|------------------------------7-|--(7)------9-10--12p=10---9-----|
|-(8)---7--8----7h==8p=7-------0-|--(0)--12--------------------10-|
|--------------------------8-----|--------------------------------|
|
|       ~~~~~~~~~~~~~~~~~~~~~~~~~~~~~~~~~~~~~~~~~~~~~~~~~~~~~~~~~~~
|  E    E  Q   +Q         +E   E    +H             +Q      +E   E
|--------------------------------|--------------------------------|
|-13---12------------------------|--------------------------------|
|---------14--(14)-------(14)----|--------------------------------|
|-----------------------------14-|-(14)-----------(14)----(14)-12-|
|--------------------------------|--------------------------------|
|--------------------------------|--------------------------------|


                        C5                               F
   +E   E Q    Q.        E    +H..                        E
    |   | |    |         |     |                          |
    /   / /    /         /     /                          /

        PM     ~~~~
   +E   E Q    Q.        E    +E    E  E  E   E   E   E   E
|--------------------------|---------------------------------||
|--------------------------|--------------------------------o||
|------------------------9-|--(9)--10-----9------------------||
|--(9)----9----9-----------|----------12-----10--12---9------||
|------10------------------|------------------------------8-o||
|--------------------------|---------------------------------||
|
|       PM     ~~~~      PM-------------------------|
|  +E   E Q    Q.        E    +E    E  E  E   E   E   E   E
|--------------------------|---------------------------------||
|--------------------------|--------------------------------o||
|--------------------------|---------------------------------||
|---------9----9--------10-|-(10)--12--9-10-------9----------||
|-(10)-10------------------|-----------------12------10---8-o||
|--------------------------|---------------------------------||
|
|~~~~~~~~~~~~~~~~~~~~~~~~~~~~~~~~~~~~~~~~~~~~~~~~~~~~~~~~~~~
|  +H         +Q    +E   E    +H             +Q      +E   E
|--------------------------|---------------------------------||
|-----------------------13-|-(13)-----------(13)----(13)----o||
|--------------------------|-----------------------------14--||
|-(12)-------(12)--(12)----|---------------------------------||
|--------------------------|--------------------------------o||
|--------------------------|---------------------------------||


  2.
  F                           Amopen                           GIII
  +H..                         E    +H..                        E
   |                           |     |                          |
   /                           /     /                          /

                                          PM---|
                |--3---|
  +E    E  Q    E   E  E   E   E    +E    E  E  E   E   E   E   E
|--------------------------------|--------------------------------|
|--------------------------------|--------------------------------|
|--------------------------------|--------------9--10p==9---------|
|------------------------------7-|--(7)--10-12-------------12---9-|
|-(8)---7--8---10h=12p10-------0-|--(0)---------------------------|
|-------------------------12-----|--------------------------------|
|
|                                         PM---|
|               |--3---|
| +E    E  Q    E   E  E   E   E    +E    E  E  E   E   E   E   E
|--------------------------------|--------------------------------|
|--------------------------------|--------------------------------|
|--------------------------------|--------------------------------|
|------------------------------7-|--(7)------9-10--12p=10---9-----|
|-(8)---7--8----7h==8p=7-------0-|--(0)--12--------------------10-|
|--------------------------8-----|--------------------------------|
|
|       ~~~~~~~~~~~~~~~~~~~~~~~~~~~~~~~~~~~~~~~~~~~~~~~~~~~~~~~~~~~
|  E    E  Q   +Q         +E   E    +H             +Q      +E   E
|--------------------------------|--------------------------------|
|-13---12------------------------|--------------------------------|
|---------14--(14)-------(14)----|--------------------------------|
|-----------------------------14-|-(14)-----------(14)----(14)-12-|
|--------------------------------|--------------------------------|
|--------------------------------|--------------------------------|


                                                                           To Coda
                        C5
   +E   E Q    Q.        E    +H..                        E     W
    |   | |    |         |     |
    /   / /    /         /     /

        PM     ~~~~
   +E   E Q    Q.        E    +E    E  E  E   E   E   E   E    +E   E  E  E  E  E  Q
|--------------------------|--------------------------------|----------------------------|
|--------------------------|--------------------------------|----------------------------|
|------------------------9-|--(9)--10-----9---------------9-|--(9)-10-----9--------------|
|--(9)----9----9-----------|----------12-----10--12---9-----|---------12----10-12--9\----|
|------10------------------|--------------------------------|----------------------------|
|--------------------------|--------------------------------|----------------------------|
|
|       PM     ~~~~      PM----------------------|
|  +E   E Q    Q.        E    +E    E  E  E   E   E   E   E    +E   E  E  E  E  E  Q
|--------------------------|--------------------------------|----------------------------|
|--------------------------|--------------------------------|----------------------------|
|--------------------------|--------------------------------|----------------------------|
|---------9----9--------10-|-(10)--12--9-10-------9------10-|-(10)-12--9-10-----9--------|
|-(10)-10------------------|-----------------12------10-----|---------------12----10\----|
|--------------------------|--------------------------------|----------------------------|
|
|~~~~~~~~~~~~~~~~~~~~~~~~~~~~~~~~~~~~~~~~~~~~~~~~~~~~~~~~
|  +H         +Q    +E   E    +H             +Q      +E   E     W
|--------------------------|--------------------------------|----------------------------|
|-----------------------13-|-(13)-----------(13)----(13)----|----------------------------|
|--------------------------|--------------------------------|----------------------------|
|-(12)-------(12)--(12)----|--------------------------------|----------------------------|
|--------------------------|--------------------------------|----------------------------|
|--------------------------|--------------------------------|----------------------------|


 Bridge
  E5                    B5  B5
   H       +Q.          E   +W
   |        |           |    |
   /        /           /    /

  Gtrs I, II
                                     ~~~~~~
               |-3--|
   E Q   Q     S  S S E E   +E   E E E +H
|-------------------------|-------------------|
|-------------------------|-------------------|
|-------------------------|-------------------|
|-------------------------|----------9-(9)----|
|-10-9--10-----9h10p9-7---|--------9----------|
|-----------------------7-|-(7)-10------------|
|
| Gtr IV
|  H       +Q.          E   +W
|-------------------------|-------------------|
|-------------------------|-------------------|
|-----------------------4-|-(4)---------------|
|--2-------(2)----------4-|-(4)---------------|
|--2-------(2)----------2-|-(2)---------------|
|--0-------(0)------------|-------------------|


  G5               D5  D5
   H       +Q.     E   +W
   |        |      |    |
   /        /      /    /

   Q   E Q      Q  E   +E   E E E +H
|--------------------|-------------------|
|--------------------|-------------------|
|--------------------|-------------------|
|--------9---------7-|-(7)---------------|
|-10--10-------10----|-----10-9-7-(7)----|
|--------------------|-------------------|
|
|  H       +Q.     E   +W
|--------------------|-------------------|
|--------------------|-------------------|
|------------------7-|-(7)---------------|
|--5-------(5)-----7-|-(7)---------------|
|--5-------(5)-----5-|-(5)---------------|
|--3-------(3)-------|-------------------|


  E5                    B5  B5
   H       +Q.          E   +W
   |        |           |    |
   /        /           /    /

                                     ~~~~~~
               |-3--|
   E Q   Q     S  S S E E   +E   E E E +H
|-------------------------|-------------------|
|-------------------------|-------------------|
|-------------------------|-------------------|
|-------------------------|----------9-(9)----|
|-10-9--10-----9h10p9-7---|--------9----------|
|-----------------------7-|-(7)-10------------|
|
|  H       +Q.          E   +W
|-------------------------|-------------------|
|-------------------------|-------------------|
|-----------------------4-|-(4)---------------|
|--2-------(2)----------4-|-(4)---------------|
|--2-------(2)----------2-|-(2)---------------|
|--0-------(0)------------|-------------------|


  G5                D5  D5
   H       +Q.      E   +W
   |        |       |    |
   /        /       /    /

                                     ~~
   Q   E Q     E  E E   +Q.    Q  E  Q
|---------------------|-------------------|
|---------------------|-------------------|
|---------------------|-------------------|
|-------------------7-|-(7)---------------|
|-10--10-9-----7------|-------10--9-------|
|----------------10---|-------------10----|
|
|  H       +Q.      E   +W
|---------------------|-------------------|
|---------------------|-------------------|
|-------------------7-|-(7)---------------|
|--5-------(5)------7-|-(7)---------------|
|--5-------(5)------5-|-(5)---------------|
|--3-------(3)--------|-------------------|


  E5                       B5  B5
   H        +Q.            E   +W
   |         |             |    |
   /         /             /    /

                                          ~~~~~~~
                 |--3--|
   E  Q   Q      S  S  S E E   +E   E  E  E  +H
|----------------------------|----------------------|
|----------------------------|-----------12-(12)----|
|-12-11--12-----11h12p11-9---|--------11------------|
|--------------------------9-|-(9)h12---------------|
|----------------------------|----------------------|
|----------------------------|----------------------|
|
|  H        +Q.            E   +W
|----------------------------|----------------------|
|----------------------------|----------------------|
|--------------------------4-|-(4)------------------|
|--2--------(2)------------4-|-(4)------------------|
|--2--------(2)------------2-|-(2)------------------|
|--0--------(0)--------------|----------------------|


  G5                D5   D5
   H        +Q.      E    +W
   |         |       |     |
   /         /       /     /

   Q   E  Q      Q   E    +E   E  E E +H
|----------------------|---------------------|
|--------12---------10-|-(10)----------------|
|-12--12--------12-----|------12-11-9-(9)----|
|----------------------|---------------------|
|----------------------|---------------------|
|----------------------|---------------------|
|
|  H        +Q.      E    +W
|----------------------|---------------------|
|----------------------|---------------------|
|--------------------7-|--(7)----------------|
|--5--------(5)------7-|--(7)----------------|
|--5--------(5)------5-|--(5)----------------|
|--3--------(3)--------|---------------------|


  E5                       B5  B5
   H        +Q.            E   +W
   |         |             |    |
   /         /             /    /

                                          ~~~~~~~
                 |--3--|
   E  Q   Q      S  S  S E E   +E   E  E  E  +H
|----------------------------|----------------------|
|----------------------------|-----------12-(12)----|
|-12-11--12-----11h12p11-9---|--------11------------|
|--------------------------9-|-(9)h12---------------|
|----------------------------|----------------------|
|----------------------------|----------------------|
|
|  H        +Q.            E   +W
|----------------------------|----------------------|
|----------------------------|----------------------|
|--------------------------4-|-(4)------------------|
|--2--------(2)------------4-|-(4)------------------|
|--2--------(2)------------2-|-(2)------------------|
|--0--------(0)--------------|----------------------|


  G5/D(type 2)       A5/E      E   A5EE
   H        +Q.       E    +E  S S E  S S S S  E  E E
   |         |        |     |  | | |  | | | |  |  | |
   /         /        /     /  / / /  / / / /  /  / /

                                                  ~~
   Q   E  Q     E  E  E    +Q.        Q        E  Q
|-----------------------|------------------------------|
|--------------------10-|-(10)-------------------------|
|-12--12-11-----9-------|------------12-------11-------|
|-----------------12----|------------------------12----|
|-----------------------|------------------------------|
|-----------------------|------------------------------|
|
|                              PM|    PM------------|
|  H        +Q.       E    +E  S S E  S S S S  E  E E
|-----------------------|------------------------------|
|-----------------------|------------------------------|
|-----------------------|------------------------------|
|--5--------(5)-------7-|--(7)-----7-------------------|
|--5--------(5)-------7-|--(7)-----7-------------------|
|--3--------(3)-------5-|--(5)-5-5-5--5-5-5-5--5--5-5--|


                                                         S
  G5/D              A5/E          A5/E       A5/E
   H        Q    E   E    +E  S S E  S S S S  E   E   E
   |        |    |   |     |  | | |  | | | |  |   |   |
   /        /    /   /     /  o / /  o / / /  /   /   /

  Gtrs I, II
                                                  ~~~
   Q   E  Q   E  E   E    +Q.        Q        E   Q
|----------------------|---------------------------------|
|-------------------10-|-(10)----------------------------|
|-12--12p11---9--------|------------12-------11----------|
|---------------12-----|-------------------------12------|
|----------------------|---------------------------------|
|----------------------|---------------------------------|
|
| Gtr IV
|                             PM|    PM--------------|
|  H        Q   +E   E    +E  S S E  S S S S  E   E   E
|----------------------|---------------------------------|
|----------------------|---------------------------------|
|----------------------|---------------------------------|
|--5--------5---(5)--7-|--(7)-----7----------------------|
|--5--------5---(5)--7-|--(7)-----7----------(7)-(7)-(7)-|
|--3--------3---(3)--5-|--(5)-5-5-5--5-5-5-5--5---5---5--|
|
| Gtr V
|  W                       W
|----------------------|---------------------------------|
|----------------------|---------------------------------|
|----------------------|---------------------------------|
|----------------------|---------------------------------|
|----------------------|---------------------------------|
|----------------------|---------------------------------|


 lightly Slower Q=168
  Esus2Em           Esus2
  W                 +W
  |                  |
  /                  /

  W                 +W
|-----------------|-------------------|
|-----------------|-------------------|
|-9---------------|-(9)---------------|
|-----------------|-------------------|
|-----------------|-------------------|
|-----------------|-------------------|
|
| W                 +W
|-----------------|-------------------|
|-----------------|-------------------|
|-----------------|-------------------|
|-2---------------|-(2)---------------|
|-2---------------|-(2)---------------|
|-0---------------|-(0)---------------|
|
| H    E  Q    E    +E  E +H     E E
|-------------(7)-|-(7)-7-(7)----7----|
|------8p=7----7--|-(7)-8-(8)------8--|
|------9-(9)---7--|-(7)-9-(9)---------|
|------9-(9)---9--|-(9)-9-(9)---------|
|------7-(7)---7--|-(7)-7-(7)---------|
|-0---------------|-------------------|


  Esus2     Em         EsusEm         Em/B
  +W                   +W
   |                    |
   /                    /

   >
  +W                   +W
|--------------------|------------------|
|--------------------|------------------|
|-(9)----------------|-(9)--------------|
|--------------------|------------------|
|--------------------|------------------|
|--------------------|------------------|
|
|  >
| +W                   +W
|--------------------|------------------|
|--------------------|------------------|
|--------------------|------------------|
|-(2)----------------|-(2)--------------|
|-(2)----------------|-(2)--------------|
|-(0)----------------|-(0)--------------|
|
|  Q   +Q   E  Q   E   +E  E +Q.   Q  E
|------------------7-|-(7)-7-(7)--------|
|-----------8p=7---7-|-(7)-8-(8)---8--8-|
|-----------9-(9)--7-|-(7)-9-(9)--------|
|-----------9-(9)--9-|-(9)-9-(9)--------|
|-----------7-(7)--7-|-(7)-7-(7)--------|
|--0---(0)-----------|------------------|


            EmEsus2    Esus2 Em        Em/B
  +W                   +W
   |                    |
   /                    /

  +W                   +Q     Q   H
|--------------------|---------------------|
|--------------------|---------------------|
|-(9)----------------|-(9)-----------------|
|--------------------|---------------------|
|--------------------|---------------------|
|--------------------|---------------------|
|
| +W                   +Q     Q   H
|--------------------|---------------------|
|--------------------|---------------------|
|--------------------|---------------------|
|-(2)----------------|-(2)-----------------|
|-(2)----------------|-(2)-----------------|
|-(0)----------------|-(0)-----------------|
|
|  Q   +Q   E  Q   E   +E  E +H      E  E
|--------------------|-----7-(7)-------(7)-|
|-----------8p=7---7-|-(7)-8-(8)--------8--|
|-----------9-(9)--7-|-(7)-9-(9)-----7-----|
|-----------9-(9)--9-|-(9)-9-(9)-----x-----|
|-----------7-(7)--7-|-(7)-7-(7)-----------|
|--0---(0)-----------|---------------------|


        EmEsus2    EsusEm           Em/B
  Gtr I
  W                 W
|----------------|--------------------||
|----------------|--------------------||
|----------------|--------------------||
|----------------|--------------------||
|----------------|--------------------||
|----------------|--------------------||
|
| Gtr V
| Q  Q  E  Q   E   +E  E +H      E  E
|----------------|-----7-(7)----------||
|-------8p=7---7-|-(7)-8-(8)----------||
|-------9-(9)--7-|-(7)-9-(9)----------||
|-------9-(9)--9-|-(9)-9-(9)----(9)-9-||
|-------7-(7)--7-|-(7)-7-(7)-----7----||
|-0--0-----------|--------------------||


 Guitar Solo
              Em                    Bm         Bm/F#
  E  E  E   E  E  E   E  E    E   E  E   E  E   E  E  E
|------12-----14-----15----|-17p=15-14------------------|
|---12-----12----12-----12-|------------15--------------|
|--------------------------|---------------14--12s11-14-|
|--------------------------|----------------------------|
|--------------------------|----------------------------|
|--------------------------|----------------------------|
|
| Q    +Q      E  E   E  E   +E   E  Q     +E   Q     E
|--------------7-(7)-------|----------------------------|
|--------------8p=7--------|--------(3)----(3)--3-------|
|--------------9-(9)-------|---------4----------------4-|
|--------------9-(9)-------|------5--5----------------5-|
|--------------7-(7)-----2-|-(2)--x--2----------------2-|
|-0----(0)------------0----|------x---------------------|


      C                C                    D5          D                    Dsus4    DsEm2
                                                      ~~~~~~~~~~~~~~~~~~~~~~~~~~~~
           |--3---|
   +E  E   S   S  S  H            E     +E   E  S  S  E  +Q                   +Q
|------------------------------------|------------------------------------------------|
|------------------------------------|------------------------------------------------|
|-(14)16--14h=16p14-12-----------11--|-(11)h12----------------------------------------|
|------------------------------------|---------14p12h14-(14)-----------------(14)-----|
|------------------------------------|------------------------------------------------|
|------------------------------------|------------------------------------------------|
|
|   E  E  +Q           E  E   E   E     +E   E  q         S   T   T   S  +S    E   E
|------------------------------------|----------7---------7--(7)-(7)-(7)-(7)--(7)-----|
|---5-(5)-(5)----------5-(5)---------|----------7---------7---7h==8p==7--(7)p==5------|
|---5-(5)-(5)----------5--5--(5)-(7)-|--(7)--7--7---------7--(7)-(7)-(7)-(7)--(7)--7--|
|---5-(5)-(5)----------5-(5)-(5)-(7)-|--(7)--7--7---------7--(7)-(7)-(7)-(7)--(7)-(7)-|
|---2h=3--(3)----------3-(3)--3---5--|--(5)--5--5---------5--(5)-(5)-(5)-(5)--(5)-(5)-|
|------------------------------------|------------------------------------------------|


                                             Bm        Bm/F#
   +E   E  E   E   E  E   E  E    E  E  E  E  E  S S E   E
|------------------------------|-----------------------------|
|------12-12--13--13-12--12-10-|-10--8--8--7--7--8p7---/10---|
|------12-12--14--14-12--12-11-|-11--9--9--7--7------7-/11---|
|-(14)-------------------------|-----------------------------|
|------------------------------|-----------------------------|
|------------------------------|-----------------------------|
|
|          PM-|
|   Q      E   E   E  E   E  E   +E  E  Q    +E  Q       E
|------------------7-(7)-------|-----------------------------|
|------------------8p=7--------|-------(3)---(3)-3-----------|
|------------------9-(9)-------|--------4----------------4---|
|------------------9-(9)-------|--------5----------------5---|
|------------------7-(7)--2--2-|-(2)-2--2----------------2---|
|---0-----(0)-(0)---------0----|-----------------------------|


  C                         C     D5             D            Dsus4   Dsus2
  Gtr I
   +E  E   Q    +Q.          E     +E   E  Q.             +Q.
|-------------------------------|-----------------------------------------|
|-(10)-8---8----(8)---------12--|-(12)-10-10-------------(10)-------------|
|-(11)-9---9----(9)---------12--|-(12)-11-11-------------(11)-------------|
|-------------------------------|-----------------------------------------|
|-------------------------------|-----------------------------------------|
|-------------------------------|-----------------------------------------|
|
| Gtr II
|   W                               W
|-------------------------------|-----------------------------------------|
|-------------------------------|-----------------------------------------|
|-------------------------------|-----------------------------------------|
|-------------------------------|-----------------------------------------|
|-------------------------------|-----------------------------------------|
|-------------------------------|-----------------------------------------|
|
| Gtr V
|   E  E  +E  E  E   E   E   E     +E   E  q   S  T   T    S  +S   E   E
|---3-(3)-(3)-------------------|----------7---7-(7)-(7)--(7)-(7)-(7)-----|
|---5-(5)-(5)----5--(5)---------|----------7---7--7h==8p===7--(7)p=5------|
|---5-(5)-(5)-5-(5)--5--(5)-(7)-|--(7)--7--7---7-(7)-(7)--(7)-(7)-(7)--7--|
|---5-(5)-(5)-5-(5)-(5)-(5)-(7)-|--(7)--7--7---7-(7)-(7)--(7)-(7)-(7)-(7)-|
|---2h=3--(3)-3-(3)-(3)--3---5--|--(5)--5--5---5-(5)-(5)--(5)-(5)-(5)-(5)-|
|-------------------------------|-----------------------------------------|


                        Em                           Bm  Bm/F#
   +E   E  E   E  E  E   Q      S   S  E   E   E  E   E   E   E
|----------------------------|-----------------------------------|
|-(10)----12-----------------|-----------------------------------|
|-(11)-----------14-----12---|-11h=12-11-------------11--12------|
|------14-----14----14-------|------------14--12-14----------14--|
|----------------------------|-----------------------------------|
|----------------------------|-----------------------------------|
|
|   E   E  E   E  E  E   Q      S   S  E   E   E  E   E   E   E
|----------------------------|-----------------------------------|
|---------15-----13-----12---|-----------------------------------|
|----------------------------|-14h=16-14-------------14--16------|
|------14-----14----14-------|------------17--16-17----------14--|
|----------------------------|-----------------------------------|
|----------------------------|-----------------------------------|
|
|   Q     +Q      E  E   E E   +E      E   Q      E   E   E   E
|-----------------7-(7)------|-----------------------------------|
|-----------------8p=7-------|------------(3)--------------------|
|-----------------9-(9)------|-------------4---------------------|
|-----------------9-(9)------|---------x---5---------------------|
|-----------------7-(7)----2-|-(2)-----x---2-----(2)-(2)-(2)-(2)-|
|---0-----(0)------------0---|--------(0)------------------------|


  C                      C         D5              D          Dsus4   Dsus2
   +E  E   E   E  E   E   Q         E   S  S  E  E  E          E       E   E
|--------------------------------|--------------------------------------------|
|---------12---------------------|-12h=13-12------------------12--------------|
|----------------14------12------|-----------14-12-14-----------------12------|
|-(14)14------14-----14----------|----------------------------------------14--|
|--------------------------------|--------------------------------------------|
|--------------------------------|--------------------------------------------|
|
|  +E  E   E   E  E   E   Q         E   S  S  E  E  E          S   S   E   E
|--------------------------------|--------------------------------------------|
|---------15-----13------12------|--------------------------------------------|
|--------------------------------|-12--14p12-11----11---------12p=11----------|
|-(14)14------14-----14----------|--------------14--------------------14--14--|
|--------------------------------|--------------------------------------------|
|--------------------------------|--------------------------------------------|
|
|   E  E  +E   E  E   E   E   E    +E   E     q     S  T   T   S  +S   E   E
|---3-(3)-(3)--------------------|------------7-----7-(7)-(7)-(7)-(7)-(7)-----|
|---5-(5)-(5)-----5--(5)---------|------------7-----7--7h==8p==7--(7)p=5------|
|---5-(5)-(5)--5-(5)--5--(5)-(7)-|-(7)--7-----7-----7-(7)-(7)-(7)-(7)-(7)--7--|
|---5-(5)-(5)--5-(5)-(5)-(5)-(7)-|-(7)--7-----7-----7-(7)-(7)-(7)-(7)-(7)-(7)-|
|---2h=3--(3)--3-(3)-(3)--3---5--|-(5)--5-----5-----5-(5)-(5)-(5)-(5)-(5)-(5)-|
|--------------------------------|--------------------------------------------|


                        Em                G/B
   +E   E  E   E  E  E   Q      S   S  E   E   E  E  E   E  E
|----------------------------|---------------------------------|
|---------12-----------------|---------------------------------|
|----------------14-----12---|-11h=12-11------------11--12-----|
|-(14)-14-----14----14-------|------------14--12-14--------14--|
|----------------------------|---------------------------------|
|----------------------------|---------------------------------|
|
|  +E   E  E   E  E  E   Q      S   S  E   E   E  E  E   E  E
|----------------------------|---------------------------------|
|---------15-----13-----12---|---------------------------------|
|----------------------------|-14h=16-14------------14--16-----|
|-(14)-14-----14----14-------|------------17--16-17--------14--|
|----------------------------|---------------------------------|
|----------------------------|---------------------------------|
|
|   Q     +Q      E  E   E E   +E      E   Q      E +Q.
|-----------------7-(7)------|---------------------------------|
|-----------------8p=7-------|------------(3)-----3-(3)--------|
|-----------------9-(9)------|-------------4------4-(4)--------|
|-----------------9-(9)------|---------x---5------5-(5)--------|
|-----------------7-(7)----2-|-(2)-----x---2-------------------|
|---0-----(0)------------0---|--------(0)----------------------|


  C           C                                     B5(type 2)
                                    Gtr III
    W                                E   E   E   E   E   E   E   E
                                     |   |   |   |   |   |   |   |
                                     /   /   /   /   /   /   /   /

                                    Gtr I
   +E  E   E   E   E   E   E   E     E   E   E   E   E   E   E   E
|---------------------------------|-----------------------------14--|
|-------------12--12s=13--13--13--|-13s=15--15--15--15s=17--17------|
|---------------------------------|---------------------------------|
|-(14)14--14----------------------|---------------------------------|
|---------------------------------|---------------------------------|
|---------------------------------|---------------------------------|
|
|                                   Gtr II
|  +E  E   E   E   E   E   E   E     E   E   E   E   E   E   E   E
|---------------------------------|-----------------------------14--|
|-------------12--12s=13--13--13--|-13s=15--15--15--15s=17--17------|
|---------------------------------|---------------------------------|
|-(14)14--14----------------------|---------------------------------|
|---------------------------------|---------------------------------|
|---------------------------------|---------------------------------|
|
|                                 Gtr IV
|   E  E  +E   E   E   E   E   E     E   E   E   E   E   E   E   E
|--(3)(3)-(3)-(3)-(3)-(3)---------|---------------------------------|
|---3-(3)-(3)-(3)--5--(5)---------|-(7)-(7)-(7)-(7)-(4)-(4)-(4)-(4)-|
|---5-(5)-(5)-(5)-(5)--5--(5)-(5)-|--7---7---7---7---4---4---4---4--|
|---5-(5)-(5)--5--(5)-(5)-(5)-(5)-|--7---7---7---7---4---4---4---4--|
|---2h=3--(3)-(3)-(3)-(3)--3---3--|--5---5---5---5---2---2---2---2--|
|---------------------------------|---------------------------------|


  E5                               B5       B5
   H                    +Q    +E    E        +W
   |                     |     |    |         |
   /                     /     /    /         /

   ~~~~~~
   W                                          W
|-15--------------------------------------|---------------------------------------|
|-----------------------------------------|---------------------------------------|
|-----------------------------------------|---------------------------------------|
|-----------------------------------------|---------------------------------------|
|-----------------------------------------|---------------------------------------|
|-----------------------------------------|---------------------------------------|
|
|                        ~~~~~~~~~~                    ~~~~~~~~~~~~~~~~~~
|  E      +E   +E   +E   Q    +E    E        +E   +E   E  +E   +E   +E    S  S  E
|-----------------------------------------|---------------------------------------|
|-15b17==(15)-(15)-(15)-15---(15)r-17b19==|=(17)-(17)-17-(17)-(17)-(17)r-19p17----|
|-----------------------------------------|------------------------------------19-|
|-----------------------------------------|---------------------------------------|
|-----------------------------------------|---------------------------------------|
|-----------------------------------------|---------------------------------------|
|
|  H                    +Q    +E    E        +W
|-----------------------------------------|---------------------------------------|
|-----------------------------------------|---------------------------------------|
|-----------------------------------4-----|--(4)----------------------------------|
|--2--------------------(2)---(2)---4-----|--(4)----------------------------------|
|--2--------------------(2)---(2)---2-----|--(2)----------------------------------|
|--0--------------------(0)---(0)---------|---------------------------------------|


  C5                                  D5       D5
   H                    +Q        +E   E        +W
   |                     |         |   |         |
   /                     /         /   /         /

                                                                   |--3--|
   W                                             H                 Q  Q  Q
|--------------------------------------------|--------------------14-15-17--|
|--------------------------------------------|------------------------------|
|--------------------------------------------|------------------------------|
|--------------------------------------------|------------------------------|
|--------------------------------------------|------------------------------|
|--------------------------------------------|------------------------------|
|
|                        ~~~~~~~~~~~~~                    ~~~~~~~~
|                                                                  |--3--|
|  E      +E   +E   +E   E   +E   +E   E        +E   +E   E  +E    Q  Q  Q
|--------------------------------------------|--------------------17-19-20--|
|-19b20==(19)-(19)-(19)-19--(19)-(19)-20b22==|=(20)-(20)-20-(20)r-----------|
|--------------------------------------------|------------------------------|
|--------------------------------------------|------------------------------|
|--------------------------------------------|------------------------------|
|--------------------------------------------|------------------------------|
|
|  H                    +Q        +E   E        +W
|--------------------------------------------|------------------------------|
|--------------------------------------------|------------------------------|
|--5--------------------(5)-------(5)--7-----|--(7)-------------------------|
|--5--------------------(5)-------(5)--7-----|--(7)-------------------------|
|--3--------------------(3)-------(3)--5-----|--(5)-------------------------|
|--------------------------------------------|------------------------------|


  E5             B5   B5
   H    +Q   +E   E    +W
   |     |    |   |     |
   /     /    /   /     /

   ~~                       ~~~~~
   H     Q    E   E    +E   E  H     S  S  S  S
|-15----14---12--14-|-(14)------------------------|
|-------------------|------12-12-------------12---|
|-------------------|---------------11h12h14------|
|-------------------|-----------------------------|
|-------------------|-----------------------------|
|-------------------|-----------------------------|
|
|  ~~                          ~~
|  H     Q    E   E    +E   E  H     S  S  S  S
|-19----17---15--17-|-(17)------------------------|
|-------------------|------15-15-------------12---|
|-------------------|---------------11h12h14------|
|-------------------|-----------------------------|
|-------------------|-----------------------------|
|-------------------|-----------------------------|
|
|  H    +Q   +E   E    +W
|-------------------|-----------------------------|
|-------------------|-----------------------------|
|-----------------4-|--(4)------------------------|
|--2----(2)--(2)--4-|--(4)------------------------|
|--2----(2)--(2)--2-|--(2)------------------------|
|--0----(0)--(0)----|-----------------------------|


  C5                     D5   D5
   H     Q            E   E    +W
   |     |            |   |     |
   /     /            /   /     /

                                       ~~~
             |--3--|
   H     E   S  S  S  E   E    +E   E  H.
|---------------------------|------14-14-----|
|-13----12--12h13p12--------|----------------|
|--------------------12--14-|-(14)-----------|
|---------------------------|----------------|
|---------------------------|----------------|
|---------------------------|----------------|
|
|                                      ~~~
|            |--3--|
|  H     E   S  S  S  E   E    +E   E  H.
|---------------------------|----------------|
|-13----12--12h13p12--------|------15-15-----|
|--------------------12--14-|-(14)-----------|
|---------------------------|----------------|
|---------------------------|----------------|
|---------------------------|----------------|
|
|  H    +Q           +E   E    +W
|---------------------------|----------------|
|---------------------------|----------------|
|--5----(5)----------(5)--7-|--(7)-----------|
|--5----(5)----------(5)--7-|--(7)-----------|
|--3----(3)----------(3)--5-|--(5)-----------|
|---------------------------|----------------|


  E5(type 4)                B5(type 2)     B        C5(type
   E  E  E  E  E  E  E  E    E     E  E  E  E  E  E  E
   |  |  |  |  |  |  |  |    |     |  |  |  |  |  |  |
   /  /  /  /  /  /  /  /    /     /  /  /  o  /  /  /

   E  E  E  E  E  E  E  E    S  S  E  E  E  E  E  E  E
|-------------------------|----------------------------|
|-------------------------|----------------------------|
|-------16----14----12----|-11h12-11----------11-12----|
|-14-14----14----14----14-|----------14-12-14-------14-|
|-------------------------|----------------------------|
|-------------------------|----------------------------|
|
| Gtr II
|  E  E  E  E  E  E  E  E    S  S  E  E  E  E  E  E  E
|-------------------------|----------------------------|
|-------15----13----12----|----------------------------|
|-------------------------|-14h16-14----------14-16----|
|-14-14----14----14----14-|----------17-16-17-------14-|
|-------------------------|----------------------------|
|-------------------------|----------------------------|
|
|  PM-----------------------------------|
|  E  E  E  E  E  E  E  E    E     E  E  E  E  E  E  E
|-------------------------|----------------------------|
|-------------------------|----------------------------|
|-------------------------|----------------------------|
|--9--9--9--9--9--9--9--9-|--4-----4--4--4-----------5-|
|--7--7--7--7--7--7--7--7-|--2-----2--2--2--2--2--2--3-|
|-------------------------|----------------------------|


     2)                       D5(type 2)     D        E5(type 4)
   +E   E  E  E  E  E  E  E    E     E  E  E  E  E  E  E
    |   |  |  |  |  |  |  |    |     |  |  |  |  |  |  |
    /   /  /  /  /  /  /  /    /     /  /  /  o  /  /  /

   +E   E  E  E  E  E  E  E    S  S  E  E  E  E  E  E  E
|---------------------------|------------------------------|
|---------------------------|-12h13-12----------12---------|
|---------16----14----12----|----------14-12-14----12------|
|-(14)-14----14----14----14-|-------------------------14---|
|---------------------------|------------------------------|
|---------------------------|------------------------------|
|
|  +E   E  E  E  E  E  E  E    S  S  E  E  E  E  E  E  E
|---------------------------|------------------------------|
|---------15----13----12----|-15h17-15----------15---------|
|---------------------------|----------17-16-17----16------|
|-(14)-14----14----14----14-|-------------------------17---|
|---------------------------|------------------------------|
|---------------------------|------------------------------|
|
|       PM--------------------------------|
|  +E   E  E  E  E  E  E  E    E     E  E  E  E  E  E  E
|---------------------------|------------------------------|
|---------------------------|------------------------------|
|---------------------------|------------------------------|
|--(5)--5--5--5--5--5--5--5-|--7-----7--7--7-----------9---|
|--(3)--3--3--3--3--3--3--3-|--5-----5--5--5--5--5--5--7---|
|---------------------------|------------------------------|


  E5(type 4)                  B5(type 2)     B        C5(type
   +E   E  E  E  E  E  E  E    E     E  E  E  E  E  E  E
    |   |  |  |  |  |  |  |    |     |  |  |  |  |  |  |
    /   /  /  /  /  /  /  /    /     /  /  /  o  /  /  /

   +E   E  E  E  E  E  E  E    S  S  E  E  E  E  E  E  E
|---------------------------|----------------------------|
|---------------------------|----------------------------|
|---------16----14----12----|-11h12-11----------11-12----|
|-(14)-14----14----14----14-|----------14-12-14-------14-|
|---------------------------|----------------------------|
|---------------------------|----------------------------|
|
|  +E   E  E  E  E  E  E  E    S  S  E  E  E  E  E  E  E
|---------------------------|----------------------------|
|---------15----13----12----|----------------------------|
|---------------------------|-14h16-14----------14-16----|
|-(17)-14----14----14----14-|----------17-16-17-------14-|
|---------------------------|----------------------------|
|---------------------------|----------------------------|
|
|       PM--------------------------------|
|  +E   E  E  E  E  E  E  E    E     E  E  E  E  E  E  E
|---------------------------|----------------------------|
|---------------------------|----------------------------|
|---------------------------|----------------------------|
|--(9)--9--9--9--9--9--9--9-|--4-----4--4--4-----------5-|
|--(7)--7--7--7--7--7--7--7-|--2-----2--2--2--2--2--2--3-|
|---------------------------|----------------------------|


     2)                       D5(type 2)     D        E5(type 4)
   +E   E  E  E  E  E  E  E    E     E  E  E  E  E  E  E
    |   |  |  |  |  |  |  |    |     |  |  |  |  |  |  |
    /   /  /  /  /  /  /  /    /     /  /  /  o  /  /  /

   +E   E  E  E  E  E  E  E    S  S  E  E  E  E  E  E  E
|---------------------------|------------------------------|
|---------------------------|-12h13-12----------12---------|
|---------16----14----12----|----------14-12-14----12------|
|-(14)-14----14----14----14-|-------------------------14---|
|---------------------------|------------------------------|
|---------------------------|------------------------------|
|
|  +E   E  E  E  E  E  E  E    S  S  E  E  E  E  E  E  E
|---------------------------|------------------------------|
|---------15----13----12----|-15h17-15----------15---------|
|---------------------------|----------17-16-17----16------|
|-(14)-14----14----14----14-|-------------------------17---|
|---------------------------|------------------------------|
|---------------------------|------------------------------|
|
|       PM--------------------------------|
|  +E   E  E  E  E  E  E  E    E     E  E  E  E  E  E  E
|---------------------------|------------------------------|
|---------------------------|------------------------------|
|---------------------------|------------------------------|
|--(5)--5--5--5--5--5--5--5-|--7-----7--7--7-----------9---|
|--(3)--3--3--3--3--3--3--3-|--5-----5--5--5--5--5--5--7---|
|---------------------------|------------------------------|


 Guitar Break
  Q=164
  E5
  Gtrs III, IV
   +Q     H          Q       W
    |
    /

  Gtr I
   +Q     H          Q       W
|-------------------------|--------------------|
|-------------------------|--------------------|
|-------------------------|--------------------|
|-(14)\-------------------|--------------------|
|-------------------------|--------------------|
|-------------------------|--------------------|
|
| Gtr II
|  +Q     H          Q       W
|-------------------------|--------------------|
|-------------------------|--------------------|
|-------------------------|--------------------|
|-(17)\-------------------|--------------------|
|-------------------------|--------------------|
|-------------------------|--------------------|
|
| Gtr V
|   Q    +Q   E  E  +E  E   +E  E Q  +E  E E E
|-------------7-(7)-(7)---|--------------------|
|-------------8p=7--(7)---|-------3--(3)-------|
|-------------9-(9)-(9)---|-----x-4------------|
|-------------9-(9)-(9)---|-----x-5------x---5-|
|-------------7-(7)-(7)S2-|-(2)-2-2--------2---|
|---0----(0)--------------|--------------------|


   W                                W
   W                                W
|--------------------------------|-------------------------------------|
|--------------------------------|-------------------------------------|
|--------------------------------|-------------------------------------|
|--------------------------------|-------------------------------------|
|--------------------------------|-------------------------------------|
|--------------------------------|-------------------------------------|
|
|  W                                W
|--------------------------------|-------------------------------------|
|--------------------------------|-------------------------------------|
|--------------------------------|-------------------------------------|
|--------------------------------|-------------------------------------|
|--------------------------------|-------------------------------------|
|--------------------------------|-------------------------------------|
|
|  E  E  +E   E   E   E   E   E    +E  E q  S  T   T   S  +S   E   E
|-(3)(3)-(3)-(3)-(3)-(3)---------|-------7--7-(7)-(7)-(7)-(7)-(7)------|
|--3-(3)-(3)-(3)--5--(5)-(5)-(7)-|-(7)---7--7--7h==8p==7--(7)p=5-------|
|--5-(5)-(5)--5--(5)--5--(5)-(7)-|-(7)-7-7--7-(7)-(7)-(7)-(7)-(7)--7---|
|--5-(5)-(5)-(5)-(5)-(5)-(5)-(7)-|-(7)-7--------------------------(7)--|
|--2h=3--(3)-(3)-(3)-(3)--3---5--|-(5)-5-------------------------------|
|--------------------------------|-------------------------------------|


  E       Em    Esus2   G/B
  Gtr III
  W                      W
  Gtr IV
  W                      W
|---------------------|------------------------|
|---------------------|------------------------|
|---------------------|------------------------|
|---------------------|------------------------|
|---------------------|------------------------|
|---------------------|------------------------|
|
| Gtr V
| Q  +Q   E  E  +E  E   +E  E Q  +E  E  E  +E
|---------7-(7)-(7)---|------------------------|
|---------8p=7--(7)---|-------3--(3)-3---------|
|---------9-(9)-(9)---|-----x-4----------------|
|---------9-(9)-(9)---|-----x-5----------------|
|-7--(7)--7-(7)-(7)S2-|-(2)-2-2--------(2)-(2)-|
|-0--(0)--------------|------------------------|


                                                       D.S. al Coda
  Csus2/B                C5        D5              B5
   W                                E   E   E   E   E   E   E   E
                                    |   |   |   |   |   |   |   |
                                    /   /   /   /   /   /   /   /

   W                                E   E   E   E   E   E   E   E
|--------------------------------|----------------------------------||
|--------------------------------|-(7)-(7)-(7)-(7)-(4)-(4)-(4)-(4)--||
|--------------------------------|--7---7---7---7---4---4---4---4---||
|--------------------------------|--7---7---7---7---4---4---4---4---||
|--------------------------------|--5---5---5---5---2---2---2---2---||
|--------------------------------|----------------------------------||
|
|  E  E  +E   E   E   E   E   E     W
|-(3)(3)-(3)-(3)-(3)-(3)---------|----------------------------------||
|--3-(3)-(3)-(3)--5--(5)---------|----------------------------------||
|--5-(5)-(5)-(5)-(5)--5--(5)-(5)-|----------------------------------||
|--5-(5)-(5)--5--(5)-(5)-(5)-(5)-|----------------------------------||
|--2h=3--(3)-(3)-(3)-(3)--3---3--|----------------------------------||
|--------------------------------|----------------------------------||


   Outro
    &
    E5                    B5  B5
    Gtr III
     H       +Q.          E   +W
     |        |           |    |
     /        /           /    /

    Gtrs I, II
                                       ~~~~~~
                 |-3--|
     E Q   Q     S  S S E E   +E   E E E +H
||--------------------------|-------------------|
||o-------------------------|-------------------|
||--------------------------|-------------------|
||--------------------------|----------9-(9)----|
||o-10-9--10-----9h10p9-7---|--------9----------|
||------------------------7-|-(7)-10------------|


  G5               D5  D5
   H       +Q.     E   +W
   |        |      |    |
   /        /      /    /

   Q   E Q      Q  E   +E   E E E +H
|--------------------|-------------------|
|--------------------|-------------------|
|--------------------|-------------------|
|--------9---------7-|-(7)---------------|
|-10--10-------10----|-----10-9-7-(7)----|
|--------------------|-------------------|


  E5                    B5  B5
   H       +Q.          E   +W
   |        |           |    |
   /        /           /    /

                                     ~~~~~~
               |-3--|
   E Q   Q     S  S S E E   +E   E E E +H
|-------------------------|-------------------|
|-------------------------|-------------------|
|-------------------------|-------------------|
|-------------------------|----------9-(9)----|
|-10-9--10-----9h10p9-7---|--------9----------|
|-----------------------7-|-(7)-10------------|


  G5                D5  D5
   H       +Q.      E   +W
   |        |       |    |
   /        /       /    /

                                     ~~
   Q   E Q     E  E E   +Q.    Q  E  Q
|---------------------|-------------------|
|---------------------|-------------------|
|---------------------|-------------------|
|-------------------7-|-(7)---------------|
|-10--10-9-----7------|-------10--9-------|
|----------------10---|-------------10----|


  E5                       B5  B5
   H        +Q.            E   +W
   |         |             |    |
   /         /             /    /

                                          ~~~~~~~
                 |--3--|
   E  Q   Q      S  S  S E E   +E   E  E  E  +H
|----------------------------|----------------------|
|----------------------------|-----------12-(12)----|
|-12-11--12-----11h12p11-9---|--------11------------|
|--------------------------9-|-(9)h12---------------|
|----------------------------|----------------------|
|----------------------------|----------------------|


  G5                D5   D5
   H        +Q.      E    +W
   |         |       |     |
   /         /       /     /

                                       ~~~
   Q   E  Q      Q   E    +E   E  E E +H
|----------------------|---------------------|
|--------12---------10-|-(10)----------------|
|-12--12--------12-----|------12-11-9-(9)----|
|----------------------|---------------------|
|----------------------|---------------------|
|----------------------|---------------------|


  E5                       B5  B5
   H        +Q.            E   +W
   |         |             |    |
   /         /             /    /

                                          ~~~~~~~
                 |--3--|
   E  Q   Q      S  S  S E E   +E   E  E  E  +H
|----------------------------|----------------------|
|----------------------------|-----------12-(12)----|
|-12-11--12-----11h12p11-9---|--------11------------|
|--------------------------9-|-(9)h12---------------|
|----------------------------|----------------------|
|----------------------------|----------------------|


  G5                 D5   D5
   H        +Q.       E    +W
   |         |        |     |
   /         /        /     /

                                         ~~
   Q   E  Q     E  E  E    +Q.    Q   E  Q
|-----------------------|----------------------||
|--------------------10-|-(10)----------------o||
|-12--12-11-----9-------|--------12--11--------||
|-----------------12----|---------------12-----||
|-----------------------|---------------------o||
|-----------------------|----------------------||


  E5                       B5  B5
   H        +Q.            E   +W
   |         |             |    |
   /         /             /    /

  Gtr I
                                          ~~~~~~~
                 |--3--|
   E  Q   Q      S  S  S E E   +E   E  E  E  +H
|----------------------------|----------------------|
|----------------------------|----------------------|
|----------------------------|----------------------|
|----------------------------|------------9--(9)----|
|-10--9--10------9h10p=9-7---|---------9------------|
|--------------------------7-|-(7)-10---------------|
|
| Gtr II
|                                         ~~~~~~~
|                |--3--|
|  E  Q   Q      S  S  S E E   +E   E  E  E  +H
|----------------------------|----------------------|
|----------------------------|-----------12-(12)----|
|-12-11--12-----11h12p11-9---|--------11------------|
|--------------------------9-|-(9)h12---------------|
|----------------------------|----------------------|
|----------------------------|----------------------|


  G5                D5   D5
   H        +Q.      E    +W
   |         |       |     |
   /         /       /     /

   Q   E  Q      Q   E    +E   E  E E +H
|----------------------|---------------------|
|----------------------|---------------------|
|----------------------|---------------------|
|---------9----------7-|--(7)----------------|
|-10--10--------10-----|------10--9-7-(7)----|
|----------------------|---------------------|
|
|                                      ~~~
|  Q   E  Q      Q   E    +E   E  E E +H
|----------------------|---------------------|
|--------12---------10-|-(10)----------------|
|-12--12--------12-----|------12-11-9-(9)----|
|----------------------|---------------------|
|----------------------|---------------------|
|----------------------|---------------------|


  E5                       B5  B5
   H        +Q.            E   +W
   |         |             |    |
   /         /             /    /

                                          ~~~~~~~
                 |--3--|
   E  Q   Q      S  S  S E E   +E   E  E  E  +H
|----------------------------|----------------------|
|----------------------------|----------------------|
|----------------------------|----------------------|
|----------------------------|------------9--(9)----|
|-10--9--10------9h10p=9-7---|---------9------------|
|--------------------------7-|-(7)-10---------------|
|
|                                         ~~~~~~~
|                |--3--|
|  E  Q   Q      S  S  S E E   +E   E  E  E  +H
|----------------------------|----------------------|
|----------------------------|-----------12-(12)----|
|-12-11--12-----11h12p11-9---|--------11------------|
|--------------------------9-|-(9)h12---------------|
|----------------------------|----------------------|
|----------------------------|----------------------|


  G5                 D5   D5
   H        +Q.       E    +W
   |         |        |     |
   /         /        /     /

                                         ~~
   Q   E  Q     E  E  E    +Q.    Q   E  Q
|-----------------------|---------------------*|
|-----------------------|---------------------*|
|-----------------------|---------------------*|
|---------------------7-|--(7)----------------*|
|-10--10--9-----7-------|--------10---9-------*|
|-----------------10----|---------------10----*|
|
|                                        ~~
|  Q   E  Q     E  E  E    +Q.    Q   E  Q
|-----------------------|---------------------*|
|--------------------10-|-(10)----------------*|
|-12--12-11-----9-------|--------12--11-------*|
|-----------------12----|---------------12----*|
|-----------------------|---------------------*|
|-----------------------|---------------------*|



Duration Legend
---------------
W - whole; H - half; Q - quarter; E - 8th; S - 16th; T - 32nd; X - 64th; a - acciaccatura
+ - note tied to previous; . - note dotted; .. - note double dotted
Uncapitalized letters represent notes that are staccato (1/2 duration)
Irregular groupings are notated above the duration line
Duration letters will always appear directly above the note/fret number it represents the
duration for.  Duration letters with no fret number below them represent rests.  Multi-
bar rests are notated in the form Wxn, where n is the number of bars to rest for.  Low
melody durations appear below the staff

Tablature Legend
----------------
 h   - hammer-on
 p   - pull-off
 b   - bend
 pb  - pre-bend
 r   - bend release (if no number after the r, then release immediately)
 /\  - slide into or out of (from/to "nowhere")
 s   - legato slide
 S   - shift slide
 - natural harmonic
[n]  - artificial harmonic
n(n) - tapped harmonic
 ~   - vibrato
 tr  - trill
 T   - tap
 TP  - trem. picking
 PM  - palm muting
\n/  - tremolo bar dip; n = amount to dip
 \n  - tremolo bar down
 n/  - tremolo bar up
/n\  - tremolo bar inverted dip
 =   - hold bend; also acts as connecting device for hammers/pulls
 <> - volume swell (louder/softer)
 x   - on rhythm slash represents muted slash
 o   - on rhythm slash represents single note slash

Misc Legend
-----------
 |  - bar
||  - double bar
||o - repeat start
o|| - repeat end
*|  - double bar (ending)
 :  - bar (freetime)
 $  - Segno
 &  - Coda
Tempo markers -  = BPM(8/16=s8/s16), where s8 = swing 8ths, s16 = swing 16ths

comments
print report bad tab
I want to post or [tab]
guest
You may want to rate the tab now too:
select rating
Please do not post tabs as comments. Select "correction" instead!