Oops, an error
Loading. Please wait.

Ashes Tab

729 views 12 this week
no commentswrite comment
1 2 3 4 5
excellent!
x 1
Autoscroll
+/-
esc
set tempo
stop
Contributor
Hey! There's an official Ultimate Guitar app which is ideal
for learning songs when you're away from computer. Get the app
WARNING: You are trying to view
                                    content from Ultimate-Guitar.com
                                    in an unauthorized application,
                                    which is prohibited.

                                    Please use an official Ultimate
                                    Guitar Tabs application for iPhone,
                                    iPad or Android to access legitimate
                                    chords, guitar, bass, and drum tabs
                                    from Ultimate-Guitar.com database.

                                    Type "ultimate guitar tabs" in Apple
                                    App Store's or Android Market's
                                    search to find the application.
IN THIS MOMENT

ASHES [CD VER.]

BEADGBE

tabbed by andherembrace





L
---------------------------------------------|
---------------------------------------------|
---------------------------------------------|
--------------2------------------------------|
-------2--2----------------------------------|
-0--0----------------------------------------|
---------------------------------------------|

R
---------------------------------------------|
---------------------------------------------|
---------------------------------------------|
--------------9--------------12--------------|
-10-9----9-10---10-9----9-10----10-9----9----|
------12-------------12--------------12------|
---------------------------------------------|

L
--------------------------------------------|
--------------------------------------------|
--------------------------------------------|
--------------------------------------------|
------------5-------------------------------|
-------5-5----------------------------------|
-3--3---------------------------------------|

R
---------------------------------------------|
---------------------------------------------|
---------------------------------------------|
--------------9--------------12--------------|
-10-9----9-10---10-9----9-10----10-9----9----|
------12-------------12--------------12------|
---------------------------------------------|

L
--------------------------------------------|
--------------------------------------------|
--------------------------------------------|
--------------------------------------------|
--------------5-----------------------------|
--------3--3--------------------------------|
-1--1---------------------------------------|

R
---------------------------------------------|
---------------------------------------------|
---------------------------------------------|
--------------9--------------12--------------|
-10-9----9-10---10-9----9-10----10-9----9----|
------12-------------12--------------12------|
---------------------------------------------|

L
--------------------------------------------|
--------------------------------------------|
--------------------------------------------|
--------------------------------------------|
-------------7------------------------------|
-------5--5---------------------------------|
-3--3---------------------------------------|

R
-------------------------------------------|
-------------------------------------------|
-------------------------------------------|
--------------9----------------------------|
-10-9----9-10---10-9----9-----12-10-9---9--|
------12-------------12---12---------10----|
-------------------------------------------|




0:11


L
----------------------------------------------------------------|
----------------------------------------------------------------|
----------------------------------------------------------------|
----------------------------------------------------------------|
-5-----------5-------------------5-----------5---------------5--|
------------------------------^---------------------------------|
---000-0-0-0---000-0-0-0-0-0-3-0---000-0-0-0---000-0-0-0-3-3----|
   *** * * *   *** * * * * *       *** * * *   *** * * *
R
--------------------------------------------------------------------|
--------------------------------------------------------------------|
--------------------------------------------------------------------|
--^------------^---------------------^------------^-----------------|
-9-7-9-10-9-7-9-7-9-10-9-7-9-7------9-7-9-10-9-7-9-7-9-10-9-7-9-7-9-|
-------------------------------10-9---------------------------------|
--------------------------------------------------------------------|

L
----------------------------------------------------------------------|
----------------------------------------------------------------------|
------------------------------------------------------_---------------|
-----------------------------------------------------/ \--------------|
-5-----------5-------------------5-----------5----7-5-7-5-4-5-4---4---|
------------------------------^---------------------------------7---5-|
---000-0-0-0---000-0-0-0-0-0-3-0---000-0-0-0---0----------------------|
   *** * * *   *** * * * * *       *** * * *   *
R
--------------------------------------------------------------------------|
--------------------------------------------------------------------------|
--------------------------------------------------------__----------------|
--^------------^---------------------^-----------------/  \---------------|
-9-7-9-10-9-7-9-7-9-10-9-7-9-7------9-7-9-10-9-7-9-10-9-10-9-7-9-7----7---|
-------------------------------10-9--------------------------------10---9-|
--------------------------------------------------------------------------|


0:22

L
----------------------------------------------------------------|
----------------------------------------------------------------|
----------------------------------------------------------------|
----------------------------------------------------------------|
-5-----------5-------------------5-----------5---------------5--|
------------------------------^---------------------------------|
---000-0-0-0---000-0-0-0-0-0-3-0---000-0-0-0---000-0-0-0-3-3----|
   *** * * *   *** * * * * *       *** * * *   *** * * *
R
----------------------------------------------------------------|
----------------------------------------------------------------|
----------------------------------------------------------------|
----------------------------------------------------------------|
----------------------------------------------------------------|
-7-----------7----------------^--7-----------7---------------10-|
---000-0-0-0---000-0-0-0-0-0-3-0---000-0-0-0---000-0-0-0-3-3----|
   *** * * *   *** * * * * *       *** * * *   *** * * *


L
----------------------------------------------------------------------|
----------------------------------------------------------------------|
-----------------------------------------------------_----------------|
----------------------------------------------------/ \---------------|
-5-----------5-------------------------------5---7-5-7-5-4-5-4---4----|
------------------------------^---------------------------------7---5-|
---000-0-0-0---000-0-0-0-0-0-3-0-0-000-0-0-0---0----------------------|
   *** * * *   *** * * * * *     * *** * * *   *
R
------------------------------------------------------------------------|
------------------------------------------------------------------------|
-----------------------------------------------------__-----------------|
----------------------------------------------------/  \----------------|
------------------------------------------------10-9-10-9-7-9-7----7----|
-7-----------7----------------^--------------7------------------10---9--|
---000-0-0-0---000-0-0-0-0-0-3-0-0-000-0-0-0--0-------------------------|
   *** * * *   *** * * * * *     * *** * * *  *




0:32

B
----------------------------------------------------|
----------------------------------------------------|
----------------------------------------------------|
----------------------------------------------------|
---------------------------5---4---2---5---4---2----|
-10---9---7---10---9---7-----0---0---0---0---0---0--|
----0---0---0----0---0---0--------------------------|
    *   *   *    *   *   *   *   *   *   *   *   *
------------------------------------------------|
------------------------------------------------|
------------------------------------------------|
------------------------------------------------|
-5---4---2---5---4---2---4---5---7---5---4---7~-|
---3---3---3---3---3---3---5---5---5---5---5----|
------------------------------------------------|
   *   *   *   *   *   *   *   *   *   *   *
L
---------------------------------------------------|
---------------------------------------------------|
---------------------------------------------------|
---------------------------------------------------|
---------------------------5---4---2---5---4---2---|
-10---9---7---10---9---7-----0---0---0---0---0---0-|
----0---0---0----0---0---0-------------------------|
    *   *   *    *   *   *   *   *   *   *   *   *
R
--------------------------------------------------|
--------------------------------------------------|
--------------------------------------------------|
--------------------------------------------------|
-9---7---5---9---7---5---9---7---5---9---7--5-----|
---------------------------0---0---0---0--0---0---|
---0---0---0---0---0---0--------------------------|
   *   *   *   *   *   *   *   *   *   *  *   *
L
----------------------------------------------------|
------------------------------------------_---------|
----------------------------_------------/ \--------|
---------------------------/ \----------4-5-4---4---|
-5---4---2---5---4---2----4-5-4---4-5-7-------7-----|
---3---3---3---3---3---3--------7-------------------|
----------------------------------------------------|
   *   *   *   *   *   *  
R
----------------------------------------------------|
-------------------------------------------_--------|
-----------------------------_------------/ \-------|
-4---2---0---4---2---0------/ \----------4-5-4---4--|
---------------------------4-5-4---4-5-7-------7----|
---3---3---3---3---3---3---------7------------------|
----------------------------------------------------|
   *   *   *   *   *   *

0:48
L
-----------------------------------------------------------------|
-----------------------------------------------------------------|
-----------------------------------------------------------------|
-----------------------------------------------------------------|
-----------------------------------------------------------------|
-3--3-3-3-3-3-3-3-3-3-3-3--5-5-5--7--7-7-7-7-7-7-7-7-7-7-7-7-----|
-1--1-1-1-1-1-1-1-1-1-1-1--3-3-3--5--5-5-5-5-5-5-5-5-5-5-5-5-0-0-|
                                                             * *
R
-------------------------------------------------------------------------|
-------------------------------------------------------------------------|
-------------------------------------------------------------------------|
------------9-------------12---------------------9-------------12--------|
10-9---9-10---10-9----9-10--10-9----10-9----9-10---10-9----9-10--10-9----|
-----12------------12------------12------12-------------12------------12-|
-------------------------------------------------------------------------|


L
---------------------------------------------------------------------|
---------------------------------------------------------------------|
---------------------------------------------------------------------|
---------------------------------------------------------------------|
---------------------------------------------------------------------|
-3--3-3-3-3-3-3-3-3-3-3-3--5-5-5--7--7-7-7-7-7-7-7-7-7-7---7---7-----|
-1--1-1-1-1-1-1-1-1-1-1-1--3-3-3--5--5-5-5-5-5-5-5-5-5-5-0-5-0-5-0-0-|
                                                         *   *   * *
R
-------------------------------------------------------------------------|
-------------------------------------------------------------------------|
-------------------------------------------------------------------------|
-------------9------------12-------------------9-------------------------|
10-9----9-10---10-9---9-10--10-9--10-9----9-10---10-9---9-10-12-10-9-----|
-----12------------12-----------12-----12-------------12-------------12--|
-------------------------------------------------------------------------|


L
-----------------------------------------------------------------|
-----------------------------------------------------------------|
-----------------------------------------------------------------|
-----------------------------------------------------------------|
-----------------------------------------------------------------|
-3--3-3-3-3-3-3-3-3-3-3-3--5-5-5--7--7-7-7-7-7-7-7-7-7-7-7-7-----|
-1--1-1-1-1-1-1-1-1-1-1-1--3-3-3--5--5-5-5-5-5-5-5-5-5-5-5-5-0-0-|
                                                             * *
R
----------------------------------------------------------------------|
----------------------------------------------------------------------|
----------------------------------------------------------------------|
-----------9------------12---------------------9-------------12-------|
10-9--9-10---10-9---9-10--10-9----10-9----9-10---10-9----9-10--10-9---|
----12-----------12------------12------12-------------12------------12|
----------------------------------------------------------------------|


L
-------------------------------------------------------------------|
-------------------------------------------------------------------|
-------------------------------------------------------------------|
-------------------------------------------------------------------|
-------------------------------------------------------------------|
-3--3-3-3-3-3-3-3-3-3-3-3--5-5-5--7--7-7-7-7-7-7-7-7-7-7-7-7-7-7---|
-1--1-1-1-1-1-1-1-1-1-1-1--3-3-3--5--5-5-5-5-5-5-5-5-5-5-5-5-5-5---|

R
----------------------------------------------------------------------|
----------------------------------------------------------------------|
----------------------------------------------------------------------|
-------------9-----------12-------------------9-----------------------|
10-9----9-10---10-9--9-10--10-9--10-9----9-10---10-9---9-10-12-10-9---|
-----12------------12----------12-----12------------12--------------12|
----------------------------------------------------------------------|




1:08


L
----------------------------------------------------------------------|
----------------------------------------------------------------------|
------------------------------------------------------_---------------|
-----------------------------------------------------/ \--------------|
-5-----------5-------------------5-----------5----7-5-7-5-4-5-4---4---|
------------------------------^---------------------------------7---5-|
---000-0-0-0---000-0-0-0-0-0-3-0---000-0-0-0--------------------------|
   *** * * *   *** * * * * *       *** * * *
R
-----------------------------------------------------------------------|
-----------------------------------------------------------------------|
-------------------------------------------------------__--------------|
-^------------^---------------------^-----------------/  \-------------|
9-7-9-10-9-7-9-7-9-10-9-7-9-7------9-7-9-10-9-7-9-10-9-10-9-7-9-7--7---|
------------------------------10-9-------------------------------10--9-|
-----------------------------------------------------------------------|


L
----------------------------------------------------------------|
----------------------------------------------------------------|
----------------------------------------------------------------|
----------------------------------------------------------------|
-5-----------5-------------------5-----------5---------------5--|
------------------------------^---------------------------------|
---000-0-0-0---000-0-0-0-0-0-3-0---000-0-0-0---000-0-0-0-3-3----|
   *** * * *   *** * * * * *       *** * * *   *** * * *
R
----------------------------------------------------------------|
----------------------------------------------------------------|
----------------------------------------------------------------|
----------------------------------------------------------------|
----------------------------------------------------------------|
-7-----------7----------------^--7-----------7---------------10-|
---000-0-0-0---000-0-0-0-0-0-3-0---000-0-0-0---000-0-0-0-3-3----|
   *** * * *   *** * * * * *       *** * * *   *** * * *


L
----------------------------------------------------------------------|
----------------------------------------------------------------------|
-----------------------------------------------------_----------------|
----------------------------------------------------/ \---------------|
-5-----------5-------------------------------5---7-5-7-5-4-5-4---4----|
------------------------------^---------------------------------7---5-|
---000-0-0-0---000-0-0-0-0-0-3-0-0-000-0-0-0---0----------------------|
   *** * * *   *** * * * * *     * *** * * *   *
R
-----------------------------------------------------------------------|
-----------------------------------------------------------------------|
----------------------------------------------------__-----------------|
---------------------------------------------------/  \----------------|
-----------------------------------------------10-9-10-9-7-9-7----7----|
-7-----------7----------------^--------------7-----------------10---9--|
---000-0-0-0---000-0-0-0-0-0-3-0-0-000-0-0-0--0------------------------|
   *** * * *   *** * * * * *     * *** * * *  *


1:23

B
----------------------------------------------------|
----------------------------------------------------|
----------------------------------------------------|
----------------------------------------------------|
---------------------------5---4---2---5---4---2----|
-10---9---7---10---9---7-----0---0---0---0---0---0--|
----0---0---0----0---0---0--------------------------|
    *   *   *    *   *   *   *   *   *   *   *   *
------------------------------------------------|
------------------------------------------------|
------------------------------------------------|
------------------------------------------------|
-5---4---2---5---4---2---4---5---7---5---4---7~-|
---3---3---3---3---3---3---5---5---5---5---5----|
------------------------------------------------|
   *   *   *   *   *   *   *   *   *   *   *



L
---------------------------------------------------|
---------------------------------------------------|
---------------------------------------------------|
---------------------------------------------------|
---------------------------5---4---2---5---4---2---|
-10---9---7---10---9---7-----0---0---0---0---0---0-|
----0---0---0----0---0---0-------------------------|
    *   *   *    *   *   *   *   *   *   *   *   *
R
--------------------------------------------------|
--------------------------------------------------|
--------------------------------------------------|
--------------------------------------------------|
-9---7---5---9---7---5---9---7---5---9---7---5----|
---------------------------0---0---0----0--0---0--|
---0---0---0---0---0---0--------------------------|
   *   *   *   *   *   *   *   *   *    *  *   *
L
----------------------------------------------------|
------------------------------------------_---------|
----------------------------_------------/ \--------|
---------------------------/ \----------4-5-4---4---|
-5---4---2---5---4---2----4-5-4---4-5-7-------7-----|
---3---3---3---3---3---3--------7-------------------|
----------------------------------------------------|
   *   *   *   *   *   *  
R
-----------------------------------------------------|
--------------------------------------------_--------|
----------------------------_--------------/ \-------|
-4---2---0---4---2---0-----/ \------------7-9-7----7-|
--------------------------7-9-7----7-9-10-------10---|
---3---3---3---3---3---3--------10-------------------|
-----------------------------------------------------|
   *   *   *   *   *   *



1:39

L
-----------------------------------------------------------------|
-----------------------------------------------------------------|
-----------------------------------------------------------------|
-----------------------------------------------------------------|
-----------------------------------------------------------------|
-3--3-3-3-3-3-3-3-3-3-3-3--5-5-5--7--7-7-7-7-7-7-7-7-7-7-7-7-----|
-1--1-1-1-1-1-1-1-1-1-1-1--3-3-3--5--5-5-5-5-5-5-5-5-5-5-5-5-0-0-|

                                                             * *

R
---------------------------------------------------------------------|
---------------------------------------------------------------------|
---------------------------------------------------------------------|
-------------9-----------12---------------------9-----------12-------|
10-9----9-10---10-9--9-10---10-9---10-9----9-10---10-9--9-10--10-9---|
-----12------------12------------12-----12------------12-----------12|
---------------------------------------------------------------------|


L
---------------------------------------------------------------------|
---------------------------------------------------------------------|
---------------------------------------------------------------------|
---------------------------------------------------------------------|
---------------------------------------------------------------------|
-3--3-3-3-3-3-3-3-3-3-3-3--5-5-5--7--7-7-7-7-7-7-7-7-7-7---7---7-----|
-1--1-1-1-1-1-1-1-1-1-1-1--3-3-3--5--5-5-5-5-5-5-5-5-5-5-0-5-0-5-0-0-|
                                                         *   *   * * 
R
-----------------------------------------------------------------|
-----------------------------------------------------------------|
-----------------------------------------------------------------|
------------9----------12----------------9-----------------------|
10-9----9-10-10-9--9-10--10-9--10-9--9-10-10-9--9-10-12-10-9-----|
-----12----------12----------12----12---------12-------------12--|
-----------------------------------------------------------------|


L
-----------------------------------------------------------------|
-----------------------------------------------------------------|
-----------------------------------------------------------------|
-----------------------------------------------------------------|
-----------------------------------------------------------------|
-3--3-3-3-3-3-3-3-3-3-3-3--5-5-5--7--7-7-7-7-7-7-7-7-7-7-7-7-----|
-1--1-1-1-1-1-1-1-1-1-1-1--3-3-3--5--5-5-5-5-5-5-5-5-5-5-5-5-0-0-|
                                                             * *
R
--------------------------------------------------------------|
--------------------------------------------------------------|
--------------------------------------------------------------|
----------9----------12----------------9-----------12---------|
10-9--9-10-10-9--9-10--10-9--10-9--9-10--10-9--9-10--10-9-----|
----12---------12----------12----12----------12-----------12--|
--------------------------------------------------------------|


L
-------------------------------------------------------------------|
-------------------------------------------------------------------|
-------------------------------------------------------------------|
-------------------------------------------------------------------|
-------------------------------------------------------------------|
-3--3-3-3-3-3-3-3-3-3-3-3--5-5-5--7--7-7-7-7-7-7-7-7-7-7-7-7-7-7---|
-1--1-1-1-1-1-1-1-1-1-1-1--3-3-3--5--5-5-5-5-5-5-5-5-5-5-5-5-5-5---|

R
------------------------------------------------------------------|
------------------------------------------------------------------|
------------------------------------------------------------------|
------------9-----------12-----------------9----------------------|
-10-9---9-10--10-9--9-10--10-9---10-9--9-10-10-9--9-10-12-10-9----|
-----12-----------12----------12-----12---------12-------------12-|
------------------------------------------------------------------|



1:59

B
-------------------------------------------------------------------------|
-------------------------------------------------------------------------|
-------------------------------------------------------------------------|
-------------------------------------------------------------------------|
-------------------------------------------------------------------------|
-22222---22-2--22222---22222---22222---22-2--22222---22222---22222--22-2-|
-00000|--00-0--00000|--00000|--00000|--00-0--00000|--00000|--00000--00-0-|
************************************************************************
------------------------------------------------------|
------------------------------------------------------|
------------------------------------------------------|
------------------------------------------------------|
------------------------------------------------------|
-22222---22222---22222---22-2--22222---22222---22222--|
-00000---00000---00000---00-0--00000---00000---00000--|
 ***************************************************
---------------------------------------------------|
---------------------------------------------------|
---------------------------------------------------|
---------------------------------------------------|
---------------------------------------------------|
-22-2--22222---22222---22222--22-2---6-----4----3--|
-00-0--00000---00000---00000--00-0-5---5-3---3-2---|
************************************


2:15

L
---------------------------------------------------------------|
---------------------------------------------------------------|
---------------------------------------------------------------|
---------------------------------------------------------------|
---------------------------------------------------------------|
---------------------------------------------------------------|
-0000-0--00-0-0000-0-0000-0-0000-0-00-0-0000-0-0000-0-0000-0---|
************************************************************
R
--------------------------------------------------------------|
--------------------------------------------------------------|
--------------------------------------------------------------|
------9------------9------9------9-----------9------9------9--|
------X------------X------X------X-----------X------X------X--|
------7------------7------7------7-----------7------7------7--|
-0000----00-0-0000---0000---0000---00-0-0000---0000---0000----|
*****    *********   ****   ****   *********   ****   ****
L
---------------------------------------------------------------|
---------------------------------------------------------------|
---------------------------------------------------------------|
---------------------------------------------------------------|
---------------------------------------------------------------|
-------------------------------------------6-----4-----3-------|
-0000-0--00-0-0000-0-0000-0-0000-0-00-0--5---5-3---3-2---------|
******************************************
R
-----------------------------------------------------------|
-------+10X12----------------------------------------------|
-----------------------------------------------------------|
------9------------9------9------9-------------------------|
------X------------X------X------X-------------------------|
------7------------7------7------7---------6-----4-----3---|
-0000----00-0-0000---0000---0000---00-0--5---5-3---3-2-----|
 ****    *********   ****   ****   ****
L
---------------------------------------------|
---------------------------------------------|
---------------------------------------------|
--------------2------------------------------|
-------2--2----------------------------------|
-0--0----------------------------------------|
---------------------------------------------|

R
---------------------------------------------|
---------------------------------------------|
---------------------------------------------|
--------------9--------------12--------------|
-10-9----9-10---10-9----9-10----10-9----9----|
------12-------------12--------------12------|
---------------------------------------------|

L
--------------------------------------------|
--------------------------------------------|
--------------------------------------------|
--------------------------------------------|
------------5-------------------------------|
-------5-5----------------------------------|
-3--3---------------------------------------|

R
---------------------------------------------|
---------------------------------------------|
---------------------------------------------|
--------------9--------------12--------------|
-10-9----9-10---10-9----9-10----10-9----9----|
------12-------------12--------------12------|
---------------------------------------------|

L
--------------------------------------------|
--------------------------------------------|
--------------------------------------------|
--------------------------------------------|
--------------5-----------------------------|
--------3--3--------------------------------|
-1--1---------------------------------------|

R
---------------------------------------------|
---------------------------------------------|
---------------------------------------------|
--------------9--------------12--------------|
-10-9----9-10---10-9----9-10----10-9----9----|
------12-------------12--------------12------|
---------------------------------------------|

L
--------------------------------------------|
--------------------------------------------|
--------------------------------------------|
--------------------------------------------|
-------------7------------------------------|
-------5--5---------------------------------|
-3--3---------------------------------------|

R
-------------------------------------------|
-------------------------------------------|
-------------------------------------------|
--------------9----------------------------|
-10-9----9-10---10-9----9----12-10-9---9---|
------12-------------12---12--------10-----|
-------------------------------------------|


L
---------------------------------------------|
---------------------------------------------|
---------------------------------------------|
--------------2------------------------------|
-------2--2----------------------------------|
-0--0----------------------------------------|
---------------------------------------------|

R
---------------------------------------------|
---------------------------------------------|
---------------------------------------------|
--------------9--------------12--------------|
-10-9----9-10---10-9----9-10----10-9----9----|
------12-------------12--------------12------|
---------------------------------------------|

L
--------------------------------------------|
--------------------------------------------|
--------------------------------------------|
--------------------------------------------|
------------5-------------------------------|
-------5-5----------------------------------|
-3--3---------------------------------------|

R
---------------------------------------------|
---------------------------------------------|
---------------------------------------------|
--------------9--------------12--------------|
-10-9----9-10---10-9----9-10----10-9----9----|
------12-------------12--------------12------|
---------------------------------------------|

L
--------------------------------------------|
--------------------------------------------|
--------------------------------------------|
--------------------------------------------|
--------------5-----------------------------|
--------3--3--------------------------------|
-1--1---------------------------------------|

R
---------------------------------------------|
---------------------------------------------|
---------------------------------------------|
--------------9--------------12--------------|
-10-9----9-10---10-9----9-10----10-9----9----|
------12-------------12--------------12------|
---------------------------------------------|

L
--------------------------------------------|
--------------------------------------------|
--------------------------------------------|
--------------------------------------------|
-------------7------------------------------|
-------5--5---------------------------------|
-3--3---------------------------------------|

R
-------------------------------------------|
-------------------------------------------|
-------------------------------------------|
--------------9----------------------------|
-10-9----9-10---10-9----9----12-10-9---9---|
------12-------------12---12--------10-----|
-------------------------------------------|



B
----------------------------------------------------|
----------------------------------------------------|
----------------------------------------------------|
----------------------------------------------------|
---------------------------5---4---2---5---4---2----|
-10---9---7---10---9---7-----0---0---0---0---0---0--|
----0---0---0----0---0---0--------------------------|
    *   *   *    *   *   *   *   *   *   *   *   *
------------------------------------------------|
------------------------------------------------|
------------------------------------------------|
------------------------------------------------|
-5---4---2---5---4---2---4---5---7---5---4---7~-|
---3---3---3---3---3---3---5---5---5---5---5----|
------------------------------------------------|
   *   *   *   *   *   *   *   *   *   *   *



L
---------------------------------------------------|
---------------------------------------------------|
---------------------------------------------------|
---------------------------------------------------|
---------------------------5---4---2---5---4---2---|
-10---9---7---10---9---7-----0---0---0---0---0---0-|
----0---0---0----0---0---0-------------------------|
    *   *   *    *   *   *   *   *   *   *   *   *
R 
--------------------------------------------------|
--------------------------------------------------|
--------------------------------------------------|
--------------------------------------------------|
-9---7---5---9---7---5---9---7---5---9---7---5----|
---------------------------0---0---0----0--0---0--|
---0---0---0---0---0---0--------------------------|
   *   *   *   *   *   *   *   *   *    *  *   *
L
----------------------------------------------------|
------------------------------------------_---------|
----------------------------_------------/ \--------|
---------------------------/ \----------4-5-4---4---|
-5---4---2---5---4---2----4-5-4---4-5-7-------7-----|
---3---3---3---3---3---3--------7-------------------|
----------------------------------------------------|
   *   *   *   *   *   *
R
-----------------------------------------------------|
--------------------------------------------_--------|
----------------------------_--------------/ \-------|
-4---2---0---4---2---0-----/ \------------7-9-7----7-|
--------------------------7-9-7----7-9-10-------10---|
---3---3---3---3---3---3--------10-------------------|
-----------------------------------------------------|
   *   *   *   *   *   *

L
-----------------------------------------------------------------|
-----------------------------------------------------------------|
-----------------------------------------------------------------|
-----------------------------------------------------------------|
-----------------------------------------------------------------|
-3--3-3-3-3-3-3-3-3-3-3-3--5-5-5--7--7-7-7-7-7-7-7-7-7-7-7-7-----|
-1--1-1-1-1-1-1-1-1-1-1-1--3-3-3--5--5-5-5-5-5-5-5-5-5-5-5-5-0-0-|
                                                             * *
R
----------------------------------------------------------------|
----------------------------------------------------------------|
----------------------------------------------------------------|
----------9----------12-----------------9-----------12----------|
10-9--9-10-10-9--9-10--10-9---10-9--9-10-10-9---9-10---10-9-----|
----12---------12----------12-----12---------12-------------12--|
----------------------------------------------------------------|


L
---------------------------------------------------------------------|
---------------------------------------------------------------------|
---------------------------------------------------------------------|
---------------------------------------------------------------------|
---------------------------------------------------------------------|
-3--3-3-3-3-3-3-3-3-3-3-3--5-5-5--7--7-7-7-7-7-7-7-7-7-7---7---7-----|
-1--1-1-1-1-1-1-1-1-1-1-1--3-3-3--5--5-5-5-5-5-5-5-5-5-5-0-5-0-5-0-0-|
                                                         *   *   * *
R                        
-------------------------------------------------------------------------|
-------------------------------------------------------------------------|
-------------------------------------------------------------------------|
----------9------------12---------------------9--------------------------|
10-9--9-10--10-9---9-10--10-9----10-9----9-10---10-9----9-10-12-10-9-----|
----12----------12------------12------12-------------12--------------12--|
-------------------------------------------------------------------------|


L
-----------------------------------------------------------------|
-----------------------------------------------------------------|
-----------------------------------------------------------------|
-----------------------------------------------------------------|
-----------------------------------------------------------------|
-3--3-3-3-3-3-3-3-3-3-3-3--5-5-5--7--7-7-7-7-7-7-7-7-7-7-7-7-----|
-1--1-1-1-1-1-1-1-1-1-1-1--3-3-3--5--5-5-5-5-5-5-5-5-5-5-5-5-0-0-|
                                                             * *
R
------------------------------------------------------------------------|
------------------------------------------------------------------------|
------------------------------------------------------------------------|
----------9-------------12---------------------9--------------12--------|
10-9--9-10--10-9----9-10--10-9----10-9----9-10---10-9----9-10----10-9---|
----12-----------12------------12------12-------------12--------------12|
------------------------------------------------------------------------|


L
-------------------------------------------------------------------|
-------------------------------------------------------------------|
-------------------------------------------------------------------|
-------------------------------------------------------------------|
-------------------------------------------------------------------|
-3--3-3-3-3-3-3-3-3-3-3-3--5-5-5--7--7-7-7-7-7-7-7-7-7-7-7-7-7-7---|
-1--1-1-1-1-1-1-1-1-1-1-1--3-3-3--5--5-5-5-5-5-5-5-5-5-5-5-5-5-5---|

R
----------------------------------------------------------------------|
----------------------------------------------------------------------|
----------------------------------------------------------------------|
----------9-----------12---------------------9------------------------|
10-9--9-10-10-9---9-10--10-9----10-9----9-10---10-9---9-10-12-10-9----|
----12---------12------------12------12-------------12-------------12-|
----------------------------------------------------------------------|


L
---------------------------------------------|
---------------------------------------------|
---------------------------------------------|
--------------2------------------------------|
-------2--2----------------------------------|
-0--0----------------------------------------|
---------------------------------------------|

R
---------------------------------------------|
---------------------------------------------|
---------------------------------------------|
--------------9--------------12--------------|
-10-9----9-10---10-9----9-10----10-9----9----|
------12-------------12--------------12------|
---------------------------------------------|

L
--------------------------------------------|
--------------------------------------------|
--------------------------------------------|
--------------------------------------------|
------------5-------------------------------|
-------5-5----------------------------------|
-3--3---------------------------------------|

R
---------------------------------------------|
---------------------------------------------|
---------------------------------------------|
--------------9--------------12--------------|
-10-9----9-10---10-9----9-10----10-9----9----|
------12-------------12--------------12------|
---------------------------------------------|

L
--------------------------------------------|
--------------------------------------------|
--------------------------------------------|
--------------------------------------------|
--------------5-----------------------------|
--------3--3--------------------------------|
-1--1---------------------------------------|

R
---------------------------------------------|
---------------------------------------------|
---------------------------------------------|
--------------9--------------12--------------|
-10-9----9-10---10-9----9-10----10-9----9----|
------12-------------12--------------12------|
---------------------------------------------|

L
--------------------------------------------|
--------------------------------------------|
--------------------------------------------|
--------------------------------------------|
-------------7------------------------------|
-------5--5---------------------------------|
-3--3---------------------------------------|

R
-------------------------------------------|
-------------------------------------------|
-------------------------------------------|
--------------9----------------------------|
-10-9----9-10---10-9----9----12-10-9---9---|
------12-------------12---12--------10-----|
-------------------------------------------|


L
---------------------------------------------|
---------------------------------------------|
---------------------------------------------|
--------------2------------------------------|
-------2--2----------------------------------|
-0--0----------------------------------------|
---------------------------------------------|

R
---------------------------------------------|
---------------------------------------------|
---------------------------------------------|
--------------9--------------12--------------|
-10-9----9-10---10-9----9-10----10-9----9----|
------12-------------12--------------12------|
---------------------------------------------|

L
--------------------------------------------|
--------------------------------------------|
--------------------------------------------|
--------------------------------------------|
------------5-------------------------------|
-------5-5----------------------------------|
-3--3---------------------------------------|

R
---------------------------------------------|
---------------------------------------------|
---------------------------------------------|
--------------9--------------12--------------|
-10-9----9-10---10-9----9-10----10-9----9----|
------12-------------12--------------12------|
---------------------------------------------|

L
--------------------------------------------|
--------------------------------------------|
--------------------------------------------|
--------------------------------------------|
--------------5-----------------------------|
--------3--3--------------------------------|
-1--1---------------------------------------|

R
---------------------------------------------|
---------------------------------------------|
---------------------------------------------|
--------------9--------------12--------------|
-10-9----9-10---10-9----9-10----10-9----9----|
------12-------------12--------------12------|
---------------------------------------------|

L
--------------------------------------------|
--------------------------------------------|
--------------------------------------------|
--------------------------------------------|
-------------7------------------------------|
-------5--5---------------------------------|
-3--3---------------------------------------|

R
-------------------------------------------|
-------------------------------------------|
-------------------------------------------|
--------------9----------------------------|
-10-9----9-10---10-9----9----12-10-9---9---|
------12-------------12---12--------10-----|
-------------------------------------------|
comments
We did not receive enough feedback on this tab! Please rate:
print report bad tab
1 2 3 4 5
I want to post or [tab]
guest
You may want to rate the tab now too:
select rating
Please do not post tabs as comments. Select "correction" instead!