Oops, an error
Loading. Please wait.

Scarlet Tab

2,167 views 39 this week
no commentswrite comment
1 2 3 4 5
please rate
Autoscroll
+/-
esc
set tempo
stop
Contributor
Difficulty
Tuning
intermediate
A E A D F# B
Hey! There's an official Ultimate Guitar app which is ideal
for learning songs when you're away from computer. Get the app
WARNING: You are trying to view
                                    content from Ultimate-Guitar.com
                                    in an unauthorized application,
                                    which is prohibited.

                                    Please use an official Ultimate
                                    Guitar Tabs application for iPhone,
                                    iPad or Android to access legitimate
                                    chords, guitar, bass, and drum tabs
                                    from Ultimate-Guitar.com database.

                                    Type "ultimate guitar tabs" in Apple
                                    App Store's or Android Market's
                                    search to find the application.
----------------------------------------------------------------------------
                                 Scarlet
                             In This Moment
----------------------------------------------------------------------------

This one a song I did not really think I would like at first, but once I started
listening to it, it grew onto me. The whole song is put together so great that you don’t even
notice until you actually start thinking about it. The high notes really elevate the 
song in my point of view. Enjoy!

Username: dkm817 (same on X box live)
Youtube Cover: http://www.youtube.com/watch?v=UlIabOq1nvA
Email: guitardrums@rockfan.com

Guitar 1 Rhythmic (A  E  A  D  F# B  )
Guitar 2 Lead     (A  E  A  D  F# B  )
Guitar 3 Acoustic (C# F# B  E  G# C# )

Tab Guide...
===================================================================
(end of measures)

===================================================================
===================================================================
(end of parts)

===================================================================
===================================================================
===================================================================
(end of song)
(If there is a “continued” it is because the numbers could not
fit on 1 line or connecting times played.)


Intro 1

Guitar 1 Fade In
B ------------------------------------------------------------------|
F#---------7~~~~~~~~~~~~~~-7~~~~~~~~~~~~~~-7~~~~~~~~~~~~~~-7~~~~~~~-|
D ------------------------------------------------------------------|
A ------------------------------------------------------------------|
E ------------------------------------------------------------------|
A ------------------------------------------------------------------|

===================================================================

Guitar 1
B ------------------------------------------------------------------|
F#-~~~~~~~-7~~~~~~~~~~~~~~-7~~~~~~~~~~~~~~-7~~~~~~~~~~~~~~-7~~~~~~~-|
D ------------------------------------------------------------------|
A ------------------------------------------------------------------|
E ------------------------------------------------------------------|
A ------------------------------------------------------------------|

Guitar 3
C#-----------------------------------------------------------------|
G#-----------------------------------------------------------------|
E ---------------------------------5---5---5---5---5---5---5---5---|
B -2---2---2---2---2---2---2---2---5---5---5---5---5---5---5---5---|
F#-2---2---2---2---2---2---2---2---3---3---3---3---3---3---3---3---|
C#-0---0---0---0---0---0---0---0-----------------------------------|
Pm .   .   .   .   .   .   .   .   .   .   .   .   .   .   .   .

===================================================================

Guitar 1
B ------------------------------------------------------------------|
F#-~~~~~~~-7~~~~~~~~~~~~~~-7~~~~~~~~~~~~~~-7~~~~~~~~~~~~~~-7~~~~~~~-|
D ------------------------------------------------------------------|
A ------------------------------------------------------------------|
E ------------------------------------------------------------------|
A ------------------------------------------------------------------|

Guitar 3
C#-----------------------------------------------------------------|
G#-----------------------------------------------------------------|
E -2---2---2---2---2---2---2---2---2---2---2---2---2---2---2---2---|
B -0---0---0---0---0---0---0---0---2---2---2---2---2---2---2---2---|
F#-0---0---0---0---0---0---0---0---0---0---0---0---0---0---0---0---|
C#-----------------------------------------------------------------|
Pm .   .   .   .   .   .   .   .   .   .   .   .   .   .   .   .

===================================================================

Guitar 1
B ------------------------------------------------------------------|
F#-~~~~~~~-7~~~~~~~~~~~~~~-7~~~~~~~~~~~~~~-7~~~~~~~~~~~~~~-7~~~~~~~-|
D ------------------------------------------------------------------|
A ------------------------------------------------------------------|
E ------------------------------------------------------------------|
A ------------------------------------------------------------------|

Guitar 2
B ------------------------------------------------------------------|
F#-------------10~~~~~~~~~~~~~~~~~~~~~~~~~~~~~-10~~~~~~~~~~~~~~~~~~-|
D -----11--13~~~~~~~~~~~~~~~~~~~~~~~~~-11--13~~~~~~~~~~~~~~~~~~~~~~-|
A ------------------------------------------------------------------|
E ------------------------------------------------------------------|
A ------------------------------------------------------------------|

Guitar 3
C#-----------------------------------------------------------------|
G#-----------------------------------------------------------------|
E ---------------------------------5---5---5---5---5---5---5---5---|
B -2---2---2---2---2---2---2---2---5---5---5---5---5---5---5---5---|
F#-2---2---2---2---2---2---2---2---3---3---3---3---3---3---3---3---|
C#-0---0---0---0---0---0---0---0-----------------------------------|
Pm .   .   .   .   .   .   .   .   .   .   .   .   .   .   .   .

===================================================================

Guitar 1
B ------------------------------------------------------------------|
F#-~~~~~~~-7~~~~~~~~~~~~~~-7~~~~~~~~~~~~~~-7~~~~~~~~~~~~~~-7~~~~~~~-|
D ------------------------------------------------------------------|
A ------------------------------------------------------------------|
E ------------------------------------------------------------------|
A ------------------------------------------------------------------|

Guitar 2
B ------------------------------------------------------------------|
F#-~~~~~~~~~~~-10~~~~~~~~~~~~~~~~~~~~~~~~~~~~~-10~~~~~~~~~~~~~~~~~~-|
D -~~~-11--13~~~~~~~~~~~~~~~~~~~~~~~~~-11--13~~~~~~~~~~~~~~~~~~~~~~-|
A ------------------------------------------------------------------|
E ------------------------------------------------------------------|
A ------------------------------------------------------------------|

Guitar 3
C#-----------------------------------------------------------------|
G#-----------------------------------------------------------------|
E -2---2---2---2---2---2---2---2---2---2---2---2---2---2---2---2---|
B -0---0---0---0---0---0---0---0---2---2---2---2---2---2---2---2---|
F#-0---0---0---0---0---0---0---0---0---0---0---0---0---0---0---0---|
C#-----------------------------------------------------------------|
Pm .   .   .   .   .   .   .   .   .   .   .   .   .   .   .   .

===================================================================
===================================================================


Intro 2

(x2)

Guitar 1
B ------------------------------------------------------------------|
F#-~~~~~~~-7~~~~~~~~~~~~~~-7~~~~~~~~~~~~~~-7~~~~~~~~~~~~~~-7~~~~~~~-|
D ------------------------------------------------------------------|
A ------------------------------------------------------------------|
E ------------------------------------------------------------------|
A ------------------------------------------------------------------|

Guitar 2
B ------------------------------------------------------------------|
F#-------------10~~~~~~~~~~~~~~~~~~~~~~~~~~~~~-10~~~~~~~~~~~~~~~~~~-|
D -----11--13~~~~~~~~~~~~~~~~~~~~~~~~~-11--13~~~~~~~~~~~~~~~~~~~~~~-|
A ------------------------------------------------------------------|
E ------------------------------------------------------------------|
A ------------------------------------------------------------------|

Guitar 3
C#-----------------------------------------------------------------|
G#-----------------------------------------------------------------|
E ---------------------------------5---5---5---5---5---5---5---5---|
B -2---2---2---2---2---2---2---2---5---5---5---5---5---5---5---5---|
F#-2---2---2---2---2---2---2---2---3---3---3---3---3---3---3---3---|
C#-0---0---0---0---0---0---0---0-----------------------------------|
Pm .   .   .   .   .   .   .   .   .   .   .   .   .   .   .   .

===================================================================

Guitar 1
B ------------------------------------------------------------------|
F#-~~~~~~~-7~~~~~~~~~~~~~~-7~~~~~~~~~~~~~~-7~~~~~~~~~~~~~~-7~~~~~~~-|
D ------------------------------------------------------------------|
A ------------------------------------------------------------------|
E ------------------------------------------------------------------|
A ------------------------------------------------------------------|

Guitar 2
B ------------------------------------------------------------------|
F#-~~~~~~~~~~~-10~~~~~~~~~~~~~~~~~~~~~~~~~~~~~-10~~~~~~~~~~~~~~~~~~-|
D -~~~-11--13~~~~~~~~~~~~~~~~~~~~~~~~~-11--13~~~~~~~~~~~~~~~~~~~~~~-|
A ------------------------------------------------------------------|
E ------------------------------------------------------------------|
A ------------------------------------------------------------------|

Guitar 3
C#-----------------------------------------------------------------|
G#-----------------------------------------------------------------|
E -2---2---2---2---2---2---2---2---2---2---2---2---2---2---2---2---|
B -0---0---0---0---0---0---0---0---2---2---2---2---2---2---2---2---|
F#-0---0---0---0---0---0---0---0---0---0---0---0---0---0---0---0---|
C#-----------------------------------------------------------------|
Pm .   .   .   .   .   .   .   .   .   .   .   .   .   .   .   .

===================================================================
===================================================================


Intro 3

Guitar 1
B -~~~~~~~-9~~~~~~~~~~~~~~-9~~~~~~~~~~~~~~-9~~~~~~~~~~~~~~-9~~~~~~~-|
F#------------------------------------------------------------------|
D ------------------------------------------------------------------|
A ------------------------------------------------------------------|
E ------------------------------------------------------------------|
A ------------------------------------------------------------------|

Guitar 2
B -----------------------------------------------------------------
F#-~~~~~~~-9~~~~~~~~~~~~~~~~~~~~~~~~~~~~~~-9~~~~~~~~~~~~~~~~~~~~~~~
D -~~~-11~~~~~-13~~~~~~~~~~~~~~~~~~~~~-11~~~~~-13~~~~~~~~~~~~~~~~~~-|
A ------------------------------------------------------------------|
E ------------------------------------------------------------------|
A ------------------------------------------------------------------|

Guitar 3
C#-----------------------------------------------------------------|
G#-----------------------------------------------------------------|
E -5---5---5---5---5---5---5---5---2---2---2---2---2---2---2---2---|
B -5---5---5---5---5---5---5---5---0---0---0---0---0---0---0---0---|
F#-3---3---3---3---3---3---3---3---0---0---0---0---0---0---0---0---|
C#-----------------------------------------------------------------|
Pm .   .   .   .   .   .   .   .   .   .   .   .   .   .   .   .

===================================================================

Guitar 1
B -~~~~~~~-9~~~~~~~~~~~~~~-9~~~~~~~~~~~~~~-9~~~~~~~~~~~~~~-9~~~~~~~-|
F#------------------------------------------------------------------|
D ------------------------------------------------------------------|
A ------------------------------------------------------------------|
E ------------------------------------------------------------------|
A ------------------------------------------------------------------|

Guitar 2
B ------------------------------------------------------------------|
F#-~~~~~~~-10~~~~~~~~~~~~~~~~~~~~~~~~~~~~~-10~~~~~~~~~~~~~~~~~~~~~~-|
D -~~~-11~~~~~-13~~~~~~~~~~~~~~~~~~~~~-11~~~~~-13~~~~~~~~~~~~~~~~~~-|
A ------------------------------------------------------------------|
E ------------------------------------------------------------------|
A ------------------------------------------------------------------|

Guitar 3
C#-----------------------------------------------------------------|
G#-----------------------------------------------------------------|
E ---------------------------------2---2---2---2---2---2---2---2---|
B -2---2---2---2---2---2---2---2---2---2---2---2---2---2---2---2---|
F#-2---2---2---2---2---2---2---2---0---0---0---0---0---0---0---0---|
C#-0---0---0---0---0---0---0---0-----------------------------------|
Pm .   .   .   .   .   .   .   .   .   .   .   .   .   .   .   .

===================================================================

Guitar 1
B -~~~~~~~-9~~~~~~~~~~~~~~-9~~~~~~-9~~~~~~~~~~~~~~~~~~~~~~~~~~~~~~-|
F#-----------------------------------------------------------------|
D -----------------------------------------------------------------|
A -----------------------------------------------------------------|
E -----------------------------------------------------------------|
A -----------------------------------------------------------------|

Guitar 2
B -----------------------------------------------------------------|
F#-~~~~~~~-9~~~~~~~~~~~~~~~~~~~~~~-9~~~~~~~~~~~~~~~~~~~~~~~~~~~~~~-|
D -~~~-11~~~~~-13~~~~~~~~~~~~~~~~~-13~~~~~~~~~~~~~~~~~~~~~~~~~~~~~-|
A -----------------------------------------------------------------|
E -----------------------------------------------------------------|
A -----------------------------------------------------------------|

Guitar 3
C#-----------------------------------------------------------------|
G#-----------------------------------------------------------------|
E -5---5---5---5---5---5---5---5---2~~~~~~~~~~~~~~~~~~~~~~~~~~~~~~-|
B -5---5---5---5---5---5---5---5---0~~~~~~~~~~~~~~~~~~~~~~~~~~~~~~-|
F#-3---3---3---3---3---3---3---3---0~~~~~~~~~~~~~~~~~~~~~~~~~~~~~~-|
C#-----------------------------------------------------------------|
Pm .   .   .   .   .   .   .   .

===================================================================
===================================================================


Bridge 1

Guitar 1 (Phaser)
B -----------------------------------------------------------------|
F#-7~~~~~~~~~~~~~~~~~~~~~~~~~~~~~~~--------------------------------|
D -6~~~~~~~~~~~~~~~~~~~~~~~~~~~~~~~--------------------------------|
A -4~~~~~~~~~~~~~~~~~~~~~~~~~~~~~~~--------------------------------|
E -4~~~~~~~~~~~~~~~~~~~~~~~~~~~~~~~--------------------------------|
A -4~~~~~~~~~~~~~~~~~~~~~~~~~~~~~~~--------------------------------|

Guitar 3
C#-----------------------------------------------------------------|
G#-----------------------------------------------------------------|
E ---------------------------------5---5---5---5---5---5---5---5---|
B -2---2---2---2---2---2---2---2---5---5---5---5---5---5---5---5---|
F#-2---2---2---2---2---2---2---2---3---3---3---3---3---3---3---3---|
C#-0---0---0---0---0---0---0---0-----------------------------------|
Pm .   .   .   .   .   .   .   .   .   .   .   .   .   .   .   .

===================================================================

Guitar 1
B -----------------------------------------------------------------|
F#---------------------------------~~~~~~~~~~~~~~~~~~~~~~~~~~~~~~~-|
D ---------------------------------~~~~~~~~~~~~~~~~~~~~~~~~~~~~~~~-|
A ---------------------------------~~~~~~~~~~~~~~~~~~~~~~~~~~~~~~~-|
E ---------------------------------~~~~~~~~~~~~~~~~~~~~~~~~~~~~~~~-|
A ---------------------------------~~~~~~~~~~~~~~~~~~~~~~~~~~~~~~~-|

Guitar 3
C#-----------------------------------------------------------------|
G#-----------------------------------------------------------------|
E -2---2---2---2---2---2---2---2---2---2---2---2---2---2---2---2---|
B -0---0---0---0---0---0---0---0---2---2---2---2---2---2---2---2---|
F#-0---0---0---0---0---0---0---0---0---0---0---0---0---0---0---0---|
C#-----------------------------------------------------------------|
Pm .   .   .   .   .   .   .   .   .   .   .   .   .   .   .   .

===================================================================
===================================================================


Verse 1

Guitar 1
B -----------------------------------------------------------------|
F#-7~~~~~~~~~~~~~~~~~~~~~~~~~~~~~~~--------------------------------|
D -6~~~~~~~~~~~~~~~~~~~~~~~~~~~~~~~--------------------------------|
A -4~~~~~~~~~~~~~~~~~~~~~~~~~~~~~~~--------------------------------|
E -4~~~~~~~~~~~~~~~~~~~~~~~~~~~~~~~--------------------------------|
A -4~~~~~~~~~~~~~~~~~~~~~~~~~~~~~~~--------------------------------|

Guitar 3
C#-----------------------------------------------------------------|
G#-----------------------------------------------------------------|
E ---------------------------------5---5---5---5---5---5---5---5---|
B -2---2---2---2---2---2---2---2---5---5---5---5---5---5---5---5---|
F#-2---2---2---2---2---2---2---2---3---3---3---3---3---3---3---3---|
C#-0---0---0---0---0---0---0---0-----------------------------------|
Pm .   .   .   .   .   .   .   .   .   .   .   .   .   .   .   .

===================================================================

Guitar 1
B -----------------------------------------------------------------|
F#-----------------------------------------------------------------|
D -----------------------------------------------------------------|
A -----------------------------------------------------------------|
E -----------------------------------------------------------------|
A -----------------------------------------------------------------|

Guitar 2
B ------------------------------------------------------------------|
F#---------------------------------------------10~~~~~~~~~~~~~~~~~~-|
D -------------------------------------11--13~~~~~~~~~~~~~~~~~~~~~~-|
A ------------------------------------------------------------------|
E ------------------------------------------------------------------|
A ------------------------------------------------------------------|

Guitar 3
C#-----------------------------------------------------------------|
G#-----------------------------------------------------------------|
E -2---2---2---2---2---2---2---2---2---2---2---2---2---2---2---2---|
B -0---0---0---0---0---0---0---0---2---2---2---2---2---2---2---2---|
F#-0---0---0---0---0---0---0---0---0---0---0---0---0---0---0---0---|
C#-----------------------------------------------------------------|
Pm .   .   .   .   .   .   .   .   .   .   .   .   .   .   .   .

===================================================================

Guitar 1
B -----------------------------------------------------------------|
F#-7~~~~~~~~~~~~~~~~~~~~~~~~~~~~~~~--------------------------------|
D -6~~~~~~~~~~~~~~~~~~~~~~~~~~~~~~~--------------------------------|
A -4~~~~~~~~~~~~~~~~~~~~~~~~~~~~~~~--------------------------------|
E -4~~~~~~~~~~~~~~~~~~~~~~~~~~~~~~~--------------------------------|
A -4~~~~~~~~~~~~~~~~~~~~~~~~~~~~~~~--------------------------------|

Guitar 3
C#-----------------------------------------------------------------|
G#-----------------------------------------------------------------|
E ---------------------------------5---5---5---5---5---5---5---5---|
B -2---2---2---2---2---2---2---2---5---5---5---5---5---5---5---5---|
F#-2---2---2---2---2---2---2---2---3---3---3---3---3---3---3---3---|
C#-0---0---0---0---0---0---0---0-----------------------------------|
Pm .   .   .   .   .   .   .   .   .   .   .   .   .   .   .   .

===================================================================

Guitar 1
B -----------------------------------------------------------------|
F#---------------------------------~~~~~~~~~~~~~~~~~~~~~~~~~~~~~~~-|
D ---------------------------------~~~~~~~~~~~~~~~~~~~~~~~~~~~~~~~-|
A ---------------------------------~~~~~~~~~~~~~~~~~~~~~~~~~~~~~~~-|
E ---------------------------------~~~~~~~~~~~~~~~~~~~~~~~~~~~~~~~-|
A ---------------------------------~~~~~~~~~~~~~~~~~~~~~~~~~~~~~~~-|

Guitar 2
B ------------------------------------------------------------------|
F#-~~~~~~~~~~~-10~~~~~~~~~~~~~~~~~~~~~~~~~~~~~-10~~~~~~~~~~~~~~~~~~-|
D -~~~-11--13~~~~~~~~~~~~~~~~~~~~~~~~~-11--13~~~~~~~~~~~~~~~~~~~~~~-|
A ------------------------------------------------------------------|
E ------------------------------------------------------------------|
A ------------------------------------------------------------------|

Guitar 3
C#-----------------------------------------------------------------|
G#-----------------------------------------------------------------|
E -2---2---2---2---2---2---2---2---2---2---2---2---2---2---2---2---|
B -0---0---0---0---0---0---0---0---2---2---2---2---2---2---2---2---|
F#-0---0---0---0---0---0---0---0---0---0---0---0---0---0---0---0---|
C#-----------------------------------------------------------------|
Pm .   .   .   .   .   .   .   .   .   .   .   .   .   .   .   .

===================================================================
===================================================================


Pre Chorus 1

Guitar 1
B -----------------------------------------------------------------|
F#-7~~~~~~~~~~~~~~~~~~~~~~~~~~~~~~~--------------------------------|
D -6~~~~~~~~~~~~~~~~~~~~~~~~~~~~~~~--------------------------------|
A -4~~~~~~~~~~~~~~~~~~~~~~~~~~~~~~~--------------------------------|
E -4~~~~~~~~~~~~~~~~~~~~~~~~~~~~~~~--------------------------------|
A -4~~~~~~~~~~~~~~~~~~~~~~~~~~~~~~~--------------------------------|

Guitar 2
B -----------------------------------------------------------------
F#-~~~~~~~-9~~~~~~~~~~~~~~~~~~~~~~~~~~~~~~-9~~~~~~~~~~~~~~~~~~~~~~~
D -~~~-11~~~~~-13~~~~~~~~~~~~~~~~~~~~~-11~~~~~-13~~~~~~~~~~~~~~~~~~-|
A ------------------------------------------------------------------|
E ------------------------------------------------------------------|
A ------------------------------------------------------------------|

Guitar 3
C#-----------------------------------------------------------------|
G#-----------------------------------------------------------------|
E -5---5---5---5---5---5---5---5---2---2---2---2---2---2---2---2---|
B -5---5---5---5---5---5---5---5---0---0---0---0---0---0---0---0---|
F#-3---3---3---3---3---3---3---3---0---0---0---0---0---0---0---0---|
C#-----------------------------------------------------------------|
Pm .   .   .   .   .   .   .   .   .   .   .   .   .   .   .   .

===================================================================

Guitar 1
B -----------------------------------------------------------------|
F#-----------------------------------------------------------------|
D -----------------------------------------------------------------|
A -----------------------------------------------------------------|
E -----------------------------------------------------------------|
A -----------------------------------------------------------------|

Guitar 2
B ------------------------------------------------------------------|
F#-~~~~~~~-10~~~~~~~~~~~~~~~~~~~~~~~~~~~~~-10~~~~~~~~~~~~~~~~~~~~~~-|
D -~~~-11~~~~~-13~~~~~~~~~~~~~~~~~~~~~-11~~~~~-13~~~~~~~~~~~~~~~~~~-|
A ------------------------------------------------------------------|
E ------------------------------------------------------------------|
A ------------------------------------------------------------------|

Guitar 3
C#-----------------------------------------------------------------|
G#-----------------------------------------------------------------|
E ---------------------------------2---2---2---2---2---2---2---2---|
B -2---2---2---2---2---2---2---2---2---2---2---2---2---2---2---2---|
F#-2---2---2---2---2---2---2---2---0---0---0---0---0---0---0---0---|
C#-0---0---0---0---0---0---0---0-----------------------------------|
Pm .   .   .   .   .   .   .   .   .   .   .   .   .   .   .   .

===================================================================

Guitar 1
B -----------------------------------------------------------------
F#-~~~~~~~~~~~~~~~~~~~~~~~~~~~~~~~-7~~~~~~~~~~~~~~~~~~~~~~~~~~~~~~-
D -~~~~~~~~~~~~~~~~~~~~~~~~~~~~~~~-6~~~~~~~~~~~~~~~~~~~~~~~~~~~~~~-
A -~~~~~~~~~~~~~~~~~~~~~~~~~~~~~~~-4~~~~~~~~~~~~~~~~~~~~~~~~~~~~~~-
E -~~~~~~~~~~~~~~~~~~~~~~~~~~~~~~~-4~~~~~~~~~~~~~~~~~~~~~~~~~~~~~~-
A -~~~~~~~~~~~~~~~~~~~~~~~~~~~~~~~-4~~~~~~~~~~~~~~~~~~~~~~~~~~~~~~-

Guitar 2
B -----------------------------------------------------------------|
F#-~~~~~~~-9~~~~~~~~~~~~~~~~~~~~~~-9~~~~~~~~~~~~~~~~~~~~~~~~~~~~~~-|
D -~~~-11~~~~~-13~~~~~~~~~~~~~~~~~-13~~~~~~~~~~~~~~~~~~~~~~~~~~~~~-|
A -----------------------------------------------------------------|
E -----------------------------------------------------------------|
A -----------------------------------------------------------------|

Guitar 3
C#-----------------------------------------------------------------|
G#-----------------------------------------------------------------|
E -5---5---5---5---5---5---5---5---2~~~~~~~~~~~~~~~~~~~~~~~~~~~~~~-|
B -5---5---5---5---5---5---5---5---0~~~~~~~~~~~~~~~~~~~~~~~~~~~~~~-|
F#-3---3---3---3---3---3---3---3---0~~~~~~~~~~~~~~~~~~~~~~~~~~~~~~-|
C#-----------------------------------------------------------------|
Pm .   .   .   .   .   .   .   .

===================================================================
===================================================================


Chorus 1

(x2)

Guitar 1
B -----------------------------------------------------------------|
F#-----------------------------------------------------------------|
D -----------------------------------------------------------------|
A -4---4---4---4---4---4---4---4---6---6---6---6---6---6---6---6---|
E -4---4---4---4---4---4---4---4---6---6---6---6---6---6---6---6---|
A -4---4---4---4---4---4---4---4---6---6---6---6---6---6---6---6---|

Guitar 2
B -14--14--14--16--16--16--17--17--------------16--16--16--17--17--|
F#---------------------------------15--15--15----------------------|
D -----------------------------------------------------------------|
A -----------------------------------------------------------------|
E -----------------------------------------------------------------|
A -----------------------------------------------------------------|

Guitar 3
C#-----------------------------------------------------------------|
G#-----------------------------------------------------------------|
E -----------------------------------------------------------------|
B -2---2---2---2---2---2---2---2---4---4---4---4---4---4---4---4---|
F#-2---2---2---2---2---2---2---2---4---4---4---4---4---4---4---4---|
C#-0---0---0---0---0---0---0---0---2---2---2---2---2---2---2---2---|
Pm .   .   .   .   .   .   .   .   .   .   .   .   .   .   .   .

===================================================================

Guitar 1
B -----------------------------------------------------------------|
F#-----------------------------------------------------------------|
D -----------------------------------------------------------------|
A -7---7---7---7---7---7---7---7---6---6---6---6---6---6---6---6---|
E -7---7---7---7---7---7---7---7---6---6---6---6---6---6---6---6---|
A -7---7---7---7---7---7---7---7---6---6---6---6---6---6---6---6---|

Guitar 2
B -------------16--16--16--17--17--19--19--19--17--17--17--16--16--|
F#-14--14--14------------------------------------------------------|
D -----------------------------------------------------------------|
A -----------------------------------------------------------------|
E -----------------------------------------------------------------|
A -----------------------------------------------------------------|

Guitar 3
C#-----------------------------------------------------------------|
G#-----------------------------------------------------------------|
E -----------------------------------------------------------------|
B -0---0---0---0---0---0---0---0---4---4---4---4---4---4---4---4---|
F#-2---2---2---2---2---2---2---2---4---4---4---4---4---4---4---4---|
C#-3---3---3---3---3---3---3---3---2---2---2---2---2---2---2---2---|
Pm .   .   .   .   .   .   .   .   .   .   .   .   .   .   .   .

===================================================================

Guitar 1
B -----------------------------------------------------------------|
F#-----------------------------------------------------------------|
D -----------------------------------------------------------------|
A -4---4---4---4---4---4---4---4---6---6---6---6---6---6---6---6---|
E -4---4---4---4---4---4---4---4---6---6---6---6---6---6---6---6---|
A -4---4---4---4---4---4---4---4---6---6---6---6---6---6---6---6---|

Guitar 2
B -14--14--14--16--16--16--17--17--------------16--16--16--17--17--|
F#---------------------------------15--15--15----------------------|
D -----------------------------------------------------------------|
A -----------------------------------------------------------------|
E -----------------------------------------------------------------|
A -----------------------------------------------------------------|

Guitar 3
C#-----------------------------------------------------------------|
G#-----------------------------------------------------------------|
E -----------------------------------------------------------------|
B -2---2---2---2---2---2---2---2---4---4---4---4---4---4---4---4---|
F#-2---2---2---2---2---2---2---2---4---4---4---4---4---4---4---4---|
C#-0---0---0---0---0---0---0---0---2---2---2---2---2---2---2---2---|
Pm .   .   .   .   .   .   .   .   .   .   .   .   .   .   .   .

===================================================================

Guitar 1
B -----------------------------------------------------------------|
F#-----------------------------------------------------------------|
D -----------------------------------------------------------------|
A -7---7---7---7---7---7---7---7---9---9---9---9---9---9---9---9---|
E -7---7---7---7---7---7---7---7---9---9---9---9---9---9---9---9---|
A -7---7---7---7---7---7---7---7---9---9---9---9---9---9---9---9---|

Guitar 2
B -------------16--16--16--17--17--19--19--19--17--17--17--16--16--|
F#-14--14--14------------------------------------------------------|
D -----------------------------------------------------------------|
A -----------------------------------------------------------------|
E -----------------------------------------------------------------|
A -----------------------------------------------------------------|

Guitar 3
C#-----------------------------------------------------------------|
G#-----------------------------------------------------------------|
E ---------------------------------2---2---2---2---2---2---2---2---|
B -0---0---0---0---0---0---0---0---2---2---2---2---2---2---2---2---|
F#-2---2---2---2---2---2---2---2---0---0---0---0---0---0---0---0---|
C#-3---3---3---3---3---3---3---3-----------------------------------|
Pm .   .   .   .   .   .   .   .   .   .   .   .   .   .   .   .

===================================================================
===================================================================


Interlude

Guitar 1 & 2
B -----------------------------------------------------------------|
F#-----------------------------------------------------------------|
D -----------------------------------------------------------------|
A -0~~~~~~~~~~~~~~~~~~~~~~-0---4~~~~~~~~~~~~~~~~~~~~~~~~~~-4---4---|
E -0~~~~~~~~~~~~~~~~~~~~~~-0---4~~~~~~~~~~~~~~~~~~~~~~~~~~-4---4---|
A -0~~~~~~~~~~~~~~~~~~~~~~-0---4~~~~~~~~~~~~~~~~~~~~~~~~~~-4---4---|
Pm                         .                               .   .

Guitar 3
C#-----------------------------------------------------------------|
G#-----------------------------------------------------------------|
E -5---5---5---5---5---5---5---------------------------------------|
B -5---5---5---5---5---5---5---2---2---2---2---2---2---2---2---2---|
F#-3---3---3---3---3---3---3---2---2---2---2---2---2---2---2---2---|
C#-----------------------------0---0---0---0---0---0---0---0---0---|
Pm .   .   .   .   .   .   .   .   .   .   .   .   .   .   .   .

===================================================================

Guitar 1 & 2
B -----------------------------------------------------------------|
F#-----------------------------------------------------------------|
D -----------------------------------------------------------------|
A -0~~~~~~~~~~~~~~~~~~~~~~-0---2~~~~~~~~~~-0---2~~~~~~~~~~-2---2---|
E -0~~~~~~~~~~~~~~~~~~~~~~-0---2~~~~~~~~~~-0---2~~~~~~~~~~-2---2---|
A -0~~~~~~~~~~~~~~~~~~~~~~-0---2~~~~~~~~~~-0---2~~~~~~~~~~-2---2---|
Pm                         .               .               .   .

Guitar 3
C#-----------------------------------------------------------------|
G#-----------------------------------------------------------------|
E -5---5---5---5---5---5---5---2---2---2---2---2---2---2---2---2---|
B -5---5---5---5---5---5---5---0---0---0---0---0---0---0---0---0---|
F#-3---3---3---3---3---3---3---0---0---0---0---0---0---0---0---0---|
C#-----------------------------------------------------------------|
Pm .   .   .   .   .   .   .   .   .   .   .   .   .   .   .   .

===================================================================

Guitar 1 & 2
B -----------------------------------------------------------------|
F#-----------------------------------------------------------------|
D -----------------------------------------------------------------|
A -0~~~~~~~~~~~~~~~~~~~~~~-0---4~~~~~~~~~~~~~~~~~~~~~~~~~~~~~~-4---|
E -0~~~~~~~~~~~~~~~~~~~~~~-0---4~~~~~~~~~~~~~~~~~~~~~~~~~~~~~~-4---|
A -0~~~~~~~~~~~~~~~~~~~~~~-0---4~~~~~~~~~~~~~~~~~~~~~~~~~~~~~~-4---|
Pm                         .                                   .

Guitar 3
C#-----------------------------------------------------------------|
G#-----------------------------------------------------------------|
E -5---5---5---5---5---5---5---------------------------------------|
B -5---5---5---5---5---5---5---2---2---2---2---2---2---2---2---2---|
F#-3---3---3---3---3---3---3---2---2---2---2---2---2---2---2---2---|
C#-----------------------------0---0---0---0---0---0---0---0---0---|
Pm .   .   .   .   .   .   .   .   .   .   .   .   .   .   .   .

===================================================================

Guitar 1 & 2
B -----------------------------------------------------------------|
F#-----------------------------------------------------------------|
D -----------------------------------------------------------------|
A -2~~~~~~~~~~~~~~~~~~~~~~~~~~~~~~~~~~-2---2---7---7---7-4-6---6---|
E -2~~~~~~~~~~~~~~~~~~~~~~~~~~~~~~~~~~-2---2---7---7---7-4-6---6---|
A -2~~~~~~~~~~~~~~~~~~~~~~~~~~~~~~~~~~-2---2---7---7---7-4-6---6---|

Guitar 3
C#-----------------------------------------------------------------|
G#-----------------------------------------------------------------|
E -2---2---2---2---2---2---2---2---2---2---2-----------------------|
B -0---0---0---0---0---0---0---0---0---0---0---5---5---4---4---4---|
F#-0---0---0---0---0---0---0---0---0---0---0---5---5---4---4---4---|
C#---------------------------------------------3---3---2---2---2---|
Pm .   .   .   .   .   .   .   .   .   .   .   .   .   .   .   .

===================================================================
===================================================================


Bridge 2

Guitar 1
B ------------------------------------------------------------------|
F#---------7~~~~~~~~~~~~~~-7~~~~~~~~~~~~~~-7~~~~~~~~~~~~~~-7~~~~~~~-|
D ------------------------------------------------------------------|
A ------------------------------------------------------------------|
E ------------------------------------------------------------------|
A ------------------------------------------------------------------|

Guitar 3
C#-----------------------------------------------------------------|
G#-----------------------------------------------------------------|
E ---------------------------------5---5---5---5---5---5---5---5---|
B -2---2---2---2---2---2---2---2---5---5---5---5---5---5---5---5---|
F#-2---2---2---2---2---2---2---2---3---3---3---3---3---3---3---3---|
C#-0---0---0---0---0---0---0---0-----------------------------------|
Pm .   .   .   .   .   .   .   .   .   .   .   .   .   .   .   .

===================================================================

Guitar 1
B ------------------------------------------------------------------|
F#-~~~~~~~-7~~~~~~~~~~~~~~-7~~~~~~~~~~~~~~-7~~~~~~~~~~~~~~-7~~~~~~~-|
D ------------------------------------------------------------------|
A ------------------------------------------------------------------|
E ------------------------------------------------------------------|
A ------------------------------------------------------------------|

Guitar 3
C#-----------------------------------------------------------------|
G#-----------------------------------------------------------------|
E -2---2---2---2---2---2---2---2---2---2---2---2---2---2---2---2---|
B -0---0---0---0---0---0---0---0---2---2---2---2---2---2---2---2---|
F#-0---0---0---0---0---0---0---0---0---0---0---0---0---0---0---0---|
C#-----------------------------------------------------------------|
Pm .   .   .   .   .   .   .   .   .   .   .   .   .   .   .   .

===================================================================

Guitar 1
B ------------------------------------------------------------------|
F#-~~~~~~~-7~~~~~~~~~~~~~~-7~~~~~~~~~~~~~~-7~~~~~~~~~~~~~~-7~~~~~~~-|
D ------------------------------------------------------------------|
A ------------------------------------------------------------------|
E ------------------------------------------------------------------|
A ------------------------------------------------------------------|

Guitar 3
C#-----------------------------------------------------------------|
G#-----------------------------------------------------------------|
E ---------------------------------5---5---5---5---5---5---5---5---|
B -2---2---2---2---2---2---2---2---5---5---5---5---5---5---5---5---|
F#-2---2---2---2---2---2---2---2---3---3---3---3---3---3---3---3---|
C#-0---0---0---0---0---0---0---0-----------------------------------|
Pm .   .   .   .   .   .   .   .   .   .   .   .   .   .   .   .

===================================================================

Guitar 1                           (Fade In)
B -----------------------------------------------------------------|
F#-~~~~~~~-7~~~~~~~~~~~~~~-7~~~~~~---------------------------------|
D ---------------------------------11~~~~~~~~~~~~~~~~~~~~~~~~~~~~~-|
A ---------------------------------11~~~~~~~~~~~~~~~~~~~~~~~~~~~~~-|
E ---------------------------------9~~~~~~~~~~~~~~~~~~~~~~~~~~~~~~-|
A -----------------------------------------------------------------|

Guitar 3
C#-----------------------------------------------------------------|
G#-----------------------------------------------------------------|
E -2---2---2---2---2---2---2---2---2~~~~~~~~~~~~~~~~~~~~~~~~~~~~~~-|
B -0---0---0---0---0---0---0---0---2~~~~~~~~~~~~~~~~~~~~~~~~~~~~~~-|
F#-0---0---0---0---0---0---0---0---0~~~~~~~~~~~~~~~~~~~~~~~~~~~~~~-|
C#-----------------------------------------------------------------|
Pm .   .   .   .   .   .   .   .

===================================================================
===================================================================


Guitar Solo

Guitar 1
B -----------------------------------------------------------------|
F#-----------------------------------------------------------------|
D -----------------------------------------------------------------|
A -4---4---4---4---4---4---4---4---6---6---6---6---6---6---6---6---|
E -4---4---4---4---4---4---4---4---6---6---6---6---6---6---6---6---|
A -4---4---4---4---4---4---4---4---6---6---6---6---6---6---6---6---|

Guitar 2
B ------------------------------------------------------------------|
F#-17~~~~~~b~~~~~~~~~~~~~~~~~~~~~~-17b~~-17b~~-15b~~~~~r~~-12--14~~-|
D ------------------------------------------------------------------|
A ------------------------------------------------------------------|
E ------------------------------------------------------------------|
A ------------------------------------------------------------------|

Guitar 3
C#-----------------------------------------------------------------|
G#-----------------------------------------------------------------|
E -----------------------------------------------------------------|
B -2---2---2---2---2---2---2---2---4---4---4---4---4---4---4---4---|
F#-2---2---2---2---2---2---2---2---4---4---4---4---4---4---4---4---|
C#-0---0---0---0---0---0---0---0---2---2---2---2---2---2---2---2---|
Pm .   .   .   .   .   .   .   .   .   .   .   .   .   .   .   .

===================================================================

Guitar 1
B -----------------------------------------------------------------|
F#-----------------------------------------------------------------|
D -----------------------------------------------------------------|
A -7---7---7---7---7---7---7---7---6---6---6---6---6---6---6---6---|
E -7---7---7---7---7---7---7---7---6---6---6---6---6---6---6---6---|
A -7---7---7---7---7---7---7---7---6---6---6---6---6---6---6---6---|

Guitar 2
B -----------------------------------------------------------------|
F#-~~~~~~~~^\~~~~~~~~~~~~~-12^\~~~~~~~~~~~~~~~~~~~-----------------|
D -----------------------------------------------------------------|
A -----------------------------------------------------------------|
E -----------------------------------------------------------------|
A -------------------------------------------------0^/~~~~~~~~~~~~-|

Guitar 3
C#-----------------------------------------------------------------|
G#-----------------------------------------------------------------|
E -----------------------------------------------------------------|
B -0---0---0---0---0---0---0---0---4---4---4---4---4---4---4---4---|
F#-2---2---2---2---2---2---2---2---4---4---4---4---4---4---4---4---|
C#-3---3---3---3---3---3---3---3---2---2---2---2---2---2---2---2---|
Pm .   .   .   .   .   .   .   .   .   .   .   .   .   .   .   .

===================================================================

Guitar 1
B -----------------------------------------------------------------|
F#-----------------------------------------------------------------|
D -----------------------------------------------------------------|
A -4---4---4---4---4---4---4---4---6---6---6---6---6---6---6---6---|
E -4---4---4---4---4---4---4---4---6---6---6---6---6---6---6---6---|
A -4---4---4---4---4---4---4---4---6---6---6---6---6---6---6---6---|

Guitar 2
B -----------------------------------------------------------------|
F#-17b~~~~~~~~~~~~~~~~~~~~~~~~~~~~-17b~~-17b~~-15b~~~~~r~~-19b~~~~-|
D -----------------------------------------------------------------|
A -----------------------------------------------------------------|
E -----------------------------------------------------------------|
A -----------------------------------------------------------------|

Guitar 3
C#-----------------------------------------------------------------|
G#-----------------------------------------------------------------|
E -----------------------------------------------------------------|
B -2---2---2---2---2---2---2---2---4---4---4---4---4---4---4---4---|
F#-2---2---2---2---2---2---2---2---4---4---4---4---4---4---4---4---|
C#-0---0---0---0---0---0---0---0---2---2---2---2---2---2---2---2---|
Pm .   .   .   .   .   .   .   .   .   .   .   .   .   .   .   .

===================================================================

Guitar 1
B -----------------------------------------------------------------|
F#-----------------------------------------------------------------|
D -----------------------------------------------------------------|
A -7---7---7---7---7---7---7---7---9---9---9---9---9---9---9---9---|
E -7---7---7---7---7---7---7---7---9---9---9---9---9---9---9---9---|
A -7---7---7---7---7---7---7---7---9---9---9---9---9---9---9---9---|

Guitar 2 (x2)
B -17-16-14----14-16-17-16-14----14-16-|
F#----------17----------------17-------|
D -------------------------------------|
A -------------------------------------|
E -------------------------------------|
A -------------------------------------|

Guitar 2 (x2) continued
B -19-17-16----16-17-19-17-16----16-17-|
F#----------19----------------19-------|
D -------------------------------------|
A -------------------------------------|
E -------------------------------------|
A -------------------------------------|

Guitar 3
C#-----------------------------------------------------------------|
G#-----------------------------------------------------------------|
E ---------------------------------2---2---2---2---2---2---2---2---|
B -0---0---0---0---0---0---0---0---2---2---2---2---2---2---2---2---|
F#-2---2---2---2---2---2---2---2---0---0---0---0---0---0---0---0---|
C#-3---3---3---3---3---3---3---3-----------------------------------|
Pm .   .   .   .   .   .   .   .   .   .   .   .   .   .   .   .

===================================================================
===================================================================


Chorus 2

Guitar 1
B -----------------------------------------------------------------|
F#-----------------------------------------------------------------|
D -----------------------------------------------------------------|
A -4---4---4---4---4---4---4---4---6---6---6---6---6---6---6---6---|
E -4---4---4---4---4---4---4---4---6---6---6---6---6---6---6---6---|
A -4---4---4---4---4---4---4---4---6---6---6---6---6---6---6---6---|

Guitar 2
B -19b~~~~~~~~~~~~~~~~~~~~-19b-18~~b~~~~~~~~~~~^~^~^~^~^~^---------|
F#-----------------------------------------------------------------|
D -----------------------------------------------------------------|
A -----------------------------------------------------------------|
E -----------------------------------------------------------------|
A ---------------------------------------------------------0^/~~~~-|

Guitar 3
C#-----------------------------------------------------------------|
G#-----------------------------------------------------------------|
E -----------------------------------------------------------------|
B -2---2---2---2---2---2---2---2---4---4---4---4---4---4---4---4---|
F#-2---2---2---2---2---2---2---2---4---4---4---4---4---4---4---4---|
C#-0---0---0---0---0---0---0---0---2---2---2---2---2---2---2---2---|
Pm .   .   .   .   .   .   .   .   .   .   .   .   .   .   .   .

===================================================================

Guitar 1
B -----------------------------------------------------------------|
F#-----------------------------------------------------------------|
D -----------------------------------------------------------------|
A -7---7---7---7---7---7---7---7---9---9---9---9---9---9---9---9---|
E -7---7---7---7---7---7---7---7---9---9---9---9---9---9---9---9---|
A -7---7---7---7---7---7---7---7---9---9---9---9---9---9---9---9---|

Guitar 2
B -19b~~~~~~~~~~~~~~~~~~~~-19b~r~~-22b~~~~~~~~~^~^~^~^~^~^---------|
F#-----------------------------------------------------------------|
D -----------------------------------------------------------------|
A ---------------------------------------------------------12\~~~~-|
E ---------------------------------------------------------12\~~~~-|
A ---------------------------------------------------------12\~~~~-|

Guitar 3
C#-----------------------------------------------------------------|
G#-----------------------------------------------------------------|
E ---------------------------------2---2---2---2---2---2---2---2---|
B -0---0---0---0---0---0---0---0---2---2---2---2---2---2---2---2---|
F#-2---2---2---2---2---2---2---2---0---0---0---0---0---0---0---0---|
C#-3---3---3---3---3---3---3---3-----------------------------------|
Pm .   .   .   .   .   .   .   .   .   .   .   .   .   .   .   .

===================================================================
Guitar 1
B -----------------------------------------------------------------|
F#-----------------------------------------------------------------|
D -----------------------------------------------------------------|
A -4---4---4---4---4---4---4---4---6---6---6---6---6---6---6---6---|
E -4---4---4---4---4---4---4---4---6---6---6---6---6---6---6---6---|
A -4---4---4---4---4---4---4---4---6---6---6---6---6---6---6---6---|

Guitar 2
B -14--14--14--16--16--16--17--17--------------16--16--16--17--17--|
F#---------------------------------15--15--15----------------------|
D -----------------------------------------------------------------|
A -----------------------------------------------------------------|
E -----------------------------------------------------------------|
A -----------------------------------------------------------------|

Guitar 3
C#-----------------------------------------------------------------|
G#-----------------------------------------------------------------|
E -----------------------------------------------------------------|
B -2---2---2---2---2---2---2---2---4---4---4---4---4---4---4---4---|
F#-2---2---2---2---2---2---2---2---4---4---4---4---4---4---4---4---|
C#-0---0---0---0---0---0---0---0---2---2---2---2---2---2---2---2---|
Pm .   .   .   .   .   .   .   .   .   .   .   .   .   .   .   .

===================================================================

Guitar 1
B -----------------------------------------------------------------|
F#-----------------------------------------------------------------|
D -----------------------------------------------------------------|
A -7---7---7---7---7---7---7---7---6---6---6---6---6---6---6---6---|
E -7---7---7---7---7---7---7---7---6---6---6---6---6---6---6---6---|
A -7---7---7---7---7---7---7---7---6---6---6---6---6---6---6---6---|

Guitar 2
B -------------16--16--16--17--17--19--19--19--17--17--17--16--16--|
F#-14--14--14------------------------------------------------------|
D -----------------------------------------------------------------|
A -----------------------------------------------------------------|
E -----------------------------------------------------------------|
A -----------------------------------------------------------------|

Guitar 3
C#-----------------------------------------------------------------|
G#-----------------------------------------------------------------|
E -----------------------------------------------------------------|
B -0---0---0---0---0---0---0---0---4---4---4---4---4---4---4---4---|
F#-2---2---2---2---2---2---2---2---4---4---4---4---4---4---4---4---|
C#-3---3---3---3---3---3---3---3---2---2---2---2---2---2---2---2---|
Pm .   .   .   .   .   .   .   .   .   .   .   .   .   .   .   .

===================================================================

Guitar 1
B -----------------------------------------------------------------|
F#-----------------------------------------------------------------|
D -----------------------------------------------------------------|
A -4---4---4---4---4---4---4---4---6---6---6---6---6---6---6---6---|
E -4---4---4---4---4---4---4---4---6---6---6---6---6---6---6---6---|
A -4---4---4---4---4---4---4---4---6---6---6---6---6---6---6---6---|

Guitar 2
B -14--14--14--16--16--16--17--17--------------16--16--16--17--17--|
F#---------------------------------15--15--15----------------------|
D -----------------------------------------------------------------|
A -----------------------------------------------------------------|
E -----------------------------------------------------------------|
A -----------------------------------------------------------------|

Guitar 3
C#-----------------------------------------------------------------|
G#-----------------------------------------------------------------|
E -----------------------------------------------------------------|
B -2---2---2---2---2---2---2---2---4---4---4---4---4---4---4---4---|
F#-2---2---2---2---2---2---2---2---4---4---4---4---4---4---4---4---|
C#-0---0---0---0---0---0---0---0---2---2---2---2---2---2---2---2---|
Pm .   .   .   .   .   .   .   .   .   .   .   .   .   .   .   .

===================================================================

Guitar 1
B -----------------------------------------------------------------|
F#-----------------------------------------------------------------|
D -----------------------------------------------------------------|
A -7---7---7---7---7---7---7---7---9---9---9---9---9---9---9---9---|
E -7---7---7---7---7---7---7---7---9---9---9---9---9---9---9---9---|
A -7---7---7---7---7---7---7---7---9---9---9---9---9---9---9---9---|

Guitar 2
B -------------16--16--16--17--17--19--19--19--19--19--19--19--19--|
F#-14--14--14------------------------------------------------------|
D -----------------------------------------------------------------|
A -----------------------------------------------------------------|
E -----------------------------------------------------------------|
A -----------------------------------------------------------------|

Guitar 3
C#-----------------------------------------------------------------|
G#-----------------------------------------------------------------|
E ---------------------------------2---2---2---2---2---2---2---2---|
B -0---0---0---0---0---0---0---0---2---2---2---2---2---2---2---2---|
F#-2---2---2---2---2---2---2---2---0---0---0---0---0---0---0---0---|
C#-3---3---3---3---3---3---3---3-----------------------------------|
Pm .   .   .   .   .   .   .   .   .   .   .   .   .   .   .   .

===================================================================
===================================================================


Outro

Guitar 1
B -----------------------------------------------------------------|
F#-----------------------------------------------------------------|
D -----------------------------------------------------------------|
A -4~~~~~~~~~~~~~~~~~~~~~~~~~~~~~~~~~~~~~~~~~~~~~~~~~~~~~~~~~~~~~~-
E -4~~~~~~~~~~~~~~~~~~~~~~~~~~~~~~~~~~~~~~~~~~~~~~~~~~~~~~~~~~~~~~-
A -4~~~~~~~~~~~~~~~~~~~~~~~~~~~~~~~~~~~~~~~~~~~~~~~~~~~~~~~~~~~~~~-

Guitar 2
B -19~~~~~~~~~~~~~~~~~~~~~~~~~~~~~~~~~~~~~~~~~~~~~~~~~~~~~~~~~~~~~-
F#-----------------------------------------------------------------|
D -----------------------------------------------------------------|
A -----------------------------------------------------------------|
E -----------------------------------------------------------------|
A -----------------------------------------------------------------|

Guitar 3
C#-----------------------------------------------------------------|
G#-----------------------------------------------------------------|
E ---------------------------------5---5---5---5---5---5---5---5---|
B -2---2---2---2---2---2---2---2---5---5---5---5---5---5---5---5---|
F#-2---2---2---2---2---2---2---2---3---3---3---3---3---3---3---3---|
C#-0---0---0---0---0---0---0---0-----------------------------------|
Pm .   .   .   .   .   .   .   .   .   .   .   .   .   .   .   .

===================================================================

Guitar 3
C#-----------------------------------------------------------------|
G#-----------------------------------------------------------------|
E -2---2---2---2---2---2---2---2---2---2---2---2---2---2---2---2---|
B -0---0---0---0---0---0---0---0---2---2---2---2---2---2---2---2---|
F#-0---0---0---0---0---0---0---0---0---0---0---0---0---0---0---0---|
C#-----------------------------------------------------------------|
Pm .   .   .   .   .   .   .   .   .   .   .   .   .   .   .   .

===================================================================
===================================================================
===================================================================


Tab Legend
h  - hammer-on
p  - pull-off
/  - slide up
\  - slide down
ps/- pickslide up
ps\- pickslide down
~  - let ring
pm.- palm mute
b  - bend
r  - return from bend
t  - finger tapping
*  - harmonic
x  - dead note
^  - Whammy bar
^\ - Whammy bar (hold down)
^/ - Whammy bar (release)

That’s the end of it! I hope this helped, and be sure to check out my cover if you are
having problems with the tab. Thanks, oh and one last thing... ROCK OUT!!!!
comments
We did not receive enough feedback on this tab! Please rate:
print report bad tab
1 2 3 4 5
I want to post or [tab]
guest
You may want to rate the tab now too:
select rating
Please do not post tabs as comments. Select "correction" instead!