Oops, an error
Loading. Please wait.

Whore Tab

ver1
ver1

Whole song

Interactive

More versions @911Tabs.com
26,824 views 288 this week
no commentswrite comment
1 2 3 4 5
excellent!
x 7
Autoscroll
+/-
esc
set tempo
stop
Contributor
Difficulty
Tuning
novice
A E A D F# B
Hey! There's an official Ultimate Guitar app which is ideal
for learning songs when you're away from computer. Get the app
WARNING: You are trying to view
                                    content from Ultimate-Guitar.com
                                    in an unauthorized application,
                                    which is prohibited.

                                    Please use an official Ultimate
                                    Guitar Tabs application for iPhone,
                                    iPad or Android to access legitimate
                                    chords, guitar, bass, and drum tabs
                                    from Ultimate-Guitar.com database.

                                    Type "ultimate guitar tabs" in Apple
                                    App Store's or Android Market's
                                    search to find the application.
----------------------------------------------------------------------------
                                 Whore
                             In This Moment
----------------------------------------------------------------------------

In This Moment’s album “Blood” is very unique. It has a very distinct use of pop/metal 
music usage. This song is probably my favorite when it comes to mixing the genres 
together. Enjoy!

Username: dkm817 (same on X box live)
Youtube Cover: http://www.youtube.com/watch?v=1W0_FwPkiOs
Email: guitardrums@rockfan.com

Guitar 1 Rhythmic (A  E  A  D  F# B  )
Guitar 2 Lead     (A  E  A  D  F# B  )

Tab Guide...
===================================================================
(end of measures)

===================================================================
===================================================================
(end of parts)

===================================================================
===================================================================
===================================================================
(end of song)
(If there is a “continued” it is because the numbers could not
fit on 1 line or connecting times played.)


Verse 1

(x3)

Guitar 1
B -----------------------------------------------------------------|
F#-----------------------------------------------------------------|
D -----------------------------------------------------------------|
A -7/9-9---9---9---9---9---9---9---9\5-5---5---5---5---5---5---5---|
E -----9---9---9---9---9---9---9-------5---5---5---5---5---5---5---|
A -----9---9---9---9---9---9---9-------5---5---5---5---5---5---5---|
Pm     .   .   .   .   .   .   .       .   .   .   .   .   .   .

Guitar 2
B -----------------------------------------------------------------|
F#-15~~~~~~~~~-15~~~~~~~~~-15~~~~~-15~-15~~~~~-15~~~~~~~~~-15~~~~~-|
D -----11~~~~~~~~~~~~~-11~~~~~-11~-12~~~~~~~~~~~~~~~~~-12~~~~~-12~-|
A -----------------------------------------------------------------|
E -----------------------------------------------------------------|
A -----------------------------------------------------------------|

===================================================================

Guitar 1 continued
B -----------------------------------------------------------------|
F#-----------------------------------------------------------------|
D -----------------------------------------------------------------|
A -5/2-2---2---2---2---2---2---2---7\9-9---9---9---9---9---9---9---|
E -----2---2---2---2---2---2---2-------9---9---9---9---9---9---9---|
A -----2---2---2---2---2---2---2-------9---9---9---9---9---9---9---|
Pm     .   .   .   .   .   .   .       .   .   .   .   .   .   .

Guitar 2 continued
B -----------------------------------------------------------------|
F#-14~~~~~~~~~-14~~~~~~~~~-14~~~~~-14~~~~~~~~~-12~~~~~~~~~-12~~~~~-|
D -----12~~~~~~~~~~~~~-12~~~~~-12~-11~-11~~~~~~~~~~~~~-11~~~~~-11~-|
A -----------------------------------------------------------------|
E -----------------------------------------------------------------|
A -----------------------------------------------------------------|

===================================================================

Guitar 1
B -----------------------------------------------------------------|
F#-----------------------------------------------------------------|
D -----------------------------------------------------------------|
A -7/9-9---9---9---9---9---9---9---9\5-5---5---5---5---5---5---5---|
E -----9---9---9---9---9---9---9-------5---5---5---5---5---5---5---|
A -----9---9---9---9---9---9---9-------5---5---5---5---5---5---5---|
Pm     .   .   .   .   .   .   .       .   .   .   .   .   .   .

Guitar 2
B -----------------------------------------------------------------|
F#-15~~~~~~~~~-15~~~~~~~~~-15~~~~~-15~-15~~~~~-15~~~~~~~~~-15~~~~~-|
D -----11~~~~~~~~~~~~~-11~~~~~-11~-12~~~~~~~~~~~~~~~~~-12~~~~~-12~-|
A -----------------------------------------------------------------|
E -----------------------------------------------------------------|
A -----------------------------------------------------------------|

===================================================================

Guitar 1
B -----------------------------------------------------------------|
F#-----------------------------------------------------------------|
D -----------------------------------------------------------------|
A -5/2-2---2---2---2---2---2---2---7\9-9---9---9---9---9---9---9---|
E -----2---2---2---2---2---2---2-------9---9---9---9---9---9---9---|
A -----2---2---2---2---2---2---2-------9---9---9---9---9---9---9---|
Pm     .   .   .   .   .   .   .       .   .   .   .   .   .   .

Guitar 2
B ------------------------------------------------------------------|
F#-14~~~~~~~~~-14~~~~~~~~~-14~~~~~-14~~~~~~~~~-12~---------22--19~~-|
D -----12~~~~~~~~~~~~~-12~~~~~-12~-11~-11~~~~~~~~~-18--19-----------|
A ------------------------------------------------------------------|
E ------------------------------------------------------------------|
A ------------------------------------------------------------------|

===================================================================
===================================================================


Pre Chorus 1

Guitar 1
B -----------------------------------------------------------------|
F#-----------------------------------------------------------------|
D -----------------------------------------------------------------|
A -7/9-9---9---9---9---9---9---9---5\2-2---2---2---2---2---2---2---|
E -----9---9---9---9---9---9---9-------2---2---2---2---2---2---2---|
A -----9---9---9---9---9---9---9-------2---2---2---2---2---2---2---|
Pm     .   .   .   .   .   .   .       .   .   .   .   .   .   .

Guitar 2
B -~~~-17~~~~~~~~~~~~~---------------------------------------------|
F#-----------------------------------------------------------------|
D -------------------------14------12------12------12------14------|
A ---------------------16------14------14------14------14------14--|
E -----------------------------------------------------------------|
A -----------------------------------------------------------------|

===================================================================

Guitar 1
B -----------------------------------------------------------------|
F#-----------------------------------------------------------------|
D -----------------------------------------------------------------|
A -7/9-9---9---9---9---9---9---9---9\7-7---7---7---7---7---7---7---|
E -----9---9---9---9---9---9---9-------7---7---7---7---7---7---7---|
A -----9---9---9---9---9---9---9-------7---7---7---7---7---7---7---|
Pm     .   .   .   .   .   .   .       .   .   .   .   .   .   .

B ---------------------------------21------21------21------21------|
F#-----------------------------------------------------------------|
D -16--------------16--18------------------------------------------|
A ---------16--------------19--------------------------------------|
E -----17------17--------------16------16------16------16------16--|
A -----------------------------------------------------------------|

===================================================================

Guitar 1
B -----------------------------------------------------------------|
F#-----------------------------------------------------------------|
D -----------------------------------------------------------------|
A -7/9-9---9---9---9---9---9---9---2~~~~~~~~~~~~~~~~~~~~~~~~~~~~~~-|
E -----9---9---9---9---9---9---9---2~~~~~~~~~~~~~~~~~~~~~~~~~~~~~~-|
A -----9---9---9---9---9---9---9---2~~~~~~~~~~~~~~~~~~~~~~~~~~~~~~-|
Pm     .   .   .   .   .   .   .

Guitar 2
B -22~~~~~~~~~~~~~~~~~~~~~~~~~~~~~-22b~~~~~~~~~~~~~~~~~~~~~~~~~~~~-|
F#-----------------------------------------------------------------|
D -----------------------------------------------------------------|
A -----------------------------------------------------------------|
E -----------------------------------------------------------------|
A -----------------------------------------------------------------|

===================================================================
===================================================================


Chorus

Guitar 1 & 2
B -----------------------------------------------------------------|
F#-----------------------------------------------------------------|
D -----------------------------------------------------------------|
A -7/9-9---9---9---9---9---9---9---9\5-5---5---5---5---5---5---5---|
E -----9---9---9---9---9---9---9-------5---5---5---5---5---5---5---|
A -----9---9---9---9---9---9---9-------5---5---5---5---5---5---5---|

===================================================================

Guitar 1 & 2
B -----------------------------------------------------------------|
F#-----------------------------------------------------------------|
D -------------------------------------------------7~~~~~~-7-7-9---|
A -5/2-2---2---2---2---2---2---2---7\9-9---9---7-9-7~~~~~~-7-7-9---|
E -----2---2---2---2---2---2---2-------9---9---7-9-5~~~~~~-5-5-7---|
A -----2---2---2---2---2---2---2-------9---9---7-9-----------------|
Pm                                             . .         . .

===================================================================

Guitar 1 & 2
B -----------------------------------------------------------------|
F#-----------------------------------------------------------------|
D -----------------------------------------------------------------|
A -7/9-9---9---9---9---9---9---9---9\5-5---5---5---5---5---5---5---|
E -----9---9---9---9---9---9---9-------5---5---5---5---5---5---5---|
A -----9---9---9---9---9---9---9-------5---5---5---5---5---5---5---|

===================================================================

Guitar 1 & 2
B -----------------------------------------------------------------|
F#-----------------------------------------------------------------|
D -------------------------------------------------7~~~~~~---------|
A -5/2-2---2---2---2---2---2---2---7\9-9---9---7-9-7~~~~~~-0-2~~~~-|
E -----2---2---2---2---2---2---2-------9---9---7-9-5~~~~~~-0-2~~~~-|
A -----2---2---2---2---2---2---2-------9---9---7-9---------0-2~~~~-|
Pm                                             . .         .

===================================================================
===================================================================


Bridge 1

Guitar 1
B -----------------------------------------------------------------|
F#-----------------------------------------------------------------|
D -----------------------------------------------------------------|
A -7/9-9---9---9---9---9---9---9---9---9---9---9---9---9---9---9---|
E -----9---9---9---9---9---9---9---9---9---9---9---9---9---9---9---|
A -----9---9---9---9---9---9---9---9---9---9---9---9---9---9---9---|
Pm     .   .   .   .   .   .   .   .   .   .   .   .   .   .   .

Guitar 2
B -----------------------------------------|
F#-15-15-15~-15-15-15~-15-15-15~-15-15-15~-|
D -----------------------------------------|
A -----------------------------------------|
E -----------------------------------------|
A -----------------------------------------|

Guitar 2 continued
B -----------------------------------------|
F#-15-14-14~-14-14-14~-14-14-14~-14-14-14~-|
D -----------------------------------------|
A -----------------------------------------|
E -----------------------------------------|
A -----------------------------------------|

===================================================================
===================================================================


Verse 2

Guitar 1
B -----------------------------------------------------------------|
F#-----------------------------------------------------------------|
D -----------------------------------------------------------------|
A -7/9-9---9---9---9---9---9---9---9\5-5---5---5---5---5---5---5---|
E -----9---9---9---9---9---9---9-------5---5---5---5---5---5---5---|
A -----9---9---9---9---9---9---9-------5---5---5---5---5---5---5---|

Guitar 2
B -----------------------------------------------------------------|
F#-15~~~~~~~~~-15~~~~~~~~~-15~~~~~-15~-15~~~~~-15~~~~~~~~~-15~~~~~-|
D -----11~~~~~~~~~~~~~-11~~~~~-11~-12~~~~~~~~~~~~~~~~~-12~~~~~-12~-|
A -----------------------------------------------------------------|
E -----------------------------------------------------------------|
A -----------------------------------------------------------------|

===================================================================

Guitar 1 continued
B -----------------------------------------------------------------|
F#-----------------------------------------------------------------|
D -----------------------------------------------------------------|
A -5/2-2---2---2---2---2---2---2---7\9-9---9-----------------------|
E -----2---2---2---2---2---2---2-------9---9-----------------------|
A -----2---2---2---2---2---2---2-------9---9---9---9---9---9---9---|

Guitar 2 continued
B -----------------------------------------------------------------|
F#-14~~~~~~~~~-14~~~~~~~~~-14~~~~~-14~~~~~~~~~-12~~~~~~~~~-12~~~~~-|
D -----12~~~~~~~~~~~~~-12~~~~~-12~-11~-11~~~~~~~~~~~~~-11~~~~~-11~-|
A -----------------------------------------------------------------|
E -----------------------------------------------------------------|
A -----------------------------------------------------------------|

===================================================================

Guitar 1
B -----------------------------------------------------------------|
F#-----------------------------------------------------------------|
D -----------------------------------------------------------------|
A -7/9-9---9---9---9---9---9---9---9\5-5---5---5---5---5---5---5---|
E -----9---9---9---9---9---9---9-------5---5---5---5---5---5---5---|
A -----9---9---9---9---9---9---9-------5---5---5---5---5---5---5---|

Guitar 2
B -----------------------------------------------------------------|
F#-15~~~~~~~~~-15~~~~~~~~~-15~~~~~-15~-15~~~~~-15~~~~~~~~~-15~~~~~-|
D -----11~~~~~~~~~~~~~-11~~~~~-11~-12~~~~~~~~~~~~~~~~~-12~~~~~-12~-|
A -----------------------------------------------------------------|
E -----------------------------------------------------------------|
A -----------------------------------------------------------------|

===================================================================

Guitar 1
B -----------------------------------------------------------------|
F#-----------------------------------------------------------------|
D -----------------------------------------------------------------|
A -5/2-2---2---2---2---2---2---2---7\9-9---9-----------------------|
E -----2---2---2---2---2---2---2-------9---9-----------------------|
A -----2---2---2---2---2---2---2-------9---9---9-9-9-9-9-9-9-9-9-9-|

Guitar 2
B ------------------------------------------------------------------|
F#-14~~~~~~~~~-14~~~~~~~~~-14~~~~~-14~~~~~~~~~-12~---------22--19~~-|
D -----12~~~~~~~~~~~~~-12~~~~~-12~-11~-11~~~~~~~~~-18--19-----------|
A ------------------------------------------------------------------|
E ------------------------------------------------------------------|
A ------------------------------------------------------------------|

===================================================================
===================================================================


Pre Chorus 2

Guitar 1
B -----------------------------------------------------------------|
F#-----------------------------------------------------------------|
D -----------------------------------------------------------------|
A -----5---5---5---5---5---5---5-------2---2---2---2---2---2---2---|
E -----5---5---5---5---5---5---5-------2---2---2---2---2---2---2---|
A -2/5-5---5---5---5---5---5---5---5\2-2---2---2---2---2---2---2---|
Pm     .   .   .   .   .   .   .       .   .   .   .   .   .   .

Guitar 2
B -~~~-17~~~~~~~~~~~~~---------------------------------------------|
F#-----------------------------------------------------------------|
D -------------------------14------12------12------12------14------|
A ---------------------16------14------14------14------14------14--|
E -----------------------------------------------------------------|
A -----------------------------------------------------------------|

===================================================================

Guitar 1
B -----------------------------------------------------------------|
F#-----------------------------------------------------------------|
D -----------------------------------------------------------------|
A -----9---9---9---9---9---9---9--------11-11--11--11--11--11--11--|
E -----9---9---9---9---9---9---9--------11-11--11--11--11--11--11--|
A -7/9-9---9---9---9---9---9---9---9/11-11-11--11--11--11--11--11--|
Pm     .   .   .   .   .   .   .        .  .   .   .   .   .   .

Guitar 2
B ---------------------------------21------21------21------21------|
F#-----------------------------------------------------------------|
D -16--------------16--18------------------------------------------|
A ---------16--------------19--------------------------------------|
E -----17------17--------------16------16------16------16------16--|
A -----------------------------------------------------------------|

===================================================================

Guitar 1
B -----------------------------------------------------------------|
F#-----------------------------------------------------------------|
D -----------------------------------------------------------------|
A -12--12--12--12--12--12--12--12--2~~~~~~~~~~~~~~-2---2---2---2---|
E -12--12--12--12--12--12--12--12--2~~~~~~~~~~~~~~-2---2---2---2---|
A -12--12--12--12--12--12--12--12--2~~~~~~~~~~~~~~-2---2---2---2---|
Pm .   .   .   .   .   .   .   .                   .   .   .   .

Guitar 2
B -22~~~~~~~~~~~~~~~~~~~~~~~~~~~~~-22b~~~~~~~~~~~~~~~~~~~~~~~~~~~~-|
F#-----------------------------------------------------------------|
D -----------------------------------------------------------------|
A -----------------------------------------------------------------|
E -----------------------------------------------------------------|
A -----------------------------------------------------------------|

===================================================================

Guitar 1
B -----------------------------------------------------------------|
F#-----------------------------------------------------------------|
D -----------------------------------------------------------------|
A -2---2---2---2---2---2---2---2---2---2---2---2---2---2---2---2---|
E -2---2---2---2---2---2---2---2---2---2---2---2---2---2---2---2---|
A -2---2---2---2---2---2---2---2---2---2---2---2---2---2---2---2---|
Pm .   .   .   .   .   .   .   .   .   .   .   .   .   .   .   .

Guitar 2
B -~~~~~~~~~~~~~~~~~~~~~~~~~~~~~~~~~~~~~~~~~~~~~~~-----------------|
F#-----------------------------------------------------------------|
D -----------------------------------------------------------------|
A -------------------------------------------------ps\~~~~~~~~~~~~-|
E -------------------------------------------------ps\~~~~~~~~~~~~-|
A -------------------------------------------------ps\~~~~~~~~~~~~-|

===================================================================
===================================================================


Chorus

Guitar 1 & 2
B -----------------------------------------------------------------|
F#-----------------------------------------------------------------|
D -----------------------------------------------------------------|
A -7/9-9---9---9---9---9---9---9---9\5-5---5---5---5---5---5---5---|
E -----9---9---9---9---9---9---9-------5---5---5---5---5---5---5---|
A -----9---9---9---9---9---9---9-------5---5---5---5---5---5---5---|

===================================================================

Guitar 1 & 2
B -----------------------------------------------------------------|
F#-----------------------------------------------------------------|
D -------------------------------------------------7~~~~~~-7-7-9---|
A -5/2-2---2---2---2---2---2---2---7\9-9---9---7-9-7~~~~~~-7-7-9---|
E -----2---2---2---2---2---2---2-------9---9---7-9-5~~~~~~-5-5-7---|
A -----2---2---2---2---2---2---2-------9---9---7-9-----------------|
Pm                                             . .         . .

===================================================================

Guitar 1 & 2
B -----------------------------------------------------------------|
F#-----------------------------------------------------------------|
D -----------------------------------------------------------------|
A -7/9-9---9---9---9---9---9---9---9\5-5---5---5---5---5---5---5---|
E -----9---9---9---9---9---9---9-------5---5---5---5---5---5---5---|
A -----9---9---9---9---9---9---9-------5---5---5---5---5---5---5---|

===================================================================

Guitar 1 & 2
B -----------------------------------------------------------------|
F#-----------------------------------------------------------------|
D -------------------------------------------------7~~~~~~---------|
A -5/2-2---2---2---2---2---2---2---7\9-9---9---7-9-7~~~~~~-0-2~~~~-|
E -----2---2---2---2---2---2---2-------9---9---7-9-5~~~~~~-0-2~~~~-|
A -----2---2---2---2---2---2---2-------9---9---7-9---------0-2~~~~-|
Pm                                             . .         .

===================================================================
===================================================================


Interlude

Guitar 1
B -----------------------------------------------------------------|
F#-----------------------------------------------------------------|
D -----------------------------------------------------------------|
A -----5---5---5---5---5---5---5-------2---2---2---2---2---2---2---|
E -----5---5---5---5---5---5---5-------2---2---2---2---2---2---2---|
A -2/5-5---5---5---5---5---5---5---5/2-2---2---2---2---2---2---2---|
Pm     .   .   .   .   .   .   .       .   .   .   .   .   .   .

Guitar 2
B -----------------------------------------------------------------|
F#-12--12--12--12--12--12--14--14--15--15--15--15--15--15--14--14--|
D -15b-15b-15b-15b-15b-15b-17b-17b-18b-18b-18b-18b-18b-18b-17b-17b-|
A -----------------------------------------------------------------|
E -----------------------------------------------------------------|
A -----------------------------------------------------------------|

===================================================================

Guitar 1
B ------------------------------------------------------------------|
F#------------------------------------------------------------------|
D ------------------------------------------------------------------|
A -----9---9---9---9---9---9---9--------11--11--11--11--11--11--11--|
E -----9---9---9---9---9---9---9--------11--11--11--11--11--11--11--|
A -7/9-9---9---9---9---9---9---9---9/11-11--11--11--11--11--11--11--|
Pm     .   .   .   .   .   .   .        .   .   .   .   .   .   .

Guitar 2
B ------------------------------------------------------------------|
F#-14--12--12--12--12--12--12--12--12-^12-^12-^12-^12-^12-^12-^12---|
D -17b-15b-15b-15b-15b-15b-15b-15b-15b^15b^15b^15b^15b^15b^15b^15b--|
A ------------------------------------------------------------------|
E ------------------------------------------------------------------|
A ------------------------------------------------------------------|

===================================================================

Guitar 1
B -------------------------------------------------------------------|
F#-------------------------------------------------------------------|
D -------------------------------------------------------------------|
A -12--12--12--12--12--12--12--12--------13--13--13--13--13--13--13--|
E -12--12--12--12--12--12--12--12--------13--13--13--13--13--13--13--|
A -12--12--12--12--12--12--12--12--12/13-13--13--13--13--13--13--13--|
Pm .   .   .   .   .   .   .   .         .   .   .   .   .   .   .

Guitar 2
B ---------------------------------------------------------12--12--|
F#-12--12--12--12--12--12--14--14--15--15--15--15--15--15--15b-15b-|
D -15b-15b-15b-15b-15b-15b-17b-17b-18b-18b-18b-18b-18b-18b---------|
A -----------------------------------------------------------------|
E -----------------------------------------------------------------|
A -----------------------------------------------------------------|

===================================================================

Guitar 1
B ---------------------------------|
F#---------------------------------|
D ---------------------------------|
A -13--13--13--13--13--13--13--13--|
E -13--13--13--13--13--13--13--13--|
A -13--13--13--13--13--13--13--13--|
Pm .   .   .   .   .   .   .   .

Guitar 2
B -14--14--14--14--14--14--14--14--|
F#-17br17br17br17br17br17br17br17br|
D ---------------------------------|
A ---------------------------------|
E ---------------------------------|
A ---------------------------------|

===================================================================
===================================================================


Bridge 2

Guitar 1
B -----------------------------------------------------------------|
F#-----------------------------------------------------------------|
D -----------------------------------------------------------------|
A -9~~~~~~~~~~~~~~~~~~~~~~~~~~~~~~~~~~~~~~~~~~~~~~~~~~~~~~~~~~~~~~-|
E -9~~~~~~~~~~~~~~~~~~~~~~~~~~~~~~~~~~~~~~~~~~~~~~~~~~~~~~~~~~~~~~-|
A -9~~~~~~~~~~~~~~~~~~~~~~~~~~~~~~~~~~~~~~~~~~~~~~~~~~~~~~~~~~~~~~-|

Guitar 2 (Piano Part)
B ---------9~~-------------9~~-------------------------------------|
F#-------------12~-------------12~---------14~-12~---------14~-12~-|
D -----11~-------------11~-----------------------------------------|
A -9~~~~~~~~~~~~~~-9~~~~~~~~~~~~~~-----12~-------------12~---------|
E ---------------------------------10~~~~~~~~~~~~~-10~~~~~~~~~~~~~-|
A -----------------------------------------------------------------|

===================================================================

Guitar 2
B ---------9~~-7~~---------9~~-7~~---------------------------------|
F#-----8~~-------------8~~-----------------14~-12~---------14~-12~-|
D -----------------------------------------------------------------|
A -------------------------------------12~-------------12~---------|
E -7~~~~~~~~~~~~~~-7~~~~~~~~~~~~~~---------------------------------|
A ---------------------------------12~~~~~~~~~~~~~-11~~~~~~~~~~~~~-|

===================================================================

Guitar 1
B -----------------------------------------------------------------|
F#-----------------------------------------------------------------|
D -----------------------------------------------------------------|
A -7/9-9---9---9---9---9---9---9---9\5-5---5---5---5---5---5---5---|
E -----9---9---9---9---9---9---9-------5---5---5---5---5---5---5---|
A -----9---9---9---9---9---9---9-------5---5---5---5---5---5---5---|
Pm     .   .   .   .   .   .   .       .   .   .   .   .   .   .

Guitar 2
B ---------10~-------------10~-------------------------------------|
F#-------------12~-------------12~---------15~-12~---------15~-12~-|
D -----11~-------------11~-----------------------------------------|
A -9~~~~~~~~~~~~~~-9~~~~~~~~~~~~~~-----12~-------------12~---------|
E ---------------------------------10~~~~~~~~~~~~~-10~~~~~~~~~~~~~-|
A -----------------------------------------------------------------|

===================================================================

Guitar 1
B -----------------------------------------------------------------|
F#-----------------------------------------------------------------|
D -----------------------------------------------------------------|
A -5/2-2---2---2---2---2---2---2---7\9-9---------------------------|
E -----2---2---2---2---2---2---2-------9---------------------------|
A -----2---2---2---2---2---2---2-------9---------------------------|
Pm     .   .   .   .   .   .   .       .

Guitar 2
B ---------10~-7~~---------10~-7~~---------------------------------|
F#-----8~~-------------8~~-----------------------------------------|
D -----------------------------------------------------------------|
A -------------------------------------12~-------------------------|
E -7~~~~~~~~~~~~~~-7~~~~~~~~~~~~~~---------------------------------|
A ---------------------------------12~~~~~-------------------------|

===================================================================
===================================================================


Chorus

Guitar 1 & 2
B -----------------------------------------------------------------|
F#-----------------------------------------------------------------|
D -----------------------------------------------------------------|
A -7/9-9---9---9---9---9---9---9---9\5-5---5---5---5---5---5---5---|
E -----9---9---9---9---9---9---9-------5---5---5---5---5---5---5---|
A -----9---9---9---9---9---9---9-------5---5---5---5---5---5---5---|

===================================================================

Guitar 1 & 2
B -----------------------------------------------------------------|
F#-----------------------------------------------------------------|
D -------------------------------------------------7~~~~~~-7-7-9---|
A -5/2-2---2---2---2---2---2---2---7\9-9---9---7-9-7~~~~~~-7-7-9---|
E -----2---2---2---2---2---2---2-------9---9---7-9-5~~~~~~-5-5-7---|
A -----2---2---2---2---2---2---2-------9---9---7-9-----------------|
Pm                                             . .         . .

===================================================================

Guitar 1 & 2
B -----------------------------------------------------------------|
F#-----------------------------------------------------------------|
D -----------------------------------------------------------------|
A -7/9-9---9---9---9---9---9---9---9\5-5---5---5---5---5---5---5---|
E -----9---9---9---9---9---9---9-------5---5---5---5---5---5---5---|
A -----9---9---9---9---9---9---9-------5---5---5---5---5---5---5---|

===================================================================

Guitar 1 & 2
B -----------------------------------------------------------------|
F#-----------------------------------------------------------------|
D -------------------------------------------------7~~~~~~---------|
A -5/2-2---2---2---2---2---2---2---7\9-9---9---7-9-7~~~~~~-0-2~~~~-|
E -----2---2---2---2---2---2---2-------9---9---7-9-5~~~~~~-0-2~~~~-|
A -----2---2---2---2---2---2---2-------9---9---7-9---------0-2~~~~-|
Pm                                             . .         .

===================================================================
===================================================================


Guitar Solo

Guitar 1
B -----------------------------------------------------------------|
F#-----------------------------------------------------------------|
D -----------------------------------------------------------------|
A -7/9-9---9---9---9---9---9---9---9\5-5---5---5---5---5---5---5---|
E -----9---9---9---9---9---9---9-------5---5---5---5---5---5---5---|
A -----9---9---9---9---9---9---9-------5---5---5---5---5---5---5---|

Guitar 2
B -----------------------------------------------------------------|
F#-----------------------------------------------------------------|
D ---------7----------------/11~~~-9~~~~---------------------------|
A -------------9-7-9---11--9-------------9~~~~-11~~~~~~~~~~~~~~~~~-|
E -----------------------------------------------------------------|
A -----------------------------------------------------------------|

===================================================================

Guitar 1
B -----------------------------------------------------------------|
F#-----------------------------------------------------------------|
D -------------------------------------------------7~~~~~~-7-7-9---|
A -5/2-2---2---2---2---2---2---2---7\9-9---9---7-9-7~~~~~~-7-7-9---|
E -----2---2---2---2---2---2---2-------9---9---7-9-5~~~~~~-5-5-7---|
A -----2---2---2---2---2---2---2-------9---9---7-9-----------------|
Pm                                             . .         . .

Guitar 2
B -----------------------------------------------------------------|
F#-----------------------------------------------------------------|
D --------------------------/11~~~-9~~~~---------------------------|
A -----------------9---11--9-------------9~~~~-11~~~~~~~~~~~~~-12--|
E -----------------------------------------------------------------|
A -----------------------------------------------------------------|

===================================================================
===================================================================


Bridge 3

Guitar 1
B -----------------------------------------------------------------|
F#-----------------------------------------------------------------|
D -----------------------------------------------------------------|
A -7/9-9---9---9---9---9---9---9---9\5-5---5---5---5---5---5---5---|
E -----9---9---9---9---9---9---9-------5---5---5---5---5---5---5---|
A -----9---9---9---9---9---9---9-------5---5---5---5---5---5---5---|

Guitar 2
B -------------------------------------------------------------------|
F#---------------------------------15-14-15--15--15--15--15--15--15--|
D ---------------------------------x--x--x---x---x---x---x---x---x---|
A -12~~~~~~~~~~~~~~~~~~~~~~~~~~~~~-12-11-12--12--12--12--12--12--12--|
E -------------------------------------------------------------------|
A -------------------------------------------------------------------|

===================================================================

Guitar 1
B -----------------------------------------------------------------|
F#-----------------------------------------------------------------|
D -------------------------------------------------7~~~~~~-7-7-9---|
A -5/2-2---2---2---2---2---2---2---7\9-9---9---7-9-7~~~~~~-7-7-9---|
E -----2---2---2---2---2---2---2-------9---9---7-9-5~~~~~~-5-5-7---|
A -----2---2---2---2---2---2---2-------9---9---7-9-----------------|
Pm                                             . .         . .

Guitar 2
B ---------------------------------------------------------------------|
F#-15-14-15--15--15--15--15--15--15--14--14--14--14-10-12--12--12--12--|
D -x--x--x---x---x---x---x---x---x---x---x---x---x--x--x---x---x---x---|
A -12-11-12--12--12--12--12--12--12--11--11--11--11-7--9---9---9---9---|
E ---------------------------------------------------------------------|
A ---------------------------------------------------------------------|

===================================================================

===================================================================
===================================================================


Outro

Guitar 1
B -----------------------------------------------------------------|
F#-----------------------------------------------------------------|
D -----------------------------------------------------------------|
A -5~~~~~~~~~~~~~~-2~~~~~~~~~~~~~----------------------------------|
E -5~~~~~~~~~~~~~~-2~~~~~~~~~~~~~----------------------------------|
A -5~~~~~~~~~~~~~~-2~~~~~~~~~~~~~-/9~~~~~~~~~~~~~~~~~~~~~~~~~~~~~~-|

Guitar 2
B -----------------------------------------------------------------|
F#-12~~~~~~~~~~~~~~~~~~~~~~~~~~~~~~~~~~~~~~~~~~~~~~~~~~~~~~~~~~~~~-|
D -x---------------------------------------------------------------|
A -9~~~~~~~~~~~~~~~~~~~~~~~~~~~~~~~~~~~~~~~~~~~~~~~~~~~~~~~~~~~~~~-|
E -----------------------------------------------------------------|
A -----------------------------------------------------------------|

===================================================================
===================================================================
===================================================================


Tab Legend
h  - hammer-on
p  - pull-off
/  - slide up
\  - slide down
ps/- pickslide up
ps\- pickslide down
~  - let ring
pm.- palm mute
b  - bend
r  - return from bend
t  - finger tapping
*  - harmonic
x  - dead note
^  - Whammy bar
^\ - Whammy bar (hold down)

That’s the end of it! I hope this helped, and be sure to check out my cover if you are
having problems with the tab. Thanks, oh and one last thing... ROCK OUT!!!!
comments
print report bad tab
I want to post or [tab]
guest
You may want to rate the tab now too:
select rating
Please do not post tabs as comments. Select "correction" instead!