Oops, an error
Loading. Please wait.

Thoughened By Ambition Tab

82 views 1 this week
no commentswrite comment
1 2 3 4 5
please rate
Autoscroll
+/-
esc
set tempo
stop
Contributor
Difficulty
Tuning
intermediate
C G C F A D
WARNING: You are trying to view
                                    content from Ultimate-Guitar.com
                                    in an unauthorized application,
                                    which is prohibited.

                                    Please use an official Ultimate
                                    Guitar Tabs application for iPhone,
                                    iPad or Android to access legitimate
                                    chords, guitar, bass, and drum tabs
                                    from Ultimate-Guitar.com database.

                                    Type "ultimate guitar tabs" in Apple
                                    App Store's or Android Market's
                                    search to find the application.
Inception to Embrace - Thoughened By Ambition

www.myspace.com/inceptiontoembrace

Lead Guitar (Only)


Track 1
     E   E  E  E   E  E  E   E    
D||------------------------------|           
A||------------------------------|
F||---------7---------5----------|
C||--0h--5-----0h--5-----0h--5h--|
G||------------------------------|
C||------------------------------|


  E  E   E   E  E   E   E   E   
-------------------------------|
-------------------------------|
-------------------------------|
--8--0h--5h--7--0h--5h--7h--8--|
-------------------------------|
-------------------------------|


  E   E  E  E   E  E  E   E    
------------------------------|
------------------------------|
---------7---------5----------|
--0h--5-----0h--5-----0h--5h--|
------------------------------|
------------------------------|


  E  E   E   E  E   E   E   E   
-------------------------------|
-------------------------------|
-------------------------------|
--8--0h--5h--7--0h--5h--7h--8--|
-------------------------------|
-------------------------------|


  E   E  E  E   E  E  E   E   
-----------------------------|
-----------------------------|
---------5---------5---------|
--0h--3-----0h--3-----0h--3--|
-----------------------------|
-----------------------------|


  E  E   E  E  E   E   E   E   
------------------------------|
------------------------------|
--7---------5-----------------|
-----0h--3-----0h--3h--5h--7--|
------------------------------|
------------------------------|


  E   E  E  E   E  E  E   E   
-----------------------------|
-----------------------------|
---------7---------5---------|
--0h--5-----0h--5-----0h--5--|
-----------------------------|
-----------------------------|


  E   E   E  E   E  E   E    E   
--------------------------------|
--------------------------------|
---------10-----10-----10h--12--|
--0h--8------8------8-----------|
--------------------------------|
--------------------------------|


  E   E  E  E   E  E  E   E    
------------------------------|
------------------------------|
---------7---------5----------|
--0h--5-----0h--5-----0h--5h--|
------------------------------|
------------------------------|


  E  E   E   E  E   E   E   E   
-------------------------------|
-------------------------------|
-------------------------------|
--8--0h--5h--7--0h--5h--7h--8--|
-------------------------------|
-------------------------------|


  E   E  E  E   E  E  E   E    
------------------------------|
------------------------------|
---------7---------5----------|
--0h--5-----0h--5-----0h--5h--|
------------------------------|
------------------------------|


  E  E   E   E  E   E   E   E   
-------------------------------|
-------------------------------|
-------------------------------|
--8--0h--5h--7--0h--5h--7h--8--|
-------------------------------|
-------------------------------|


  E   E  E  E   E  E  E   E   
-----------------------------|
-----------------------------|
---------5---------5---------|
--0h--3-----0h--3-----0h--3--|
-----------------------------|
-----------------------------|


  E  E   E  E  E   E   E   E   
------------------------------|
------------------------------|
--7---------5-----------------|
-----0h--3-----0h--3h--5h--7--|
------------------------------|
------------------------------|


  E   E  E  E   E  E  E   E   
-----------------------------|
-----------------------------|
---------7---------5---------|
--0h--5-----0h--5-----0h--5--|
-----------------------------|
-----------------------------|


  E   E   E  E   E  E   E    E   
--------------------------------|
--------------------------------|
---------10-----10-----10h--12--|
--0h--8------8------8-----------|
--------------------------------|
--------------------------------|


  E   E  E  E   E  E  E   E    
------------------------------|
------------------------------|
---------7---------5----------|
--0h--5-----0h--5-----0h--5h--|
------------------------------|
------------------------------|


  E  E   E   E  E   E   E   E   
-------------------------------|
-------------------------------|
-------------------------------|
--8--0h--5h--7--0h--5h--7h--8--|
-------------------------------|
-------------------------------|


  E   E  E  E   E  E  E   E    
------------------------------|
------------------------------|
---------7---------5----------|
--0h--5-----0h--5-----0h--5h--|
------------------------------|
------------------------------|


  E  E   E   E  E   E   E   E   
-------------------------------|
-------------------------------|
-------------------------------|
--8--0h--5h--7--0h--5h--7h--8--|
-------------------------------|
-------------------------------|


  E   E  E  E   E  E  E   E   
-----------------------------|
-----------------------------|
---------5---------5---------|
--0h--3-----0h--3-----0h--3--|
-----------------------------|
-----------------------------|


  E  E   E  E  E   E   E   E   
------------------------------|
------------------------------|
--7---------5-----------------|
-----0h--3-----0h--3h--5h--7--|
------------------------------|
------------------------------|


  E   E  E  E   E  E  E   E   
-----------------------------|
-----------------------------|
---------7---------5---------|
--0h--5-----0h--5-----0h--5--|
-----------------------------|
-----------------------------|


  E   E   E  E   E  E   E    E   
--------------------------------|
--------------------------------|
---------10-----10-----10h--12--|
--0h--8------8------8-----------|
--------------------------------|
--------------------------------|


  E   E  E  E   E  E  E   E    
------------------------------|
------------------------------|
---------7---------5----------|
--0h--5-----0h--5-----0h--5h--|
------------------------------|
------------------------------|


  E  E   E   E  E   E   E   E   
-------------------------------|
-------------------------------|
-------------------------------|
--8--0h--5h--7--0h--5h--7h--8--|
-------------------------------|
-------------------------------|


  E   E  E  E   E  E  E   E    
------------------------------|
------------------------------|
---------7---------5----------|
--0h--5-----0h--5-----0h--5h--|
------------------------------|
------------------------------|


  E  E   E   E  E   E   E   E   
-------------------------------|
-------------------------------|
-------------------------------|
--8--0h--5h--7--0h--5h--7h--8--|
-------------------------------|
-------------------------------|


  E   E  E  E   E  E  E   E   
-----------------------------|
-----------------------------|
---------5---------5---------|
--0h--3-----0h--3-----0h--3--|
-----------------------------|
-----------------------------|


  E  E   E  E  E   E   E   E   
------------------------------|
------------------------------|
--7---------5-----------------|
-----0h--3-----0h--3h--5h--7--|
------------------------------|
------------------------------|


  E   E  E  E   E  E  E   E   
-----------------------------|
-----------------------------|
---------7---------5---------|
--0h--5-----0h--5-----0h--5--|
-----------------------------|
-----------------------------|


  E   E   E  E   E  E   E    E   
--------------------------------|
--------------------------------|
---------10-----10-----10h--12--|
--0h--8------8------8-----------|
--------------------------------|
--------------------------------|


  S S S S H        S S S S  
---------------------------|
---------------------------|
---------------------------|
---------------------------|
---------------------------|
--1-1-1-1----------1-1-1-1-|


  H        S S S S  Q     
-------------------------|
-------------------------|
-------------------------|
-------------------------|
-------------------------|
-----------1-1-1-1-/8----|


  S S S S H        S S S S  
---------------------------|
---------------------------|
---------------------------|
---------------------------|
---------------------------|
--3-3-3-3----------3-3-3-3-|


  H        E  E  E  E   
-----------------------|
-----------------------|
-----------7-----5-----|
--------------0-----0--|
-----------------------|
-----------------------|


  E   E  E  E   E  E  E   E    
------------------------------|
------------------------------|
---------7---------5----------|
--0h--5-----0h--5-----0h--5h--|
------------------------------|
------------------------------|


  E  E   E   E  E   E   E   E   
-------------------------------|
-------------------------------|
-------------------------------|
--8--0h--5h--7--0h--5h--7h--8--|
-------------------------------|
-------------------------------|


  E   E  E  E   E  E  E   E   
-----------------------------|
-----------------------------|
---------5---------5---------|
--0h--3-----0h--3-----0h--3--|
-----------------------------|
-----------------------------|


  E  E   E  E  E   E   E   E   
------------------------------|
------------------------------|
--7---------5-----------------|
-----0h--3-----0h--3h--5h--7--|
------------------------------|
------------------------------|


  S S S S H        S S S S  
---------------------------|
---------------------------|
---------------------------|
---------------------------|
---------------------------|
--1-1-1-1----------1-1-1-1-|


  H        S S S S  Q     
-------------------------|
-------------------------|
-------------------------|
-------------------------|
-------------------------|
-----------1-1-1-1-/8----|


  S S S S H        S S S S  
---------------------------|
---------------------------|
---------------------------|
---------------------------|
---------------------------|
--3-3-3-3----------3-3-3-3-|


  H        S S S S  Q      
--------------------------|
--------------------------|
--------------------------|
--------------------------|
--------------------------|
-----------3-3-3-3-12\----|


    Q.      Q.      Q     
-------------------------|
-------------------------|
--/15------14------------|
-------------------15----|
-------------------------|
-------------------------|


   W                  
---------------------|
---------------------|
---------------------|
--12~----------------|
---------------------|
---------------------|


    Q.      Q.      Q     
-------------------------|
-------------------------|
--/15------14------------|
-------------------15----|
-------------------------|
-------------------------|


   H         H          
-----------------------|
-----------------------|
-----------------------|
--10~--------8~--------|
-----------------------|
-----------------------|


  S S S S S S S S S S S S S S S S  
----------------------------------|
----------------------------------|
--7-7-7-7-7-7-7-7-7-7-7-7-7-7-7-7-|
----------------------------------|
----------------------------------|
----------------------------------|


  S S S S S S S S S S S S S S S S  
----------------------------------|
----------------------------------|
--7-7-7-7-7-7-7-7-8-8-8-8-8-8-8-8-|
----------------------------------|
----------------------------------|
----------------------------------|


  S S S S S S S S S S S S S S S S  
----------------------------------|
----------------------------------|
--5-5-5-5-5-5-5-5-5-5-5-5-5-5-5-5-|
----------------------------------|
----------------------------------|
----------------------------------|


   H.            E  E   
-----------------------|
---8-------------L-----|
--10b------------L-----|
-----------------------|
-----------------------|
--------------------1--|


     PM    PM       PM     
  E  E  E  E  E  E  E  E   
--------------------------|
--------------------------|
--------------------------|
--------------------------|
--------1-----------------|
--L--1--1--1--5--1--1--3--|


  E  E  E  E  E  E  E  E   
--------------------------|
--------------------------|
--------7-----5-----------|
--------------------7-----|
-----------------------5--|
--L--3-----3-----3-----5--|


     PM PM PM PM PM PM     
  E  E  E  E  E  E  E  E   
--------------------------|
--------------------------|
--------------------------|
--------------------------|
--L--5--5--5--5--5--5--7--|
--L--5--5--5--5--5--5--7--|


        PM          PM     
  E  E  E  E  E  E  E  E   
--------------------------|
--------------------------|
--------------------------|
--------------------------|
--L--7-----8--L--7--------|
--L--7--7--8--L--7--7--1--|


     PM    PM       PM     
  E  E  E  E  E  E  E  E   
--------------------------|
--------------------------|
--------------------------|
--------------------------|
--------1-----------------|
--L--1--1--1--5--1--1--3--|


  E  E  E  E  E  E  E  E   
--------------------------|
--------------------------|
--------7-----5-----------|
--------------------7-----|
-----------------------5--|
--L--3-----3-----3-----5--|


     PM PM PM PM PM PM     
  E  E  E  E  E  E  E  E   
--------------------------|
--------------------------|
--------------------------|
--------------------------|
--L--5--5--5--5--5--5--7--|
--L--5--5--5--5--5--5--7--|


        PM          PM PM  
  E  E  E  E  E  E  E  E   
--------------------------|
--------------------------|
--------------------------|
--------------------------|
--L--7-----8--L--7--------|
--L--7--7--8--L--7--7--7--|


  S S S S H        S S S S  
---------------------------|
---------------------------|
---------------------------|
---------------------------|
---------------------------|
--1-1-1-1----------1-1-1-1-|


  H        S S S S  Q     
-------------------------|
-------------------------|
-------------------------|
-------------------------|
-------------------------|
-----------1-1-1-1-/8----|


  S S S S H        S S S S  
---------------------------|
---------------------------|
---------------------------|
---------------------------|
---------------------------|
--3-3-3-3----------3-3-3-3-|


  H        E  E  E  E   
-----------------------|
-----------------------|
-----------7-----5-----|
--------------0-----0--|
-----------------------|
-----------------------|


  E   E  E  E   E  E  E   E    
------------------------------|
------------------------------|
---------7---------5----------|
--0h--5-----0h--5-----0h--5h--|
------------------------------|
------------------------------|


  E  E   E   E  E   E   E   E   
-------------------------------|
-------------------------------|
-------------------------------|
--8--0h--5h--7--0h--5h--7h--8--|
-------------------------------|
-------------------------------|


  E   E  E  E   E  E  E   E   
-----------------------------|
-----------------------------|
---------5---------5---------|
--0h--3-----0h--3-----0h--3--|
-----------------------------|
-----------------------------|


  E  E   E  E  E   E   E   E   
------------------------------|
------------------------------|
--7---------5-----------------|
-----0h--3-----0h--3h--5h--7--|
------------------------------|
------------------------------|


  S S S S H        S S S S  
---------------------------|
---------------------------|
---------------------------|
---------------------------|
---------------------------|
--1-1-1-1----------1-1-1-1-|


  H        S S S S  Q     
-------------------------|
-------------------------|
-------------------------|
-------------------------|
-------------------------|
-----------1-1-1-1-/8----|


  S S S S H        S S S S  
---------------------------|
---------------------------|
---------------------------|
---------------------------|
---------------------------|
--3-3-3-3----------3-3-3-3-|


  H        S S S S  Q      
--------------------------|
--------------------------|
--------------------------|
--------------------------|
--------------------------|
-----------3-3-3-3-12\----|


    Q.      Q.      Q     
-------------------------|
-------------------------|
--/15------14------------|
-------------------15----|
-------------------------|
-------------------------|


   W                  
---------------------|
---------------------|
---------------------|
--12~----------------|
---------------------|
---------------------|


    Q.      Q.      Q     
-------------------------|
-------------------------|
--/15------14------------|
-------------------15----|
-------------------------|
-------------------------|


   H         H          
-----------------------|
-----------------------|
-----------------------|
--10~--------8~--------|
-----------------------|
-----------------------|


  S S S S S S S S S S S S S S S S  
----------------------------------|
----------------------------------|
--7-7-7-7-7-7-7-7-7-7-7-7-7-7-7-7-|
----------------------------------|
----------------------------------|
----------------------------------|


  S S S S S S S S S S S S S S S S  
----------------------------------|
----------------------------------|
--7-7-7-7-7-7-7-7-8-8-8-8-8-8-8-8-|
----------------------------------|
----------------------------------|
----------------------------------|


  S S S S S S S S S S S S S S S S  
----------------------------------|
----------------------------------|
--5-5-5-5-5-5-5-5-5-5-5-5-5-5-5-5-|
----------------------------------|
----------------------------------|
----------------------------------|


   H.            E  E   
-----------------------|
---8-------------L-----|
--10b------------L-----|
-----------------------|
-----------------------|
--------------------1--|


     PM    PM       PM     
  E  E  E  E  E  E  E  E   
--------------------------|
--------------------------|
--------------------------|
--------------------------|
--------1-----------------|
--L--1--1--1--5--1--1--3--|


  E  E  E  E  E  E  E  E   
--------------------------|
--------------------------|
--------7-----5-----------|
--------------------7-----|
-----------------------5--|
--L--3-----3-----3-----5--|


     PM PM PM PM PM PM     
  E  E  E  E  E  E  E  E   
--------------------------|
--------------------------|
--------------------------|
--------------------------|
--L--5--5--5--5--5--5--7--|
--L--5--5--5--5--5--5--7--|


        PM          PM     
  E  E  E  E  E  E  E  E   
--------------------------|
--------------------------|
--------------------------|
--------------------------|
--L--7-----8--L--7--------|
--L--7--7--8--L--7--7--1--|


     PM    PM       PM     
  E  E  E  E  E  E  E  E   
--------------------------|
--------------------------|
--------------------------|
--------------------------|
--------1-----------------|
--L--1--1--1--5--1--1--3--|


  E  E  E  E  E  E  E  E   
--------------------------|
--------------------------|
--------7-----5-----------|
--------------------7-----|
-----------------------5--|
--L--3-----3-----3-----5--|


     PM PM PM PM PM PM     
  E  E  E  E  E  E  E  E   
--------------------------|
--------------------------|
--------------------------|
--------------------------|
--L--5--5--5--5--5--5--7--|
--L--5--5--5--5--5--5--7--|


        PM          PM PM  
  E  E  E  E  E  E  E  E   
--------------------------|
--------------------------|
--------------------------|
--------------------------|
--L--7-----8--L--7--------|
--L--7--7--8--L--7--7--7--|


  Q     Q     Q     Q     
-------------------------|
-------11----10----------|
--8----------------10----|
-------------------------|
--6----------------------|
-------------------------|


  W                  
--------------------|
--------------------|
--8~----------------|
--------------------|
--------------------|
--------------------|


   Q     Q     Q     Q     
--------------------------|
--------13----11----------|
--10----------------14----|
--------------------------|
---8----------------------|
--------------------------|


   W                     W                 
---------------------|--------------------|
---------------------|--------------------|
--10~----------------|--12----------------|
---------------------|--------------------|
---------------------|--10----------------|
---------------------|--------------------|


  H         E   E   E   E   
---------------------------|
---------------------------|
--L--------12--12--12--12--|
---------------------------|
--L--------10--10--10--10--|
---------------------------|


   E   E   E   E   E   E   E   E   
----------------------------------|
----------------------------------|
--10--10--10--10--10--10--10--10--|
----------------------------------|
---8---8---8---8---8---8---8---8--|
----------------------------------|


   E   E   E   E   E   E   E   E   
----------------------------------|
----------------------------------|
--12--12--12--12--12--12--12--12--|
----------------------------------|
--10--10--10--10--10--10--10--10--|
----------------------------------|


  Q     Q     Q     Q     
-------------------------|
-------11----10----------|
--8----------------10----|
-------------------------|
--6----------------------|
-------------------------|


  W                  
--------------------|
--------------------|
--8~----------------|
--------------------|
--------------------|
--------------------|


   Q     Q     Q     Q     
--------------------------|
--------13----11----------|
--10----------------14----|
--------------------------|
---8----------------------|
--------------------------|


   W                  
---------------------|
---------------------|
--10~----------------|
---------------------|
---------------------|
---------------------|


          PM            
  E.  E.  E  Q    Q     
-----------------------|
-----------------------|
-------------8----8----|
-------------7----7----|
--5---5---0--6----6----|
--5---5---0------------|


          PM             
  E.  E.  E  E  E  Q     
------------------------|
------------------------|
-------------8--8--8----|
-------------7--7--7----|
--5---5---0--6--6--6----|
--5---5---0-------------|


          PM            
  E.  E.  E  Q    Q     
-----------------------|
-----------------------|
-------------8----8----|
-------------7----7----|
--5---5---0--6----6----|
--5---5---0------------|


          PM             
  E.  E.  E   H          
------------------------|
------------------------|
------------------------|
------------------------|
--5---5---0-------------|
--5---5---0--12\--------|


          PM            
  E.  E.  E  Q    Q     
-----------------------|
-----------------------|
-------------8----8----|
-------------7----7----|
--5---5---0--6----6----|
--5---5---0------------|


          PM             
  E.  E.  E  E  E  Q     
------------------------|
------------------------|
-------------8--8--8----|
-------------7--7--7----|
--5---5---0--6--6--6----|
--5---5---0-------------|


          PM            
  E.  E.  E  Q    Q     
-----------------------|
-----------------------|
-------------8----8----|
-------------7----7----|
--5---5---0--6----6----|
--5---5---0------------|


          PM            
  E.  E.  E  Q    Q     
-----------------------|
-----------------------|
-----------------------|
-----------------------|
--5---5---0--1----4----|
--5---5---0--1----4----|


          PM            
  E.  E.  E  Q    Q     
-----------------------|
-----------------------|
-------------8----8----|
-------------7----7----|
--5---5---0--6----6----|
--5---5---0------------|


          PM             
  E.  E.  E  E  E  Q     
------------------------|
------------------------|
-------------8--8--8----|
-------------7--7--7----|
--5---5---0--6--6--6----|
--5---5---0-------------|


          PM            
  E.  E.  E  Q    Q     
-----------------------|
-----------------------|
-------------8----8----|
-------------7----7----|
--5---5---0--6----6----|
--5---5---0------------|


          PM            
  E.  E.  E  Q    Q     
-----------------------|
-----------------------|
-----------------------|
-----------------------|
--5---5---0--1----4----|
--5---5---0--1----4----|


          PM            
  E.  E.  E  Q    Q     
-----------------------|
-----------------------|
-------------8----8----|
-------------7----7----|
--5---5---0--6----6----|
--5---5---0------------|


          PM             
  E.  E.  E  E  E  Q     
------------------------|
------------------------|
-------------8--8--8----|
-------------7--7--7----|
--5---5---0--6--6--6----|
--5---5---0-------------|


          PM            
  E.  E.  E  Q    Q     
-----------------------|
-----------------------|
-------------8----8----|
-------------7----7----|
--5---5---0--6----6----|
--5---5---0------------|


          PM            
  E.  E.  E  Q    Q     
-----------------------|
-----------------------|
-----------------------|
-----------------------|
--5---5---0--1----4----|
--5---5---0--1----4----|


          PM            
  E.  E.  E  Q    Q     
-----------------------|
-----------------------|
-------------8----8----|
-------------7----7----|
--5---5---0--6----6----|
--5---5---0------------|


          PM             
  E.  E.  E  E  E  Q     
------------------------|
------------------------|
-------------8--8--8----|
-------------7--7--7----|
--5---5---0--6--6--6----|
--5---5---0-------------|


          PM            
  E.  E.  E  Q    Q     
-----------------------|
-----------------------|
-------------8----8----|
-------------7----7----|
--5---5---0--6----6----|
--5---5---0------------|


          PM               <                 
  E.  E.  E  Q    Q        W                 
-----------------------|--------------------|
-----------------------|--------------------|
-----------------------|--12----------------|
-----------------------|--------------------|
--5---5---0--1----4----|--------------------|
--5---5---0--1----4----|--------------------|


   <         <         
   H         H         
----------------------|
----------------------|
--15--------12--------|
----------------------|
----------------------|
----------------------|


   <         <         
   H         H         
----------------------|
----------------------|
--14--------11--------|
----------------------|
----------------------|
----------------------|


   <         <         
   H         H         
----------------------|
----------------------|
--15--------12--------|
----------------------|
----------------------|
----------------------|


   <         <         
   H         H         
----------------------|
----------------------|
--14--------11--------|
----------------------|
----------------------|
----------------------|


   <         <         
   H         H         
----------------------|
----------------------|
--15--------12--------|
----------------------|
----------------------|
----------------------|


   <         <         
   H         H         
----------------------|
----------------------|
--14--------11--------|
----------------------|
----------------------|
----------------------|


   <         <         
   H         H         
----------------------|
----------------------|
--15--------12--------|
----------------------|
----------------------|
----------------------|


   <         <         
   H         H         
----------------------|
----------------------|
--14--------11--------|
----------------------|
----------------------|
----------------------|


  E  Q.      E  Q.       
------------------------|
------------------------|
------------------------|
------------------------|
------------------------|
--0--5~------0--1~------|


  E  Q.      E  Q.      
-----------------------|
-----------------------|
----------------7------|
----------------6------|
----------------5------|
--0--4~------0---------|


  E  Q.      E  Q.       
------------------------|
------------------------|
------------------------|
------------------------|
------------------------|
--0--5~------0--1~------|


                PM        
  E  Q.      E  E  E  E   
-------------------------|
-------------------------|
-------------------------|
-------------------------|
----------------0--------|
--0--4~------0--0--------|


  E  Q.      E  Q.       
------------------------|
------------------------|
------------------------|
------------------------|
------------------------|
--0--5~------0--1~------|


  E  Q.      E  Q.      
-----------------------|
-----------------------|
----------------7------|
----------------6------|
----------------5------|
--0--4~------0---------|


  E  Q.      E  Q.       
------------------------|
------------------------|
------------------------|
------------------------|
------------------------|
--0--5~------0--1~------|


                PM              
  E  Q.      E  E  E  E         
-------------------------|-----|
-------------------------|-----|
-------------------------|-----|
-------------------------|-----|
----------------0--------|-----|
--0--4~------0--0--------|-----|


  S S S S S S S S S S S S S S S S  
----------------------------------|
----------------------------------|
--7-7-7-7-7-7-7-7-7-7-7-7-7-7-7-7-|
----------------------------------|
----------------------------------|
----------------------------------|


  S S S S S S S S S S S S S S S S  
----------------------------------|
----------------------------------|
--7-7-7-7-7-7-7-7-8-8-8-8-8-8-8-8-|
----------------------------------|
----------------------------------|
----------------------------------|


  S S S S S S S S S S S S S S S S  
----------------------------------|
----------------------------------|
--5-5-5-5-5-5-5-5-5-5-5-5-5-5-5-5-|
----------------------------------|
----------------------------------|
----------------------------------|


   H.            E  E   
-----------------------|
---8-------------L-----|
--10b------------L-----|
-----------------------|
-----------------------|
--------------------1--|


     PM    PM       PM     
  E  E  E  E  E  E  E  E   
--------------------------|
--------------------------|
--------------------------|
--------------------------|
--------1-----------------|
--L--1--1--1--5--1--1--3--|


  E  E  E  E  E  E  E  E   
--------------------------|
--------------------------|
--------7-----5-----------|
--------------------7-----|
-----------------------5--|
--L--3-----3-----3-----5--|


     PM PM PM PM PM PM     
  E  E  E  E  E  E  E  E   
--------------------------|
--------------------------|
--------------------------|
--------------------------|
--L--5--5--5--5--5--5--7--|
--L--5--5--5--5--5--5--7--|


        PM          PM     
  E  E  E  E  E  E  E  E   
--------------------------|
--------------------------|
--------------------------|
--------------------------|
--L--7-----8--L--7--------|
--L--7--7--8--L--7--7--1--|


     PM    PM       PM     
  E  E  E  E  E  E  E  E   
--------------------------|
--------------------------|
--------------------------|
--------------------------|
--------1-----------------|
--L--1--1--1--5--1--1--3--|


  E  E  E  E  E  E  E  E   
--------------------------|
--------------------------|
--------7-----5-----------|
--------------------7-----|
-----------------------5--|
--L--3-----3-----3-----5--|


     PM PM PM PM PM PM     
  E  E  E  E  E  E  E  E   
--------------------------|
--------------------------|
--------------------------|
--------------------------|
--L--5--5--5--5--5--5--7--|
--L--5--5--5--5--5--5--7--|


        PM          PM PM  
  E  E  E  E  E  E  E  E   
--------------------------|
--------------------------|
--------------------------|
--------------------------|
--L--7-----8--L--7--------|
--L--7--7--8--L--7--7--7--|


  W                   W                 
-------------------|-------------------|
-------------------|-------------------|
-------------------|-------------------|
--1----------------|--L----------------|
--1----------------|--L----------------|
--1----------------|--L----------------|


  W                   Q    Q    Q    Q     
-------------------|----------------------|
-------------------|----------------------|
-------------------|----------------------|
--3----------------|--L----8----7---------|
--3----------------|--L--------------8----|
--3----------------|--L-------------------|


  W                   W                 
-------------------|-------------------|
-------------------|-------------------|
-------------------|-------------------|
--5----------------|--L----------------|
--5----------------|--L----------------|
--5----------------|--L----------------|


  W                   W                 
-------------------|-------------------|
-------------------|-------------------|
-------------------|-------------------|
--8----------------|--7----------------|
--5----------------|--5----------------|
--5----------------|--5----------------|


   W                 
--------------------|
--------------------|
--12----------------|
--------------------|
--10----------------|
--------------------|


  Q     Q     Q     Q     
-------------------------|
-------15----13----------|
--L----------------15----|
-------------------------|
--L----------------------|
-------------------------|


   W                  
---------------------|
---------------------|
---------------------|
--15~----------------|
---------------------|
---------------------|


  Q     Q     Q     Q     
-------------------------|
-------15----13----------|
-------------------15----|
--L----------------------|
-------------------------|
-------------------------|


  W                   W                 
-------------------|-------------------|
-------------------|-------------------|
-------------------|-------------------|
--5----------------|--L----------------|
--5----------------|--L----------------|
--5----------------|--L----------------|


  W                   W                 
-------------------|-------------------|
-------------------|-------------------|
-------------------|-------------------|
--8----------------|--7----------------|
--5----------------|--5----------------|
--5----------------|--5----------------|


   W                 
--------------------|
--------------------|
--12----------------|
--------------------|
--10----------------|
--------------------|


  Q     Q     Q     Q     
-------------------------|
-------15----13----------|
--L----------------15----|
-------------------------|
--L----------------------|
-------------------------|


   W                  
---------------------|
---------------------|
---------------------|
--15~----------------|
---------------------|
---------------------|


  Q     Q     Q     Q     
-------------------------|
-------15----13----------|
-------------------15----|
--L----------------------|
-------------------------|
-------------------------|


  W                    Q     Q     H         
-------------------|------------------------|
-------------------|--15----13--------------|
--L----------------|--------------15--------|
-------------------|------------------------|
-------------------|------------------------|
-------------------|------------------------|


  W                    Q     Q     H         
-------------------|------------------------|
-------------------|--15----13--------------|
--L----------------|--------------15--------|
-------------------|------------------------|
-------------------|------------------------|
-------------------|------------------------|


  W                    Q     Q     H         
-------------------|------------------------|
-------------------|--15----13--------------|
--L----------------|--------------15--------|
-------------------|------------------------|
-------------------|------------------------|
-------------------|------------------------|


  W                    Q     Q     H         
-------------------|------------------------|
-------------------|--15----13--------------|
--L----------------|--------------15--------|
-------------------|------------------------|
-------------------|------------------------|
-------------------|------------------------|


  W                    Q     Q     H         
-------------------|------------------------|
-------------------|--15----13--------------|
--L----------------|--------------15--------|
-------------------|------------------------|
-------------------|------------------------|
-------------------|------------------------|


  W                 
-------------------|
-------------------|
--L----------------|
-------------------|
-------------------|
-------------------|


   Q     Q     H          
------------------------||
--15----13--------------||
--------------15--------||
------------------------||
------------------------||
------------------------||




Duration Legend
---------------
W - whole
H - half
Q - quarter
E - 8th
S - 16th
T - 32nd
X - 64th
. - note dotted
|-n-|  - n-tuplets


Tablature Legend
----------------
L - tied note
x - dead note
g - grace note
(n) - ghost note
> - accentuded note
NH - natural harmonic
AH - artificial harmonic
TH - tapped harmonic
SH - semi harmonic
PH - pitch harmonic
h - hammer on
p - pull off
b - bend
br - bendRelease
pb - preBend
pbr - preBendRelease
brb - bendReleaseBend
\n/ - tremolo bar dip
\n - tremolo bar dive
-/n - tremolo bar Release up
/n\ - tremolo bar inverted dip
/n - tremolo bar return
-\n - tremolo bar Release down
S - shift slide
s - legato slide
/ -  slide into from below or out of upwards
\ -  slide into from above or out of downwards
~ - vibrato
W - wide vibrato
tr - trill
TP - tremolo picking
T - tapping
S - slap
P - pop
< - fade in
^ - brush up
v - brush down
comments
We did not receive enough feedback on this tab! Please rate:
print report bad tab
1 2 3 4 5
I want to post or [tab]
guest
You may want to rate the tab now too:
select rating
Please do not post tabs as comments. Select "correction" instead!