Oops, an error
Loading. Please wait.

In The Halls Of Awaiting Tab

ver1
ver1

Whole song

Interactive

More versions @911Tabs.com
6,107 views 3 this week
2 commentsread comments
1 2 3 4 5
excellent!
x 3
add to favorites launch autoscroll
font size
0
reset
Autoscroll
+/-
esc
set tempo
stop
Contributor
WARNING: You are trying to view
                                    content from Ultimate-Guitar.com
                                    in an unauthorized application,
                                    which is prohibited.

                                    Please use an official Ultimate
                                    Guitar Tabs application for iPhone,
                                    iPad or Android to access legitimate
                                    chords, guitar, bass, and drum tabs
                                    from Ultimate-Guitar.com database.

                                    Type "ultimate guitar tabs" in Apple
                                    App Store's or Android Market's
                                    search to find the application.
IN THE HALLS OF AWAITING
                            As recorded by Insomnium
                  (From the 2002 Album IN THE HALLS OF AWAITING)

Words and Music by Insomnium

Gtr I (D G C F A D) - 'Acoustic 1'
Gtr II (D G C F A D) - 'Acoustic 2'
Gtr III (D G C F A D) - 'Distortion 1'
Gtr IV (D G C F A D) - 'Distortion 2'
Gtr V (D G C F A D) - 'Piano'
Gtr VI (D G C F A D) - 'Solo'

   Intro
    Q=160
   4/4
    Gtr I
||-----5----------|----5--------5-|-----5-----------|-3---5-----------5----|
||o-3-----3--(3)--|-3-----5-3-5---|-6-------6--(6)--|---------5----5-------|
||----------------|---------------|-----------------|-----------5----------|
||----------------|---------------|-----------------|----------------------|
||o---------------|---------------|-----------------|----------------------|
||----------------|---------------|-----------------|----------------------|
|
|   Gtr II
||-----5----------|----5--------5-|-----------------|-3--(3)---------------|
||o-3-----3--(3)--|-3-----5-3-5---|-6--(6)--6--(6)--|---------5---(5)------|
||----------------|---------------|-----------------|----------------------|
||----------------|---------------|-----------------|----------------------|
||o---------------|---------------|-----------------|----------------------|
||----------------|---------------|-----------------|----------------------|


|----5----------|----5--------5-|-----5-----------|-3---5-----------5----||
|-3-----3--(3)--|-3-----5-3-5---|-6-------6--(6)--|---------5----5------o||
|---------------|---------------|-----------------|-----------5----------||
|---------------|---------------|-----------------|----------------------||
|---------------|---------------|-----------------|---------------------o||
|---------------|---------------|-----------------|----------------------||
|
|----5----------|----5--------5-|-----------------|---------3---(3)------||
|-3-----3--(3)--|-3-----5-3-5---|-5--(5)--5--(5)--|-5--(5)--------------o||
|---------------|---------------|-----------------|----------------------||
|---------------|---------------|-----------------|----------------------||
|---------------|---------------|-----------------|---------------------o||
|---------------|---------------|-----------------|----------------------||


            3/4
  Gtrs I, II
|-5--------|-(5)----|
|-6--------|-(6)----|
|-7--------|-(7)----|
|-7--------|-(7)----|
|-5--------|-(5)----|
|-5--------|-(5)----|


    Q=178
   4/4
    Gtr III
       PM|    PM|      PM|    PM|      PM|    PM|      PM|    PM|
||----------------|---------------|---------------|----------------||
||o---------------|---------------|---------------|---------------o||
||----------------|---------------|---------------|-5------5-------||
||--7------7------|-7------7------|-3------3------|-5--5-5-5--5-5--||
||o-5--5-5-5--5-5-|-7--7-7-7--7-7-|-3--3-3-3--3-3-|-3--3-3-3--3-3-o||
||--5--5-5-5--5-5-|-5--5-5-5--5-5-|-1--1-1-1--1-1-|----------------||
|
|   Gtr IV
|      PM|    PM|      PM|    PM|      PM|    PM|      PM|    PM|
||----------------|---------------|---------------|----------------||
||o---------------|---------------|---------------|---------------o||
||----------------|---------------|---------------|-5------5-------||
||--7------7------|-7------7------|-3------3------|-5--5-5-5--5-5--||
||o-5--5-5-5--5-5-|-7--7-7-7--7-7-|-3--3-3-3--3-3-|-3--3-3-3--3-3-o||
||--5--5-5-5--5-5-|-5--5-5-5--5-5-|-1--1-1-1--1-1-|----------------||


||--------------------------|-------------------------|
||o-------------------------|-------------------------|
||--------------------------|-------------------------|
||--7-(7)-7-(7)-7-(7)-7-(7)-|-7-(7)-7-(7)-7-(7)-7-(7)-|
||o-5-(5)-5-(5)-5-(5)-5-(5)-|-7-(7)-7-(7)-7-(7)-7-(7)-|
||--5-(5)-5-(5)-5-(5)-5-(5)-|-5-(5)-5-(5)-5-(5)-5-(5)-|
|
||--------------------------|-------------------------|
||o-------------------------|-------------------------|
||--------------------------|-------------------------|
||--7-(7)-7-(7)-7-(7)-7-(7)-|-7-(7)-7-(7)-7-(7)-7-(7)-|
||o-5-(5)-5-(5)-5-(5)-5-(5)-|-7-(7)-7-(7)-7-(7)-7-(7)-|
||--5-(5)-5-(5)-5-(5)-5-(5)-|-5-(5)-5-(5)-5-(5)-5-(5)-|


                           1.
|-------------------------|---------------------------||
|-------------------------|--------------------------o||
|-------------------------|-5-(5)-5-(5)-5-(5)-5-(5)---||
|-3-(3)-3-(3)-3-(3)-3-(3)-|-5-(5)-5-(5)-5-(5)-5-(5)---||
|-3-(3)-3-(3)-3-(3)-3-(3)-|-3-(3)-3-(3)-3-(3)-3-(3)--o||
|-1-(1)-1-(1)-1-(1)-1-(1)-|---------------------------||
|
|-------------------------|---------------------------||
|-------------------------|--------------------------o||
|-------------------------|-5-(5)-5-(5)-5-(5)-5-(5)---||
|-3-(3)-3-(3)-3-(3)-3-(3)-|-5-(5)-5-(5)-5-(5)-5-(5)---||
|-3-(3)-3-(3)-3-(3)-3-(3)-|-3-(3)-3-(3)-3-(3)-3-(3)--o||
|-1-(1)-1-(1)-1-(1)-1-(1)-|---------------------------||


  2.
  PM|     PM|
|--------------------|
|--------------------|
|-----5-5-----5-5----|
|-5-5-5-5-5-5-5-5----|
|-3-3-3-3-3-3-3-3----|
|--------------------|
|
| PM|     PM|
|--------------------|
|--------------------|
|-----5-5-----5-5----|
|-5-5-5-5-5-5-5-5----|
|-3-3-3-3-3-3-3-3----|
|--------------------|


       PM|    PM|      PM|    PM---|      PM|    PM|      PM|    PM|
||----------------|------------------|---------------|----------------|
||o---------------|------------------|---------------|----------------|
||----------------|------------------|---------------|-5------5-------|
||--7------7------|-7------7---------|-3------3------|-5--5-5-5--5-5--|
||o-5--5-5-5--5-5-|-7--7-7-7--7----7-|-3--3-3-3--3-3-|-3--3-3-3--3-3--|
||--5--5-5-5--5-5-|-5--5-5-5--5----5-|-1--1-1-1--1-1-|----------------|
|
||-----5----------|----5-------------|----5---3------|----------------|
||o-3------6--5-6-|-8------6--5tr6---|-3---------6-8-|-5------3-------|
||----------------|------------------|---------------|-----------5----|
||----------------|------------------|---------------|----------------|
||o---------------|------------------|---------------|----------------|
||----------------|------------------|---------------|----------------|


     PM|    PM|      PM|    PM---|      PM|    PM|      PM|     PM|
|---------------|------------------|---------------|-----------------||
|---------------|------------------|---------------|----------------o||
|---------------|------------------|---------------|-5------5--------||
|-7------7------|-7------7---------|-3------3------|-5--5-5-5---5-5--||
|-5--5-5-5--5-5-|-7--7-7-7--7----7-|-3--3-3-3--3-3-|-3--3-3-3---3-3-o||
|-5--5-5-5--5-5-|-5--5-5-5--5----5-|-1--1-1-1--1-1-|-----------------||
|
|----5----------|----5-------------|----5---3------|-5---------------||
|-3------6--5-6-|-8------6--5tr6---|-3---------6-8-|----------5-----o||
|---------------|------------------|---------------|------5----------||
|---------------|------------------|---------------|-----------------||
|---------------|------------------|---------------|----------------o||
|---------------|------------------|---------------|-----------------||


      PM|       PM|
|-------------------|---------------------|
|-------------------|---------------------|
|-3---------3-------|--5----------5-------|
|-3---3-3---3---3-3-|--5---5-5----5---5-5-|
|-1---1-1---1---1-1-|--3---3-3----3---3-3-|
|-------------------|---------------------|
|
|-------------------|---------------------|
|-------------------|---------------------|
|----10---9---7-9---|-10--12---10---9-----|
|-8-----------------|---------------------|
|-------------------|---------------------|
|-------------------|---------------------|


|---------------|-----------------|-----------------|-----------------|
|---------------|-----------------|-----------------|-----------------|
|-7-------------|-(7)-------------|-(7)-------------|-(7)-------------|
|---------------|-----------------|-----------------|-----------------|
|-5-------------|-(5)-------------|-(5)-------------|-(5)-------------|
|---------------|-----------------|-----------------|-----------------|
|
|---------------|-----------------|-----------------|-----------------|
|---------------|-----------------|-----------------|-----------------|
|-7-------------|-(7)-------------|-(7)-------------|-(7)-------------|
|---------------|-----------------|-----------------|-----------------|
|---------------|-----------------|-----------------|-----------------|
|---------------|-----------------|-----------------|-----------------|
|
| Gtr V
| <
|----5----------|------5--------5-|------5----------|--3---5--------5-|
|-3-----3--(3)--|--3------5-3-5---|--6------6--(6)--|---------5---5---|
|---------------|-----------------|-----------------|-----------5-----|
|---------------|-----------------|-----------------|-----------------|
|---------------|-----------------|-----------------|-----------------|
|---------------|-----------------|-----------------|-----------------|


  Gtr V
|----5----------|----5--------5-|----5----------|-3--5--------5-|
|-3-----3--(3)--|-3-----5-3-5---|-6-----6--(6)--|-------5---5---|
|---------------|---------------|---------------|---------5-----|
|---------------|---------------|---------------|---------------|
|---------------|---------------|---------------|---------------|
|---------------|---------------|---------------|---------------|


 Chorus
  Gtr III
                    PM---|
|----------|---------------|----------|-----------|
|----------|---------------|----------|-----------|
|----------|---------------|----------|-5---------|
|-7--------|-(7)-----------|-3--------|-5----7----|
|-5--------|-(5)----5-5--5-|-3--------|-3----7----|
|-5--------|-(5)----5-5--5-|-1--------|------5----|
|
| Gtr IV
|                   PM---|
|----------|---------------|----------|-----------|
|----------|---------------|----------|-----------|
|----------|---------------|----------|-5---------|
|-7--------|-(7)-----------|-3--------|-5----7----|
|-5--------|-(5)----5-5--5-|-3--------|-3----7----|
|-5--------|-(5)----5-5--5-|-1--------|------5----|


                    PM---|
|----------|---------------|----------|-----------|
|----------|---------------|----------|-----------|
|----------|---------------|----------|-5---------|
|-7--------|-(7)-----------|-7--------|-5----5----|
|-5--------|-(5)----5-5--5-|-7--------|-3----5----|
|-5--------|-(5)----5-5--5-|-5--------|------3----|
|
|                   PM---|
|----------|---------------|----------|-----------|
|----------|---------------|----------|-----------|
|----------|---------------|----------|-5---------|
|-7--------|-(7)-----------|-7--------|-5----5----|
|-5--------|-(5)----5-5--5-|-7--------|-3----5----|
|-5--------|-(5)----5-5--5-|-5--------|------3----|


                    PM---|
|----------|---------------|----------|-----------|
|----------|---------------|----------|-----------|
|----------|---------------|----------|-5---------|
|-7--------|-(7)-----------|-3--------|-5----7----|
|-5--------|-(5)----5-5--5-|-3--------|-3----7----|
|-5--------|-(5)----5-5--5-|-1--------|------5----|
|
|                   PM---|
|----------|---------------|----------|-----------|
|----------|---------------|----------|-----------|
|----------|---------------|----------|-5---------|
|-7--------|-(7)-----------|-3--------|-5----7----|
|-5--------|-(5)----5-5--5-|-3--------|-3----7----|
|-5--------|-(5)----5-5--5-|-1--------|------5----|


                    PM---|
|----------|---------------|----------|------|
|----------|---------------|----------|------|
|----------|---------------|-5--------|-9----|
|-8--------|-(8)-----------|-5--------|-9----|
|-8--------|-(8)----8-8--8-|-3--------|-7----|
|-6--------|-(6)----6-6--6-|----------|------|
|
|                   PM---|
|----------|---------------|----------|------|
|----------|---------------|----------|------|
|----------|---------------|-5--------|-9----|
|-8--------|-(8)-----------|-5--------|-9----|
|-8--------|-(8)----8-8--8-|-3--------|-7----|
|-6--------|-(6)----6-6--6-|----------|------|


                       PM---|
|-------------|---------------|-------------|-----------|
|-------------|---------------|-------------|-----------|
|-------------|---------------|-------------|-5---------|
|--7----------|-(7)-----------|--3----------|-5----7----|
|--5----------|-(5)----5-5--5-|--3----------|-3----7----|
|--5----------|-(5)----5-5--5-|--1----------|------5----|
|
|-------------|---------------|-------------|-----------|
|-------------|---------------|-------------|-----------|
|-10---9--7---|---------------|-10-------12-|-9---------|
|-------------|--7------------|-------------|-----------|
|-------------|---------------|-------------|-----------|
|-------------|---------------|-------------|-----------|


                       PM---|
|-------------|---------------|------------|-----------|
|-------------|---------------|------------|-----------|
|-------------|---------------|------------|-5---------|
|--7----------|-(7)-----------|--7---------|-5----5----|
|--5----------|-(5)----5-5--5-|--7---------|-3----5----|
|--5----------|-(5)----5-5--5-|--5---------|------3----|
|
|-------------|---------------|------------|-----------|
|-------------|---------------|-10------8--|------8----|
|-10---9---7--|---------------|------------|-9---------|
|-------------|--7------------|------------|-----------|
|-------------|---------------|------------|-----------|
|-------------|---------------|------------|-----------|


                       PM---|
|-------------|---------------|-------------|-------------|
|-------------|---------------|-------------|-------------|
|-------------|---------------|-------------|--5----------|
|--7----------|-(7)-----------|--3----------|--5-----7----|
|--5----------|-(5)----5-5--5-|--3----------|--3-----7----|
|--5----------|-(5)----5-5--5-|--1----------|--------5----|
|
|-------------|---------------|-------------|-------------|
|-------------|---------------|-------------|-------------|
|-10---9---7--|---------------|-10-------10h|=12---9------|
|-------------|--7------------|-------------|-------------|
|-------------|---------------|-------------|-------------|
|-------------|---------------|-------------|-------------|


                       PM---|
|-------------|---------------|----------|------|
|-------------|---------------|----------|------|
|-------------|---------------|-5--------|-9----|
|--8----------|-(8)-----------|-5--------|-9----|
|--8----------|-(8)----8-8--8-|-3--------|-7----|
|--6----------|-(6)----6-6--6-|----------|------|
|
|-------------|---------------|----------|------|
|-------------|---------------|----------|------|
|-10---9---7--|---------------|-5--------|-9----|
|-------------|--7------------|-5--------|-9----|
|-------------|---------------|-3--------|-7----|
|-------------|---------------|----------|------|


     PM|    PM|      PM|    PM---|      PM|    PM|      PM|    PM|
|---------------|------------------|---------------|---------------|
|---------------|------------------|---------------|---------------|
|---------------|------------------|---------------|-5------5------|
|-7------7------|-7------7---------|-3------3------|-5--5-5-5--5-5-|
|-5--5-5-5--5-5-|-7--7-7-7--7----7-|-3--3-3-3--3-3-|-3--3-3-3--3-3-|
|-5--5-5-5--5-5-|-5--5-5-5--5----5-|-1--1-1-1--1-1-|---------------|
|
|----5----------|----5-------------|----5---3------|---------------|
|-3------6--5-6-|-8------6--5tr6---|-3---------6-8-|-5------3------|
|---------------|------------------|---------------|-----------5---|
|---------------|------------------|---------------|---------------|
|---------------|------------------|---------------|---------------|
|---------------|------------------|---------------|---------------|


     PM|    PM|      PM|    PM---|      PM|    PM|      PM|    PM|
|---------------|------------------|---------------|---------------|
|---------------|------------------|---------------|---------------|
|---------------|------------------|---------------|-5------5------|
|-7------7------|-7------7---------|-3------3------|-5--5-5-5--5-5-|
|-5--5-5-5--5-5-|-7--7-7-7--7----7-|-3--3-3-3--3-3-|-3--3-3-3--3-3-|
|-5--5-5-5--5-5-|-5--5-5-5--5----5-|-1--1-1-1--1-1-|---------------|
|
|----5----------|----5-------------|----5---3------|-5-------------|
|-3------6--5-6-|-8------6--5tr6---|-3---------6-8-|-----------5---|
|---------------|------------------|---------------|--------5------|
|---------------|------------------|---------------|---------------|
|---------------|------------------|---------------|---------------|
|---------------|------------------|---------------|---------------|


|-------------------------|----------------------------|
|-------------------------|----------------------------|
|-------------------------|----------------------------|
|-7-(7)-7-(7)-7-(7)-7-(7)-|-7-(7)-7-(7)-7-(7)-7----(7)-|
|-5-(5)-5-(5)-5-(5)-5-(5)-|-7-(7)-7-(7)-7-(7)-7----(7)-|
|-5-(5)-5-(5)-5-(5)-5-(5)-|-5-(5)-5-(5)-5-(5)-5----(5)-|
|
|-------5-----------------|-------5--------------------|
|-3-----------6-----5--6--|-8-----------6-----5tr6-----|
|-------------------------|----------------------------|
|-------------------------|----------------------------|
|-------------------------|----------------------------|
|-------------------------|----------------------------|


|-------------------------|-------------------------|
|-------------------------|-------------------------|
|-------------------------|-5-(5)-5-(5)-5-(5)-5-(5)-|
|-3-(3)-3-(3)-3-(3)-3-(3)-|-5-(5)-5-(5)-5-(5)-5-(5)-|
|-3-(3)-3-(3)-3-(3)-3-(3)-|-3-(3)-3-(3)-3-(3)-3-(3)-|
|-1-(1)-1-(1)-1-(1)-1-(1)-|-------------------------|
|
|-------5-----3-----------|-------------------------|
|-3-----------------6--8--|-5-----------3-----------|
|-------------------------|-------------------5-----|
|-------------------------|-------------------------|
|-------------------------|-------------------------|
|-------------------------|-------------------------|


|-------------------------|----------------------------|
|-------------------------|----------------------------|
|-------------------------|----------------------------|
|-7-(7)-7-(7)-7-(7)-7-(7)-|-7-(7)-7-(7)-7-(7)-7----(7)-|
|-5-(5)-5-(5)-5-(5)-5-(5)-|-7-(7)-7-(7)-7-(7)-7----(7)-|
|-5-(5)-5-(5)-5-(5)-5-(5)-|-5-(5)-5-(5)-5-(5)-5----(5)-|
|
|-------5-----------------|-------5--------------------|
|-3-----------6-----5--6--|-8-----------6-----5tr6-----|
|-------------------------|----------------------------|
|-------------------------|----------------------------|
|-------------------------|----------------------------|
|-------------------------|----------------------------|


                            PM|     PM|
|-------------------------|-----------------|
|-------------------------|-----------------|
|-------------------------|-----5-5-----5-5-|
|-3-(3)-3-(3)-3-(3)-3-(3)-|-5-5-5-5-5-5-5-5-|
|-3-(3)-3-(3)-3-(3)-3-(3)-|-3-3-3-3-3-3-3-3-|
|-1-(1)-1-(1)-1-(1)-1-(1)-|-----------------|
|
|-------5-----3-----------|-5---------------|
|-3-----------------6--8--|-------------5---|
|-------------------------|---------5-------|
|-------------------------|-----------------|
|-------------------------|-----------------|
|-------------------------|-----------------|


      PM|    PM|
|----------------|-------------------|
|----------------|-------------------|
|-3-------3------|--5--------5-------|
|-3---3-3-3--3-3-|--5---5-5--5--5-5--|
|-1---1-1-1--1-1-|--3---3-3--3--3-3--|
|----------------|-------------------|
|
|----------------|-------------------|
|----------------|-------------------|
|----10---9--7-9-|-10--12---10--9----|
|-8--------------|-------------------|
|----------------|-------------------|
|----------------|-------------------|


|-------------|------------------|------------|--------------|
|-------------|------------------|------------|--------------|
|-------------|--------5---------|------------|--------------|
|-7-----------|-(7)----5---------|-2----------|-(2)----5-----|
|-7-----------|-(7)----3---------|-2----------|-(2)----5-----|
|-5-----------|-(5)--------------|-0----------|-(0)----3-----|
|
|                                  ~
|-------------|------------------|------------|--------------|
|-------------|------------------|------------|--------------|
|-----9-------|------------------|------9--7--|--------7--9--|
|-7------10---|--7-----9h10p9----|-9----------|--9-----------|
|-------------|---------------10-|------------|--------------|
|-------------|------------------|------------|--------------|


|-------------|-------------------|-------------|---------|
|-------------|-------------------|-------------|---------|
|-------------|-----------5-------|-------------|---------|
|-7-----------|-(7)-------5-------|--2----------|-5-------|
|-7-----------|-(7)-------3-------|--2----------|-5-------|
|-5-----------|-(5)---------------|--0----------|-3-------|
|
|-------------|-------------------|-------------|---------|
|-------------|-------------------|-------------|---------|
|------9------|-------------------|-------9--7--|-5--7----|
|-7-------10--|--7---9h10p==9-----|-10----------|---------|
|-------------|---------------10--|-------------|---------|
|-------------|-------------------|-------------|---------|


       PM----|     PM|                   PM---|     PM-----------|
|--------------|------------------|-------------|----------------|
|--------------|------------------|-------------|----------------|
|--------------|----------5-------|-------------|----------------|
|-7------------|----------5-------|-2-----------|--------5-------|
|-7----7---7-7-|---7-7----3-------|-2----2--2-2-|---2-2--5-------|
|-5----5---5-5-|---5-5------------|-0----0--0-0-|---0-0--3-------|
|
|                                   ~
|--------------|------------------|-------------|--------------|
|--------------|------------------|-------------|--------------|
|------9-------|------------------|------9--7---|--------7--9--|
|-7-------10---|-7---9h10p==9-----|-9-----------|-9------------|
|--------------|--------------10--|-------------|--------------|
|--------------|------------------|-------------|--------------|


       PM----|
|--------------|------------------|-------------|---------|
|--------------|------------------|-------------|---------|
|--------------|----------4-------|--5----------|---------|
|-7------------|----------4-------|--5----------|-5-------|
|-7----7---7-7-|---7-7----2-------|--3----------|-5-------|
|-5----5---5-5-|---5-5------------|-------------|-3-------|
|
|--------------|------------------|-------------|---------|
|--------------|------------------|-------------|---------|
|------9-------|------------------|-------9--7--|-5--7----|
|-7-------10---|-7---9h10p==9-----|-10----------|---------|
|--------------|--------------10--|-------------|---------|
|--------------|------------------|-------------|---------|


               ~
||-----------|----------|----------|-----|
||o----------|----------|----------|-----|
||-----------|----------|----------|-----|
||-----------|----------|----------|-----|
||o-8--7--5--|----------|-8--------|-5---|
||-----------|-5--------|----------|-----|
|
|              ~
||-----------|----------|----------|-----|
||o----------|----------|----------|-----|
||-----------|----------|----------|-----|
||--7--5-----|----------|-7--------|-----|
||o-------8--|-8--------|----------|-8---|
||-----------|----------|----------|-----|


               ~
|------------|----------|----------|------------||
|------------|----------|----------|-----------o||
|------------|----------|----------|------------||
|------------|----------|----------|------------||
|-8---7---5--|----------|-8--------|---7--8----o||
|------------|-5--------|----------|------------||
|
|              ~
|------------|----------|----------|------------||
|------------|----------|----------|-----------o||
|------------|----------|----------|------------||
|-7---5------|----------|-7--------|---5--7-----||
|---------8--|-8--------|----------|-----------o||
|------------|----------|----------|------------||


                     ~~~~
||---------------|-------------|-----------|------|
||o--------------|-------------|-----------|------|
||---------------|-------------|-----------|------|
||---------------|-------------|-----------|------|
||o--8---7----5--|-------------|--8--------|-5----|
||---------------|---5---------|-----------|------|
|
|                    ~~~~
||---------------|-------------|-----------|------|
||o--------------|-------------|-----------|------|
||---------------|-------------|-----------|------|
||---7---5-------|-------------|--7--------|------|
||o-----------8--|---8---------|-----------|-8----|
||---------------|-------------|-----------|------|
|
|   Gtr VI
|                    ~~~~
||---------------|-------------|-----------|------|
||o-10---8-------|-------------|-10--------|-8----|
||-----------10--|-(10)--------|-----------|------|
||---------------|-------------|-----------|------|
||o--------------|-------------|-----------|------|
||---------------|-------------|-----------|------|


                   ~~~~
|--------------|-------------|-----------|------------||
|--------------|-------------|-----------|-----------o||
|--------------|-------------|-----------|------------||
|--------------|-------------|-----------|------------||
|--8---7----5--|-------------|--8--------|-7----8----o||
|--------------|---5---------|-----------|------------||
|
|                  ~~~~
|--------------|-------------|-----------|------------||
|--------------|-------------|-----------|-----------o||
|--------------|-------------|-----------|------------||
|--7---5-------|-------------|--7--------|-5----7-----||
|-----------8--|---8---------|-----------|-----------o||
|--------------|-------------|-----------|------------||
|
|                  ~~~~
|--------------|-------------|-----------|------------||
|-10---8-------|-------------|-10--------|-6----8----o||
|----------10--|-(10)--------|-----------|------------||
|--------------|-------------|-----------|------------||
|--------------|-------------|-----------|-----------o||
|--------------|-------------|-----------|------------||


         PM----|     PM|                   PM---|     PM----------|
||---------------|------------------|-------------|---------------|
||o--------------|------------------|-------------|---------------|
||---------------|----------5-------|-------------|---------------|
||--7------------|----------5-------|-2-----------|--------5------|
||o-7----7---7-7-|---7-7----3-------|-2----2--2-2-|---2-2--5------|
||--5----5---5-5-|---5-5------------|-0----0--0-0-|---0-0--3------|
|
|                                     ~
||---------------|------------------|-------------|-------------|
||o--------------|------------------|-------------|-------------|
||-------9-------|------------------|------9--7---|--------7--9-|
||--7-------10---|-7---9h10p==9-----|-9-----------|-9-----------|
||o--------------|--------------10--|-------------|-------------|
||---------------|------------------|-------------|-------------|


       PM----|
|--------------|------------------|-------------|----------||
|--------------|------------------|-------------|---------o||
|--------------|----------4-------|--5----------|----------||
|-7------------|----------4-------|--5----------|-5--------||
|-7----7---7-7-|---7-7----2-------|--3----------|-5-------o||
|-5----5---5-5-|---5-5------------|-------------|-3--------||
|
|--------------|------------------|-------------|----------||
|--------------|------------------|-------------|---------o||
|------9-------|------------------|-------9--7--|-5--7-----||
|-7-------10---|-7---9h10p==9-----|-10----------|----------||
|--------------|--------------10--|-------------|---------o||
|--------------|------------------|-------------|----------||


      PM--|   PM|      PM----|        PM-------|
||-------------------|-------------------------|
||o------------------|-------------------------|
||-------------------|------------5------------|
||--7-------7------7-|------------5---5--5-5---|
||o-7-7-7-7-7-7--7-7-|-7-7-7-7----3---3--3-3---|
||--5-5-5-5-5-5--5-5-|-5-5-5-5-----------------|
|
||-------------------|-----------------------|
||o------------------|-----------------------|
||----------9--------|-----------------------|
||--7-----------10---|-7---9h==10p==9--------|
||o------------------|------------------10---|
||-------------------|-----------------------|


    PM----------|     PM-------------|
|-----------------|------------------|
|-----------------|------------------|
|-----------------|------------------|
|-2-------2-----2-|---------5--------|
|-2-2-2-2-2-2-2-2-|-2-2-2-2-5-5-5-5--|
|-0-0-0-0-0-0-0-0-|-0-0-0-0-3-3-3-3--|
|
| ~
|-----------------|----------------|
|-----------------|----------------|
|---------9---7---|---------7---9--|
|-9---------------|-9--------------|
|-----------------|----------------|
|-----------------|----------------|


    PM--|   PM|      PM----|        PM-------|
|------------------|-------------------------|
|------------------|-------------------------|
|------------------|------------4------------|
|-7-------7------7-|------------4---4--4-4---|
|-7-7-7-7-7-7--7-7-|-7-7-7-7----2---2--2-2---|
|-5-5-5-5-5-5--5-5-|-5-5-5-5-----------------|
|
|------------------|-----------------------|
|------------------|-----------------------|
|---------9--------|-----------------------|
|-7-----------10---|-7---9h==10p==9--------|
|------------------|------------------10---|
|------------------|-----------------------|


     PM--|   PM--|     PM--|   PM--------|
|------------------|---------------------|
|------------------|-----------------o---|
|--5-------5-------|---------------------|
|--5-5-5-5-5-5-5-5-|-5-------5-----------|
|--3-3-3-3-3-3-3-3-|-5-5-5-5-5-5-5-5-o---|
|------------------|-3-3-3-3-3-3-3-3-----|
|
|------------------|------------------||
|------------------|-----------------o||
|----------9---7---|-5---7------------||
|-10---------------|------------------||
|------------------|-----------------o||
|------------------|------------------||


||---------------|-------------|-----------|------|
||o--------------|-------------|-----------|------|
||---9---7-------|-------------|--9--------|-7----|
||-----------10--|-(10)--------|-----------|------|
||o--------------|-------------|-----------|------|
||---------------|-------------|-----------|------|
|
|                    ~~~~
||---------------|-------------|-----------|------|
||o-10---8-------|-------------|-10--------|-8----|
||-----------10--|-(10)--------|-----------|------|
||---------------|-------------|-----------|------|
||o--------------|-------------|-----------|------|
||---------------|-------------|-----------|------|


|--------------|-------------|-----------|------------||
|--------------|-------------|-----------|-----------o||
|--9---7-------|-------------|--9--------|-5----------||
|----------10--|-(10)--------|-----------|------------||
|--------------|-------------|-----------|-----------o||
|--------------|-------------|-----------|------------||
|
|                  ~~~~
|--------------|-------------|-----------|------------||
|-10---8-------|-------------|-10--------|-6----8----o||
|----------10--|-(10)--------|-----------|------------||
|--------------|-------------|-----------|------------||
|--------------|-------------|-----------|-----------o||
|--------------|-------------|-----------|------------||


                           >
|----------|------------|--------|
|----------|------------|--------|
|-7--------|-(7)--------|-(7)----|
|----------|------------|--------|
|-5--------|-(5)--------|-(5)----|
|----------|------------|--------|
|
|                          >
|----------|------------|--------|
|----------|------------|--------|
|----------|------------|--------|
|----------|------------|--------|
|-8--------|-(8)--------|-(8)----|
|----------|------------|--------|


 Interlude
  Gtr I
|--5------5-----|-5--------------|----------5--|
|-------6---6h8-|---6---5--------|-5--3--6-----|
|---------------|-------------2--|-------------|
|---------------|----------------|-------------|
|---------------|----------------|-------------|
|---------------|----------------|-------------|
|
| Gtr II
|---------------|----------------|-------------|
|-(6)-----------|------(5)---(5)-|-------------|
|---------------|----------------|-------------|
|---------------|----------------|-------------|
|---------------|----------------|-------------|
|---------------|----------------|-------------|


|------------5--|-----------------|----------------|
|--5------5-----|--8---6----3-----|---3---5--------|
|-------7-------|---------------2-|----------5-----|
|---------------|-----------------|-------------7--|
|---------------|-----------------|----------------|
|---------------|-----------------|----------------|
|
|---------------|-----------------|----------------|
|-(8)-----------|-(8)-----(10)----|-(10)-----------|
|---------------|-----------------|----------------|
|---------------|-----------------|----------------|
|---------------|-----------------|----------------|
|---------------|-----------------|----------------|


|--5------5------|-5--------------|----------5--|
|-------6---6h8--|---6---5--------|-5--3--6-----|
|----------------|-------------2--|-------------|
|----------------|----------------|-------------|
|----------------|----------------|-------------|
|----------------|----------------|-------------|
|
|----------------|----------------|-------------|
|-(6)------------|------(5)---(5)-|-------------|
|----------------|----------------|-------------|
|----------------|----------------|-------------|
|----------------|----------------|-------------|
|----------------|----------------|-------------|


|------------5--|------------------|------------------|
|--5------5-----|--8---6----3------|---3---5----------|
|-------7-------|----------------2-|----------5-------|
|---------------|------------------|-------------7----|
|---------------|------------------|------------------|
|---------------|------------------|------------------|
|
|---------------|------------------|------------------|
|-(8)-----------|-(8)-----(10)-----|-(10)-------------|
|---------------|------------------|------------------|
|---------------|------------------|------------------|
|---------------|------------------|------------------|
|---------------|------------------|------------------|


||----5------5-----|-5----------------|------------5--|
||o--------6---6h8-|---6---5----------|--5---3--6-----|
||-----------------|---------------2--|---------------|
||-----------------|------------------|---------------|
||o----------------|------------------|---------------|
||-----------------|------------------|---------------|
|
||-----------------|------------------|-----------------|
||o-/10-----------|------------------|------------------|
||-----------------|------/9--(9)-(9)-|-(9)-------------|
||-----------------|------------------|-----------------|
||o----------------|------------------|-----------------|
||-----------------|------------------|-----------------|


|------------5--|----------------|---------------||
|--5------5-----|-8--6---3-------|--3---5-------o||
|-------7-------|-------------2--|---------5-----||
|---------------|----------------|------------7--||
|---------------|----------------|--------------o||
|---------------|----------------|---------------||
|
|---------------|----------------|------------------|
|-/8-----------|----------------|--------------o----|
|---------------|-------/7---(7)-|-(7)--------------|
|---------------|----------------|------------------|
|---------------|----------------|--------------o---|
|---------------|----------------|------------------|


||--5--------5-----|-5-------------|----------5--|
||o-------6----6h8-|---6----5------|-5--3--6-----|
||-----------------|-------------2-|-------------|
||-----------------|---------------|-------------|
||o----------------|---------------|-------------|
||-----------------|---------------|-------------|
|
||-----------------|---------------|-------------|
||o----10---10-6---|-8---6-(6)-----|-5-----------|
||-----------------|-------------2-|-------------|
||-----------------|---------------|-------------|
||o----------------|---------------|-------------|
||-----------------|---------------|-------------|


|-----------5--|-------------|----------------||
|-5------5-----|-8--6--3-----|-3--5----------o||
|------7-------|-----------2-|-------5--------||
|--------------|-------------|----------7-----||
|--------------|-------------|---------------o||
|--------------|-------------|----------------||
|
|--------------|-------------|----------------||
|----8---8--6--|-6-----5-----|-3-------------o||
|--------------|-----------2-|----------------||
|--------------|-------------|----------------||
|--------------|-------------|---------------o||
|--------------|-------------|----------------||


||--5--------5-----|-5------------|----------5--|
||o-------6----6h8-|---6---5------|-5--3--6-----|
||-----------------|------------2-|-------------|
||-----------------|--------------|-------------|
||o----------------|--------------|-------------|
||-----------------|--------------|-------------|
|
|   Gtr IV
||-----------------|--------------|-------------|
||o----10---10---8-|-8---6---6--5-|-5-----------|
||-----------------|--------------|-------------|
||-----------------|--------------|-------------|
||o----------------|--------------|-------------|
||-----------------|--------------|-------------|


|-----------5--|-------------|----------------||
|-5------5-----|-8--6--3-----|-3--5----------o||
|------7-------|-----------2-|-------5--------||
|--------------|-------------|----------7-----||
|--------------|-------------|---------------o||
|--------------|-------------|----------------||
|
|--------------|-------------|----------------||
|----8---8--6--|-6--5--5---3-|-3-------------o||
|--------------|-------------|----------------||
|--------------|-------------|----------------||
|--------------|-------------|---------------o||
|--------------|-------------|----------------||


    Gtr III
||-----------------|---------------|----------------|
||o----------------|---------------|----------------|
||-----------------|---------------|----------------|
||-----------------|---------------|-------------3--|
||o--8---7--8--5h7-|--7------5---2-|-3--(3)---2-----|
||-----------------|---------------|----------------|
|
||-----------------|---------------|----------------|
||o-10---8-10--6h8-|-10------------|----------------|
||-----------------|-----10--9---7h|=9-------10--9--|
||-----------------|---------------|-----7----------|
||o----------------|---------------|----------------|
||-----------------|---------------|----------------|


                                  1.
|----------------|---------------|------------------||
|----------------|---------------|-----------------o||
|----------------|---------------|------------------||
|----------------|---------------|-------------3----||
|--8---7--8--5h7-|--7------5---2-|-3--(3)---2------o||
|----------------|---------------|------------------||
|
|----------------|---------------|------------------||
|-10---8-10--6h8-|-10------8---6h|=8--10-----------o||
|----------------|-----10--------|---------10--9----||
|----------------|---------------|------------------||
|----------------|---------------|-----------------o||
|----------------|---------------|------------------||


  2.
|----------------|---------------|--------------|
|----------------|---------------|--------------|
|----------------|---------------|--------------|
|-------------3--|-(3)-----------|--------------|
|-3--(3)---2-----|---------5-----|-(5)----7-----|
|----------------|---------------|--------------|
|
|----------------|---------------|--------------|
|-8--11---10--8--|---------------|--------------|
|----------------|-10----9-7-----|--------9---7-|
|----------------|------------7--|-(7)----------|
|----------------|---------------|--------------|
|----------------|---------------|--------------|


|---------------|--------------|---------------|
|---------------|--------------|---------------|
|---------------|--------------|---------------|
|---------7-----|--------------|---------------|
|-7-------------|-7------8-----|-(8)-----------|
|---------------|--------------|---------------|
|
|---------------|--------------|---------------|
|----10---------|--------------|--------8---6--|
|-9------10--9--|-7--9--10p=9--|--7------------|
|---------------|--------------|---------------|
|---------------|--------------|---------------|
|---------------|--------------|---------------|


|----------------|---------------|--------------|
|----------------|---------------|--------------|
|----------------|---------------|--------------|
|-------------3--|-(3)-----------|--------------|
|-3--(3)---2-----|---------5-----|-(5)----7-----|
|----------------|---------------|--------------|
|
|----------------|---------------|--------------|
|-8--11---10--8--|---------------|--------------|
|----------------|-10----9-7-----|--------9---7-|
|----------------|------------7--|-(7)----------|
|----------------|---------------|--------------|
|----------------|---------------|--------------|


                                 >
|---------------|--------------|------|
|---------------|--------------|------|
|---------------|--------------|------|
|---------7-----|--------------|------|
|-7-------------|-7------8-----|-8----|
|---------------|--------------|------|
|
|                                >
|---------------|--------------|------|
|----10---------|--------------|------|
|-9------10--9--|-7--9--10p=9--|-7----|
|---------------|--------------|------|
|---------------|--------------|------|
|---------------|--------------|------|


        PM     PM--|      PM       PM          PM--|     PM|
||-------------------|-------------------|-------------------|
||o------------------|-------------------|-------------------|
||-------------------|-------------------|-------------------|
||---7-------7-------|--7------7-----7---|-(7)--------7------|
||o--5--5----5-5-5-5-|--5-5--5-7---7-7---|-(7)-7-7-7--7--7-7-|
||---5--5----5-5-5-5-|--5-5--5-5---5-5---|-(5)-5-5-5--5--5-5-|
|
||-------------------|-------------------|-------------------|
||o-10----8-10---6h8-|-10----------------|-------------------|
||-------------------|------10---9-----7h|==9--------10--9---|
||-------------------|-------------------|-------7-----------|
||o------------------|-------------------|-------------------|
||-------------------|-------------------|-------------------|


                    1.
      PM     PM  PM     PM|      PM            PM--|      PM|
|------------------|-------------------|--------------------------||
|------------------|-------------------|-------------------------o||
|------------------|---------5-----5---|-(5)----------5-----------||
|--3-------3-------|--3------5---5-5---|-(5)---5-5--5-5---5-5-----||
|--3--3----3-3-3-3-|--3-3--3-3---3-3---|-(3)---3-3--3-3---3-3----o||
|--1--1----1-1-1-1-|--1-1--1-----------|--------------------------||
|
|------------------|-------------------|--------------------------||
|-10----8-10---6h8-|-10--------8-----6h|==8---10-----------------o||
|------------------|------10-----------|-----------10---9---------||
|------------------|-------------------|--------------------------||
|------------------|-------------------|-------------------------o||
|------------------|-------------------|--------------------------||


  2.
       PM|    PM        PM---|     PM|
|-----------------|--------------------|
|-----------------|--------------------|
|-----------------|--------------------|
|--3-------5----5-|-(5)---------5------|
|--3---3-3-5--5-5-|-(5)-5--5-5--5--5-5-|
|--1---1-1-3--3-3-|-(3)-3--3-3--3--3-3-|
|
|-----------------|--------------------|
|-10-------8----6h|==8----11---10--8---|
|-----10----------|--------------------|
|-----------------|--------------------|
|-----------------|--------------------|
|-----------------|--------------------|


        PM     PM--|        PM     PM        PM--|     PM|
||-------------------|-----------------|-------------------|
||o------------------|-----------------|-------------------|
||-------------------|-----------------|-------------------|
||---7----7----------|--7-------7----7-|-(7)--------7------|
||o--5--5-5----5-5-5-|--5---5-5-7--7-7-|-(7)-7-7-7--7--7-7-|
||---5--5-5----5-5-5-|--5---5-5-5--5-5-|-(5)-5-5-5--5--5-5-|
|
||-------------------|-----------------|-------------------|
||o-10----8-10---6h8-|-10--------------|-------------------|
||-------------------|-----10---9----7h|==9--------10--9---|
||-------------------|-----------------|-------7-----------|
||o------------------|-----------------|-------------------|
||-------------------|-----------------|-------------------|


                    1.
      PM     PM  PM       PM|    PM        PM---|     PM|
|------------------|-----------------|----------------------||
|------------------|-----------------|---------------------o||
|------------------|----------5----5-|-(5)---------5--------||
|--3----3----------|--3-------5--5-5-|-(5)-5--5-5--5--5-5---||
|--3--3-3----3-3-3-|--3---3-3-3--3-3-|-(3)-3--3-3--3--3-3--o||
|--1--1-1----1-1-1-|--1---1-1--------|----------------------||
|
|------------------|-----------------|----------------------||
|-10----8-10---6h8-|-10-------8----6h|==8----10------------o||
|------------------|-----10----------|------------10--9-----||
|------------------|-----------------|----------------------||
|------------------|-----------------|---------------------o||
|------------------|-----------------|----------------------||


  2.
|---------------|-----------------|--------------|--------------|
|---------------|-----------------|--------------|--------------|
|---------------|-----------------|--------------|--------5-----|
|--5------------|-(5)-------------|--7-----------|-(7)----5-----|
|--5------------|-(5)-------------|--5-----------|-(5)----3-----|
|--3------------|-(3)-------------|--5-----------|-(5)----------|
|
|---------------|-----------------|--------------|--------------|
|-10------8---6h|==8---11--10--8--|--------------|--------------|
|-----10--------|-----------------|-10---9-7-----|--------9---7-|
|---------------|-----------------|-----------7--|-(7)----------|
|---------------|-----------------|--------------|--------------|
|---------------|-----------------|--------------|--------------|


|-----------------|---------------|-----------------|
|-----------------|---------------|-----------------|
|-(5)-------------|---3-----------|-(3)-------------|
|-(5)-------------|---3-----------|-(3)----5--------|
|-(3)-------------|---1-----------|-(1)----5--------|
|-----------------|---------------|--------3--------|
|
|-----------------|---------------|-----------------|
|------10---------|---------------|--------8---6----|
|--9-------10--9--|-7---9--10p=9--|--7--------------|
|-----------------|---------------|-----------------|
|-----------------|---------------|-----------------|
|-----------------|---------------|-----------------|


|-----------------|--------------|--------------|
|-----------------|--------------|--------------|
|-----------------|--------------|--------5-----|
|-(5)-------------|--7-----------|-(7)----5-----|
|-(5)-------------|--5-----------|-(5)----3-----|
|-(3)-------------|--5-----------|-(5)----------|
|
|-----------------|--------------|--------------|
|--8---11--10--8--|--------------|--------------|
|-----------------|-10---9-7-----|--------9---7-|
|-----------------|-----------7--|-(7)----------|
|-----------------|--------------|--------------|
|-----------------|--------------|--------------|


                                   2/4
|-----------------|--------------||--------|
|-----------------|--------------||--------|
|-(5)-------------|-3------------||-(3)----|
|-(5)-------------|-3------------||-(3)----|
|-(3)-------------|-1------------||-(1)----|
|-----------------|--------------||--------|
|
|                                    >
|-----------------|--------------||--------|
|------10---------|--------------||--------|
|--9-------10--9--|-7--9--10p=9--||--7-----|
|-----------------|--------------||--------|
|-----------------|--------------||--------|
|-----------------|--------------||--------|


 3/4
   ~~~~~~~~~~~~~~~~~~~~~~~~~~~~~~~~~~~
|-------|---------|---------|----------|--------|---------|--------|----------|
|-8-----|-(8)-----|-(8)-----|----(8)---|--------|---------|--------|----------|
|-------|---------|---------|----------|--------|---------|--------|----------|
|-------|---------|---------|----------|--7-----|-(7)-----|--3-----|-(3)------|
|-------|---------|---------|----------|--5-----|-(5)-----|--3-----|-(3)------|
|-------|---------|---------|----------|--5-----|-(5)-----|--1-----|-(1)------|
|
|-------|---------|---------|----------|--------|---------|--------|----------|
|-------|---------|---------|----------|--------|---------|--------|----------|
|-------|---------|---------|----------|--------|---------|--------|----------|
|-5-----|-(5)-----|-(5)-----|----(5)---|--7-----|-(7)-----|--3-----|-(3)------|
|-5-----|-(5)-----|-(5)-----|----(5)---|--5-----|-(5)-----|--3-----|-(3)------|
|-3-----|-(3)-----|-(3)-----|----(3)---|--5-----|-(5)-----|--1-----|-(1)------|
|
| Gtr V
|-------|---------|---------|----------|--------|---------|--------|----------|
|11-----|-11------|-11------|-11-10--8-|-10-----|-10------|-10-----|-10-------|
|---7---|-----7---|-----7---|----------|----7---|-----7---|----7---|-----7----|
|-----8-|-------8-|-------8-|----------|------7-|-------7-|------7-|-------7--|
|-------|---------|---------|----------|--------|---------|--------|----------|
|-------|---------|---------|----------|--------|---------|--------|----------|


|-------------|--------------|--------------|--------------|
|-------------|--------------|--------------|--------------|
|--5----------|-(5)----------|-(5)----------|-(5)----------|
|--5----------|-(5)----------|-(5)----------|-(5)----------|
|--3----------|-(3)----------|-(3)----------|-(3)----------|
|-------------|--------------|--------------|--------------|
|
|-------------|--------------|--------------|--------------|
|-------------|--------------|--------------|--------------|
|--5----------|-(5)----------|-(5)----------|-(5)----------|
|--5----------|-(5)----------|-(5)----------|-(5)----------|
|--3----------|-(3)----------|-(3)----------|-(3)----------|
|-------------|--------------|--------------|--------------|
|
|-------------|--------------|--------------|--------------|
|-13----------|-13-----------|-13-----------|-13---11--10--|
|-----12------|------12------|------12------|--------------|
|---------10--|----------10--|----------10--|--------------|
|-------------|--------------|--------------|--------------|
|-------------|--------------|--------------|--------------|


|-----------|------------|-----------|------------|
|-----------|------------|-----------|------------|
|-----------|------------|-----------|------------|
|--5--------|-(5)--------|--8--------|-(8)--------|
|--5--------|-(5)--------|--8--------|-(8)--------|
|--3--------|-(3)--------|--6--------|-(6)--------|
|
|-----------|------------|-----------|------------|
|-----------|------------|-----------|------------|
|-----------|------------|-----------|------------|
|--5--------|-(5)--------|--8--------|-(8)--------|
|--5--------|-(5)--------|--8--------|-(8)--------|
|--3--------|-(3)--------|--6--------|-(6)--------|
|
|-----------|------------|-----------|------------|
|-11--------|-11---------|-11--------|-11------10-|
|-----7-----|------7-----|-----7-----|------7-----|
|--------8--|---------8--|--------8--|------------|
|-----------|------------|-----------|------------|
|-----------|------------|-----------|------------|


                                             PM-|
|-----------|-------------|-------------|-----------|
|-----------|-------------|-------------|-----------|
|-5---------|-(5)---------|-(5)---------|-----------|
|-5---------|-(5)---------|-(5)---------|-7---------|
|-3---------|-(3)---------|-(3)---------|-5--5---5--|
|-----------|-------------|-------------|-5--5---5--|
|
|                                            PM-|
|-----------|-------------|-------------|-----------|
|-----------|-------------|-------------|-----------|
|-5---------|-(5)---------|-(5)---------|-----------|
|-5---------|-(5)---------|-(5)---------|-7---------|
|-3---------|-(3)---------|-(3)---------|-5--5---5--|
|-----------|-------------|-------------|-5--5---5--|
|
|-----------|-------------|-------------|-----------|
|-8---------|--8----------|--8----------|-8-----10--|
|----8------|------8------|------8------|----8------|
|-------10--|---------10--|---------10--|-----------|
|-----------|-------------|-------------|-----------|
|-----------|-------------|-------------|-----------|


|-----------|------------|------------|-----------|
|-----------|------------|------------|-----------|
|-----------|------------|------------|-----------|
|--5--------|-(5)--------|-(5)--------|--8--------|
|--5--------|-(5)--------|-(5)--------|--6--------|
|--3--------|-(3)--------|-(3)--------|--6--------|
|
|-----------|------------|------------|-----------|
|-----------|------------|------------|-----------|
|-----------|------------|------------|-----------|
|--5--------|-(5)--------|-(5)--------|--8--------|
|--5--------|-(5)--------|-(5)--------|--6--------|
|--3--------|-(3)--------|-(3)--------|--6--------|
|
|-----------|------------|------------|-----------|
|-11--------|-11---------|-11---------|-11--10--8-|
|-----7-----|------7-----|------7-----|-----------|
|--------8--|---------8--|---------8--|-----------|
|-----------|------------|------------|-----------|
|-----------|------------|------------|-----------|


|-----------|------------|-----------|-------------|-------------------|
|-----------|------------|-----------|-------------|-------------------|
|-----------|------------|-----------|--3----------|-------------------|
|--7--------|-(7)--------|--3--------|--3----------|-5-(5)-5-(5)-5-(5)-|
|--5--------|-(5)--------|--3--------|--1----------|-5-(5)-5-(5)-5-(5)-|
|--5--------|-(5)--------|--1--------|-------------|-3-(3)-3-(3)-3-(3)-|
|
|-----------|------------|-----------|-------------|-------------------|
|-----------|------------|-----------|-------------|-------------------|
|-----------|------------|-----------|--3----------|-------------------|
|--7--------|-(7)--------|--3--------|--3----------|-5-(5)-5-(5)-5-(5)-|
|--5--------|-(5)--------|--3--------|--1----------|-5-(5)-5-(5)-5-(5)-|
|--5--------|-(5)--------|--1--------|-------------|-3-(3)-3-(3)-3-(3)-|
|
|-----------|------------|-----------|-------------|-------------------|
|-10--------|-10---------|-10--------|-10--11--10--|-8-----------------|
|-----7-----|------7-----|-----7-----|-------------|-------7-----------|
|--------7--|---------7--|--------7--|-------------|-------------8-----|
|-----------|------------|-----------|-------------|-------------------|
|-----------|------------|-----------|-------------|-------------------|


                                             PM----|
|-------------------|-------------------|---------------|
|-------------------|-------------------|---------------|
|-------------------|-------------------|---------------|
|-5-(5)-5-(5)-5-(5)-|-5-(5)-5-(5)-5-(5)-|-7-------------|
|-5-(5)-5-(5)-5-(5)-|-5-(5)-5-(5)-5-(5)-|-5--5-5-5-5----|
|-3-(3)-3-(3)-3-(3)-|-3-(3)-3-(3)-3-(3)-|-5--5-5-5-5----|
|
|                                            PM----|
|-------------------|-------------------|---------------|
|-------------------|-------------------|---------------|
|-------------------|-------------------|---------------|
|-5-(5)-5-(5)-5-(5)-|-5-(5)-5-(5)-5-(5)-|-7-------------|
|-5-(5)-5-(5)-5-(5)-|-5-(5)-5-(5)-5-(5)-|-5--5-5-5-5----|
|-3-(3)-3-(3)-3-(3)-|-3-(3)-3-(3)-3-(3)-|-5--5-5-5-5----|
|
|-------------------|-------------------|---------------|
|-8-----------------|-8-----------8-----|-6-------------|
|-------7-----------|-------7-----------|----7---5------|
|-------------8-----|-------------------|---------------|
|-------------------|-------------------|---------------|
|-------------------|-------------------|---------------|


|----------------|-------------------|--------------------|-------------------|
|----------------|-------------------|--------------------|-------------------|
|----------------|-------------------|--------------------|-------------------|
|5-(5)-5-(5)-5(5)|-5-(5)-5-(5)-5-(5)-|--5-(5)-5-(5)-5-(5)-|-5-(5)--5-(5)-5-(5)|
|5-(5)-5-(5)-5(5)|-5-(5)-5-(5)-5-(5)-|--5-(5)-5-(5)-5-(5)-|-5-(5)--5-(5)-5-(5)|
|3-(3)-3-(3)-3(3)|-3-(3)-3-(3)-3-(3)-|--3-(3)-3-(3)-3-(3)-|-3-(3)--3-(3)-3-(3)|
|
|----------------|-------------------|--------------------|-------------------|
|----------------|-------------------|--------------------|-------------------|
|----------------|-------------------|--------------------|-------------------|
|5-(5)-5-(5)-5(5)|-5-(5)-5-(5)-5-(5)-|--5-(5)-5-(5)-5-(5)-|-5-(5)--5-(5)-5-(5)|
|5-(5)-5-(5)-5(5)|-5-(5)-5-(5)-5-(5)-|--5-(5)-5-(5)-5-(5)-|-5-(5)--5-(5)-5-(5)|
|3-(3)-3-(3)-3(3)|-3-(3)-3-(3)-3-(3)-|--3-(3)-3-(3)-3-(3)-|-3-(3)--3-(3)-3-(3)|
|
|----------------|-------------------|--------------------|-------------------|
|-11-------------|-11----------------|-11-----------------|-11-----10-----8---|
|------7---------|--------7----------|--------7-----------|-------------------|
|------------8---|-------------8-----|--------------8-----|-------------------|
|----------------|-------------------|--------------------|-------------------|
|----------------|-------------------|--------------------|-------------------|


|----------------|------------------|-------------------|---------------------|
|----------------|------------------|-------------------|---------------------|
|----------------|------------------|-------------------|---------------------|
|7-(7)-7-(7)-7(7)|7-(7)-7-(7)-7-(7)-|-3-(3)-3-(3)-3-(3)-|--3-(3)-3-(3)-3-(3)--|
|5-(5)-5-(5)-5(5)|5-(5)-5-(5)-5-(5)-|-3-(3)-3-(3)-3-(3)-|--3-(3)-3-(3)-3-(3)--|
|5-(5)-5-(5)-5(5)|5-(5)-5-(5)-5-(5)-|-1-(1)-1-(1)-1-(1)-|--1-(1)-1-(1)-1-(1)--|
|
|------------------|----------------|-------------------|---------------------|
|------------------|----------------|-------------------|---------------------|
|------------------|----------------|-------------------|---------------------|
|7-(7)-7-(7)-7-(7)-|7-(7)-7-(7)-7(7)|-3-(3)-3-(3)-3-(3)-|--3-(3)-3-(3)-3-(3)--|
|5-(5)-5-(5)-5-(5)-|5-(5)-5-(5)-5(5)|-3-(3)-3-(3)-3-(3)-|--3-(3)-3-(3)-3-(3)--|
|5-(5)-5-(5)-5-(5)-|5-(5)-5-(5)-5(5)|-1-(1)-1-(1)-1-(1)-|--1-(1)-1-(1)-1-(1)--|
|
|------------------|----------------|-------------------|---------------------|
|-10---------------|-10-------------|-10----------------|-10------------------|
|------7-----------|------7---------|------7------------|--------7------------|
|------------7-----|------------7---|------------7------|--------------7------|
|------------------|----------------|-------------------|---------------------|
|------------------|----------------|-------------------|---------------------|


|--------------------|------------------|--------------------|----------------|
|--------------------|------------------|--------------------|----------------|
|-5-(5)-5-(5)--5-(5)-|5-(5)5-(5)--5-(5)-|-5-(5)-5-(5)--5-(5)-|5-(5)-5-(5)5-(5)|
|-5-(5)-5-(5)--5-(5)-|5-(5)5-(5)--5-(5)-|-5-(5)-5-(5)--5-(5)-|5-(5)-5-(5)5-(5)|
|-3-(3)-3-(3)--3-(3)-|3-(3)3-(3)--3-(3)-|-3-(3)-3-(3)--3-(3)-|3-(3)-3-(3)3-(3)|
|--------------------|------------------|--------------------|----------------|
|
|--------------------|------------------|--------------------|----------------|
|--------------------|------------------|--------------------|----------------|
|-5-(5)-5-(5)--5-(5)-|5-(5)--5-(5)5-(5)-|-5-(5)-5-(5)--5-(5)-|5-(5)-5-(5)5-(5)|
|-5-(5)-5-(5)--5-(5)-|5-(5)--5-(5)5-(5)-|-5-(5)-5-(5)--5-(5)-|5-(5)-5-(5)5-(5)|
|-3-(3)-3-(3)--3-(3)-|3-(3)--3-(3)3-(3)-|-3-(3)-3-(3)--3-(3)-|3-(3)-3-(3)3-(3)|
|--------------------|------------------|--------------------|----------------|
|
|--------------------|------------------|--------------------|----------------|
|-13-----------------|-13---------------|-13-----------------|-13---11----10--|
|--------12----------|--------12--------|------12------------|----------------|
|-------------10-----|-------------10---|-------------10-----|----------------|
|--------------------|------------------|--------------------|----------------|
|--------------------|------------------|--------------------|----------------|


|------------------|----------------|--------------------|--------------------|
|------------------|----------------|--------------------|--------------------|
|------------------|----------------|--------------------|--------------------|
|5-(5)-5-(5)-5-(5)-|5-(5)-5-(5)-5(5)|--8-(8)-8-(8)-8-(8)-|-8-(8)-8-(8)--8-(8)-|
|5-(5)-5-(5)-5-(5)-|5-(5)-5-(5)-5(5)|--8-(8)-8-(8)-8-(8)-|-8-(8)-8-(8)--8-(8)-|
|3-(3)-3-(3)-3-(3)-|3-(3)-3-(3)-3(3)|--6-(6)-6-(6)-6-(6)-|-6-(6)-6-(6)--6-(6)-|
|
|------------------|----------------|--------------------|--------------------|
|------------------|----------------|--------------------|--------------------|
|------------------|----------------|--------------------|--------------------|
|5-(5)-5-(5)-5-(5)-|5-(5)-5-(5)-5(5)|--8-(8)-8-(8)-8-(8)-|-8-(8)-8-(8)--8-(8)-|
|5-(5)-5-(5)-5-(5)-|5-(5)-5-(5)-5(5)|--8-(8)-8-(8)-8-(8)-|-8-(8)-8-(8)--8-(8)-|
|3-(3)-3-(3)-3-(3)-|3-(3)-3-(3)-3(3)|--6-(6)-6-(6)-6-(6)-|-6-(6)-6-(6)--6-(6)-|
|
|------------------|----------------|--------------------|--------------------|
|-11---------------|-11-------------|-11-----------------|-11---------10------|
|------7-----------|------7---------|--------7-----------|------7-------------|
|------------8-----|------------8---|--------------8-----|--------------------|
|------------------|----------------|--------------------|--------------------|
|------------------|----------------|--------------------|--------------------|


|------------------|------------------|--------------------|------------------|
|------------------|------------------|--------------------|------------------|
|-5-(5)-5-(5)5-(5)-|-5-(5)-5-(5)-5-(5)|-5-(5)-5-(5)--5-(5)-|------------------|
|-5-(5)-5-(5)5-(5)-|-5-(5)-5-(5)-5-(5)|-5-(5)-5-(5)--5-(5)-|-7-(7)-7-(7)-7-(7)|
|-3-(3)-3-(3)3-(3)-|-3-(3)-3-(3)-3-(3)|-3-(3)-3-(3)--3-(3)-|-5-(5)-5-(5)-5-(5)|
|------------------|------------------|--------------------|-5-(5)-5-(5)-5-(5)|
|
|------------------|------------------|--------------------|------------------|
|------------------|------------------|--------------------|------------------|
|-5-(5)-5-(5)5-(5)-|-5-(5)-5-(5)-5-(5)|-5-(5)-5-(5)--5-(5)-|------------------|
|-5-(5)-5-(5)5-(5)-|-5-(5)-5-(5)-5-(5)|-5-(5)-5-(5)--5-(5)-|-7-(7)-7-(7)-7-(7)|
|-3-(3)-3-(3)3-(3)-|-3-(3)-3-(3)-3-(3)|-3-(3)-3-(3)--3-(3)-|-5-(5)-5-(5)-5-(5)|
|------------------|------------------|--------------------|-5-(5)-5-(5)-5-(5)|
|
|------------------|------------------|--------------------|------------------|
|-8----------------|-8----------------|-8------------------|-8----------10----|
|-------8----------|-------8----------|-------8------------|-------8----------|
|-----------10-----|-------------10---|-------------10-----|------------------|
|------------------|------------------|--------------------|------------------|
|------------------|------------------|--------------------|------------------|

|--------------------|------------------|-------------------|-----------------|
|--------------------|------------------|-------------------|-----------------|
|--------------------|------------------|-------------------|-----------------|
|--5-(5)-5-(5)-5-(5)-|--5-(5)-5-(5)-5(5)|-5-(5)-5-(5)-5-(5)-|8-(8)-8-(8)8-(8)-|
|--5-(5)-5-(5)-5-(5)-|--5-(5)-5-(5)-5(5)|-5-(5)-5-(5)-5-(5)-|8-(8)-8-(8)8-(8)-|
|--3-(3)-3-(3)-3-(3)-|--3-(3)-3-(3)-3(3)|-3-(3)-3-(3)-3-(3)-|6-(6)-6-(6)6-(6)-|
|
|--------------------|------------------|-------------------|-----------------|
|--------------------|------------------|-------------------|-----------------|
|--------------------|------------------|-------------------|-----------------|
|--5-(5)-5-(5)-5-(5)-|--5-(5)-5-(5)-5(5)|-5-(5)-5-(5)-5-(5)-|8-(8)-8-(8)8-(8)-|
|--5-(5)-5-(5)-5-(5)-|--5-(5)-5-(5)-5(5)|-5-(5)-5-(5)-5-(5)-|8-(8)-8-(8)8-(8)-|
|--3-(3)-3-(3)-3-(3)-|--3-(3)-3-(3)-3(3)|-3-(3)-3-(3)-3-(3)-|6-(6)-6-(6)6-(6)-|
|
|--------------------|------------------|-------------------|-----------------|
|-11-----------------|-11---------------|-11----------------|-11-----10----8--|
|--------7-----------|--------7---------|--------7----------|-----------------|
|--------------8-----|--------------8---|--------------8----|-----------------|
|--------------------|------------------|-------------------|-----------------|
|--------------------|------------------|-------------------|-----------------|


|-----------------|------------------|--------------------|-------------------|
|-----------------|------------------|--------------------|-------------------|
|-----------------|------------------|--------------------|-3-(3)-3-(3)--3-(3)|
|-7(7)-7(7)-7-(7)-|--7-(7)-7-(7)-7(7)|--3-(3)-3-(3)-3-(3)-|-3-(3)-3-(3)--3-(3)|
|-5(5)-5(5)-5-(5)-|--5-(5)-5-(5)-5(5)|--3-(3)-3-(3)-3-(3)-|-1-(1)-1-(1)--1-(1)|
|-5(5)-5(5)-5-(5)-|--5-(5)-5-(5)-5(5)|--1-(1)-1-(1)-1-(1)-|-------------------|
|
|-----------------|------------------|--------------------|-------------------|
|-----------------|------------------|--------------------|-------------------|
|-----------------|------------------|--------------------|-3-(3)--3-(3)-3-(3)|
|-7(7)-7(7)-7-(7)-|--7-(7)-7-(7)-7(7)|--3-(3)-3-(3)-3-(3)-|-3-(3)--3-(3)-3-(3)|
|-5(5)-5(5)-5-(5)-|--5-(5)-5-(5)-5(5)|--3-(3)-3-(3)-3-(3)-|-1-(1)--1-(1)-1-(1)|
|-5(5)-5(5)-5-(5)-|--5-(5)-5-(5)-5(5)|--1-(1)-1-(1)-1-(1)-|-------------------|
|
|-----------------|------------------|--------------------|-------------------|
|-10--------------|-10---------------|-10-----------------|-10-----11----10---|
|------7----------|--------7---------|--------7-----------|-------------------|
|------------7----|--------------7---|--------------7-----|-------------------|
|-----------------|------------------|--------------------|-------------------|
|-----------------|------------------|--------------------|-------------------|


                                                                 PM----|
|-------------------|-------------------|-------------------|--------------|
|-------------------|-------------------|-------------------|--------------|
|-------------------|-------------------|-------------------|--------------|
|-5-(5)-5-(5)-5-(5)-|-5-(5)-5-(5)-5-(5)-|-5-(5)-5-(5)-5-(5)-|-7------------|
|-5-(5)-5-(5)-5-(5)-|-5-(5)-5-(5)-5-(5)-|-5-(5)-5-(5)-5-(5)-|-5--5-5-5-5---|
|-3-(3)-3-(3)-3-(3)-|-3-(3)-3-(3)-3-(3)-|-3-(3)-3-(3)-3-(3)-|-5--5-5-5-5---|
|
|-------------------|-------------------|-------------------|--------------|
|-------------------|-------------------|-------------------|--------------|
|-------------------|-------------------|-------------------|--------------|
|-5-(5)-5-(5)-5-(5)-|-5-(5)-5-(5)-5-(5)-|-------------------|--------------|
|-5-(5)-5-(5)-5-(5)-|-5-(5)-5-(5)-5-(5)-|-------------------|--------------|
|-3-(3)-3-(3)-3-(3)-|-3-(3)-3-(3)-3-(3)-|-------------------|--------------|
|
|-------------------|-------------------|-------------------|--------------|
|-8-----------------|-8-----------------|-8-----------8-----|-6------------|
|-------7-----------|-------7-----------|-------7-----------|----7---5-----|
|-------------8-----|-------------8-----|-------------------|--------------|
|-------------------|-------------------|-------------------|--------------|
|-------------------|-------------------|-------------------|--------------|


|------------------|-------------------|--------------------|------------------|
|------------------|-------------------|--------------------|------------------|
|------------------|-------------------|--------------------|------------------|
|5-(5)-5-(5)-5-(5)-|-5--(5)-5-(5)-5-(5)|-5--(5)-5-(5)-5-(5)-|5-(5)--5-(5)-5-(5)|
|5-(5)-5-(5)-5-(5)-|-5--(5)-5-(5)-5-(5)|-5--(5)-5-(5)-5-(5)-|5-(5)--5-(5)-5-(5)|
|3-(3)-3-(3)-3-(3)-|-3--(3)-3-(3)-3-(3)|-3--(3)-3-(3)-3-(3)-|3-(3)--3-(3)-3-(3)|
|
|-10---------------|-(10)--------------|-(10)---------------|-10----8----------|
|-11---------------|-(11)--------------|-(11)---------------|-11---10----11----|
|------------------|-------------------|--------------------|------------12----|
|------------------|-------------------|--------------------|------------------|
|------------------|-------------------|--------------------|------------------|
|------------------|-------------------|--------------------|------------------|
|
|------------------|-------------------|--------------------|------------------|
|-11---------------|--11---------------|--11----------------|-11---10-----8----|
|--------7---------|--------7----------|---------7----------|------------------|
|------------8-----|--------------8----|--------------8-----|------------------|
|------------------|-------------------|--------------------|------------------|
|------------------|-------------------|--------------------|------------------|


|------------------|-------------------|-------------------|-------------------|
|------------------|-------------------|-------------------|-------------------|
|------------------|-------------------|-------------------|-------------------|
|7-(7)-7-(7)-7-(7)-|-7--(7)-7-(7)-7-(7)|-3-(3)-3-(3)-3-(3)-|-3-(3)-3-(3)-3-(3)-|
|5-(5)-5-(5)-5-(5)-|-5--(5)-5-(5)-5-(5)|-3-(3)-3-(3)-3-(3)-|-3-(3)-3-(3)-3-(3)-|
|5-(5)-5-(5)-5-(5)-|-5--(5)-5-(5)-5-(5)|-1-(1)-1-(1)-1-(1)-|-1-(1)-1-(1)-1-(1)-|
|
|------------------|-------------------|-------------------|-------------------|
|-13---------------|-(13)--------------|-------------------|-------------------|
|-14---------------|-(14)-------12-----|-10----------------|-(10)------12------|
|------------------|------------13-----|-12----------------|-(12)------12------|
|------------------|-------------------|-------------------|-------------------|
|------------------|-------------------|-------------------|-------------------|
|
|------------------|-------------------|-------------------|-------------------|
|-10---------------|--10---------------|-10----------------|--10---------------|
|--------7---------|----------7--------|--------7----------|--------7----------|
|--------------7---|----------------7--|--------------7----|-------------7-----|
|------------------|-------------------|-------------------|-------------------|
|------------------|-------------------|-------------------|-------------------|


|-------------------|------------------|------------------|-------------------|
|-------------------|------------------|------------------|-------------------|
|-5-(5)-5-(5)-5-(5)-|--5-(5)-5-(5)-5(5)|5-(5)-5-(5)-5-(5)-|-5-(5)-5-(5)--5-(5)|
|-5-(5)-5-(5)-5-(5)-|--5-(5)-5-(5)-5(5)|5-(5)-5-(5)-5-(5)-|-5-(5)-5-(5)--5-(5)|
|-3-(3)-3-(3)-3-(3)-|--3-(3)-3-(3)-3(3)|3-(3)-3-(3)-3-(3)-|-3-(3)-3-(3)--3-(3)|
|-------------------|------------------|------------------|-------------------|
|
|-11----------------|-11---------------|-11---------------|----11----10-----8-|
|-13----------------|--8---------------|-13---------------|----13----11----10-|
|-------------------|------------------|------------------|-------------------|
|-------------------|------------------|------------------|-------------------|
|-------------------|------------------|------------------|-------------------|
|-------------------|------------------|------------------|-------------------|
|
|-------------------|------------------|------------------|-------------------|
|-13----------------|-13---------------|13----------------|-13-----11---10----|
|--------12---------|--------12--------|-------12---------|-------------------|
|---------------10--|---------------10-|--------------10--|-------------------|
|-------------------|------------------|------------------|-------------------|
|-------------------|------------------|------------------|-------------------|


|-----------------|-------------------|-------------------|-------------------|
|-----------------|-------------------|-------------------|-------------------|
|-----------------|-------------------|-------------------|-------------------|
|5-(5)-5-(5)-5-(5)|--5--(5)-5-(5)-5(5)|-8-(8)-8-(8)-8-(8)-|-8-(8)-8-(8)-8-(8)-|
|5-(5)-5-(5)-5-(5)|--5--(5)-5-(5)-5(5)|-8-(8)-8-(8)-8-(8)-|-8-(8)-8-(8)-8-(8)-|
|3-(3)-3-(3)-3-(3)|--3--(3)-3-(3)-3(3)|-6-(6)-6-(6)-6-(6)-|-6-(6)-6-(6)-6-(6)-|
|
|-10--------------|(10)---------------|-------------------|-10----------------|
|-11--------------|(11)---------------|11-----------------|-11----------------|
|-----------------|-------------------|10-----------------|-------------------|
|-----------------|-------------------|-------------------|-------------------|
|-----------------|-------------------|-------------------|-------------------|
|-----------------|-------------------|-------------------|-------------------|
|
|-----------------|-------------------|-------------------|-------------------|
|-11--------------|-11----------------|11-----------------|-11----------10----|
|------7----------|---------7---------|-------7-----------|--------7----------|
|-----------8-----|---------------8---|-------------8-----|-------------------|
|-----------------|-------------------|-------------------|-------------------|
|-----------------|-------------------|-------------------|-------------------|


    PM-------|       PM-------|       PM-------|     PM-----------|
|--------------|----------------|----------------|----------------|
|--------------|----------------|----------------|----------------|
|-5------------|--5-------------|--5-------------|----------------|
|-5-5-5-5--5-5-|--5--5-5-5--5-5-|--5--5-5-5--5-5-|-7--------------|
|-3-3-3-3--3-3-|--3--3-3-3--3-3-|--3--3-3-3--3-3-|-5-5-5-5--5-5---|
|--------------|----------------|----------------|-5-5-5-5--5-5---|
|
|-6------------|-(6)------------|-(6)------------|-6--------8---|
|-8------------|-(8)------------|-(8)------------|-8-------10---|
|--------------|----------------|----------------|--------------|
|--------------|----------------|----------------|--------------|
|--------------|----------------|----------------|--------------|
|--------------|----------------|----------------|--------------|
|
|--------------|----------------|----------------|--------------|
|-8------------|--8-------------|--8-------------|-8-------10---|
|-----8--------|-------8--------|-------8--------|-----8--------|
|---------10---|-----------10---|-----------10---|--------------|
|--------------|----------------|----------------|--------------|
|--------------|----------------|----------------|--------------|


     PM------|        PM-------|      PM------|      PM--------------|
|--------------|-----------------|--------------|--------------------|
|--------------|-----------------|--------------|--------------------|
|--------------|-----------------|--------------|--------------------|
|--5-----------|---5-------------|--5-----------|--8-----------------|
|--5-5-5-5-5-5-|---5--5-5-5--5-5-|--5-5-5-5-5-5-|--8-8--8-8-8-8------|
|--3-3-3-3-3-3-|---3--3-3-3--3-3-|--3-3-3-3-3-3-|--6-6--6-6-6-6------|
|
|-10-----------|-(10)--------8---|--6-----------|-13---------------|
|-11-----------|-(11)-------10---|--8-----------|-15---------------|
|--------------|-----------------|--------------|------------------|
|--------------|-----------------|--------------|------------------|
|--------------|-----------------|--------------|------------------|
|--------------|-----------------|--------------|------------------|
|
|--------------|-----------------|--------------|------------------|
|-11-----------|--11-------------|-11-----------|-11---10---8------|
|------7-------|--------7--------|------7-------|------------------|
|----------8---|-------------8---|----------8---|------------------|
|--------------|-----------------|--------------|------------------|
|--------------|-----------------|--------------|------------------|


|--------------------|------------------|------------------|------------------|
|--------------------|------------------|------------------|------------------|
|--------------------|------------------|------------------|3-(3)-3-(3)-3-(3)-|
|--7-(7)-7-(7)-7-(7)-|--7-(7)-7-(7)-7(7)|3-(3)-3-(3)-3-(3)-|3-(3)-3-(3)-3-(3)-|
|--5-(5)-5-(5)-5-(5)-|--5-(5)-5-(5)-5(5)|3-(3)-3-(3)-3-(3)-|1-(1)-1-(1)-1-(1)-|
|--5-(5)-5-(5)-5-(5)-|--5-(5)-5-(5)-5(5)|1-(1)-1-(1)-1-(1)-|------------------|
|
|--8-----------------|--8-----6-----5---|------------------|-10---------------|
|-10-----------------|-10-----8-----6---|-11---------------|-11---------------|
|--------------------|------------------|-12---------------|------------------|
|--------------------|------------------|------------------|------------------|
|--------------------|------------------|------------------|------------------|
|--------------------|------------------|------------------|------------------|
|
|--------------------|------------------|------------------|------------------|
|-10-----------------|-10---------------|-10---------------|-10---11----10----|
|--------7-----------|--------7---------|--------7---------|------------------|
|--------------7-----|--------------7---|--------------7---|------------------|
|--------------------|------------------|------------------|------------------|
|--------------------|------------------|------------------|------------------|


                                                                   PM----|
|--------------------|------------------|-------------------|---------------|
|--------------------|------------------|-------------------|---------------|
|--------------------|------------------|-------------------|---------------|
|--5-(5)-5-(5)-5-(5)-|--5-(5)-5-(5)-5(5)|-5-(5)-5-(5)-5-(5)-|-7-------------|
|--5-(5)-5-(5)-5-(5)-|--5-(5)-5-(5)-5(5)|-5-(5)-5-(5)-5-(5)-|-5--5-5-5-5----|
|--3-(3)-3-(3)-3-(3)-|--3-(3)-3-(3)-3(3)|-3-(3)-3-(3)-3-(3)-|-5--5-5-5-5----|
|
|--------------------|------------------|-------------------|---------------|
|-11-----------------|-11---------------|-------------------|---------------|
|-12-----------------|-12---------------|-------------------|---------------|
|--------------------|------------------|-------------------|---------------|
|--------------------|------------------|-------------------|---------------|
|--------------------|------------------|-------------------|---------------|
|
|--------------------|------------------|-------------------|---------------|
|--8-----------------|--8---------------|-8-----------8-----|-6-------------|
|--------7-----------|--------7---------|-------7-----------|----7---5------|
|--------------8-----|--------------8---|-------------------|---------------|
|--------------------|------------------|-------------------|---------------|
|--------------------|------------------|-------------------|---------------|


 Guitar Solo
  Gtr III
|-----------------|-----------------|---------------------|--------------------|
|-----------------|-----------------|---------------------|--------------------|
|-----------------|-----------------|---------------------|--------------------|
|5-(5)-5(5)-5-(5)-|-5(5)-5-(5)-5-(5)|--5-(5)-5-(5)--5-(5)-|-5-(5)-5-(5)--5-(5)-|
|5-(5)-5(5)-5-(5)-|-5(5)-5-(5)-5-(5)|--5-(5)-5-(5)--5-(5)-|-5-(5)-5-(5)--5-(5)-|
|3-(3)-3(3)-3-(3)-|-3(3)-3-(3)-3-(3)|--3-(3)-3-(3)--3-(3)-|-3-(3)-3-(3)--3-(3)-|
|
| Gtr IV
|-----------------|-----------------|---------------------|--------------------|
|-----------------|-----------------|---------------------|--------------------|
|-----------------|-----------------|---------------------|--------------------|
|5-(5)-5(5)-5-(5)-|-5(5)-5-(5)-5-(5)|--5-(5)-5-(5)--5-(5)-|-5-(5)-5-(5)--5-(5)-|
|5-(5)-5(5)-5-(5)-|-5(5)-5-(5)-5-(5)|--5-(5)-5-(5)--5-(5)-|-5-(5)-5-(5)--5-(5)-|
|3-(3)-3(3)-3-(3)-|-3(3)-3-(3)-3-(3)|--3-(3)-3-(3)--3-(3)-|-3-(3)-3-(3)--3-(3)-|
|
| Gtr VI
|-----------------|-----------------|---------------------|--------------------|
|-6-8-8--8--6--8--|-8--8--8-6--6--6-|-11-10-10------------|--------------------|
|-----------------|-----------------|----------10--10-12--|-12--8-/8-10-10--7--|
|-----------------|-----------------|---------------------|--------------------|
|-----------------|-----------------|---------------------|--------------------|
|-----------------|-----------------|---------------------|--------------------|


|-----------------|-----------------|-------------------|----------------------|
|-----------------|-----------------|-------------------|----------------------|
|-----------------|-----------------|-------------------|----------------------|
|-7(7)-7-(7)7-(7)-|7-(7)-7-(7)-7-(7)|-3-(3)-3-(3)-3-(3)-|--3-(3)-3-(3)--3--(3)-|
|-5(5)-5-(5)5-(5)-|5-(5)-5-(5)-5-(5)|-3-(3)-3-(3)-3-(3)-|--3-(3)-3-(3)--3--(3)-|
|-5(5)-5-(5)5-(5)-|5-(5)-5-(5)-5-(5)|-1-(1)-1-(1)-1-(1)-|--1-(1)-1-(1)--1--(1)-|
|
|-----------------|-----------------|-------------------|----------------------|
|-----------------|-----------------|-------------------|----------------------|
|-----------------|-----------------|-------------------|----------------------|
|-7(7)-7-(7)7-(7)-|7-(7)-7-(7)-7-(7)|-3-(3)-3-(3)-3-(3)-|--3-(3)-3-(3)--3--(3)-|
|-5(5)-5-(5)5-(5)-|5-(5)-5-(5)-5-(5)|-3-(3)-3-(3)-3-(3)-|--3-(3)-3-(3)--3--(3)-|
|-5(5)-5-(5)5-(5)-|5-(5)-5-(5)-5-(5)|-1-(1)-1-(1)-1-(1)-|--1-(1)-1-(1)--1--(1)-|
|
| ~                   ~
|-----------------|-----------------|-------------------|----------------------|
|-----------------|-----------------|-------------------|----------------------|
|-7---------------|-----------------|-------------------|-10-------(10)b12-----|
|-------8---------|-8-----------10--|-[10]b12r==========|======================|
|-----------------|-----------------|-------------------|----------------------|
|-----------------|-----------------|-------------------|----------------------|


|--------------------|-------------------|-------------------|-----------------|
|--------------------|-------------------|-------------------|-----------------|
|5-(5)--5-(5)--5-(5)-|-5-(5)5-(5)--5-(5)-|5-(5)-5-(5)--5-(5)-|5(5)-5-(5)-5-(5)-|
|5-(5)--5-(5)--5-(5)-|-5-(5)5-(5)--5-(5)-|5-(5)-5-(5)--5-(5)-|5(5)-5-(5)-5-(5)-|
|3-(3)--3-(3)--3-(3)-|-3-(3)3-(3)--3-(3)-|3-(3)-3-(3)--3-(3)-|3(3)-3-(3)-3-(3)-|
|--------------------|-------------------|-------------------|-----------------|
|
|--------------------|-------------------|-------------------|-----------------|
|--------------------|-------------------|-------------------|-----------------|
|5-(5)--5-(5)--5-(5)-|-5-(5)5-(5)--5-(5)-|5-(5)-5-(5)--5-(5)-|5(5)-5-(5)-5-(5)-|
|5-(5)--5-(5)--5-(5)-|-5-(5)5-(5)--5-(5)-|5-(5)-5-(5)--5-(5)-|5(5)-5-(5)-5-(5)-|
|3-(3)--3-(3)--3-(3)-|-3-(3)3-(3)--3-(3)-|3-(3)-3-(3)--3-(3)-|3(3)-3-(3)-3-(3)-|
|--------------------|-------------------|-------------------|-----------------|
|
|-11-----11---13-----|-----13-----15-----|-15--11-----11-----|-----------------|
|-13-----13---15-----|-----15-----16-----|-16--13-----13-----|-16----15-----13-|
|--------------------|-------------------|-------------------|-17----17-----15-|
|--------------------|-------------------|-------------------|-----------------|
|--------------------|-------------------|-------------------|-----------------|
|--------------------|-------------------|-------------------|-----------------|


|-----------------|------------------|------------------|----------------------|
|-----------------|------------------|------------------|----------------------|
|-----------------|------------------|------------------|----------------------|
|5-(5)-5-(5)-5-(5)|-5-(5)-5(5)-5-(5)-|8-(8)-8-(8)-8-(8)-|-8-(8)--8--(8)--8-(8)-|
|5-(5)-5-(5)-5-(5)|-5-(5)-5(5)-5-(5)-|8-(8)-8-(8)-8-(8)-|-8-(8)--8--(8)--8-(8)-|
|3-(3)-3-(3)-3-(3)|-3-(3)-3(3)-3-(3)-|6-(6)-6-(6)-6-(6)-|-6-(6)--6--(6)--6-(6)-|
|
|-----------------|------------------|------------------|----------------------|
|-----------------|------------------|------------------|----------------------|
|-----------------|------------------|------------------|----------------------|
|5-(5)-5-(5)-5-(5)|-5-(5)-5(5)-5-(5)-|8-(8)-8-(8)-8-(8)-|-8-(8)--8--(8)--8-(8)-|
|5-(5)-5-(5)-5-(5)|-5-(5)-5(5)-5-(5)-|8-(8)-8-(8)-8-(8)-|-8-(8)--8--(8)--8-(8)-|
|3-(3)-3-(3)-3-(3)|-3-(3)-3(3)-3-(3)-|6-(6)-6-(6)-6-(6)-|-6-(6)--6--(6)--6-(6)-|
|
|  ~~~
|-----------------|------------------|------------------|----------------------|
|/11-------10-10--|-8----8----10-11--|/15--------13-15--|18b19r=(18)-18--16-15-|
|-----------------|------------------|------------------|----------------------|
|-----------------|------------------|------------------|----------------------|
|-----------------|------------------|------------------|----------------------|
|-----------------|------------------|------------------|----------------------|


        PM--------------------|            PM---------------------------|
|----------------------------------|------------------------------------|
|----------------------------------|------------------------------------|
|--5-------------------------------|--5---------------------------------|
|--5----5-----5----5-----5----5----|--5----5-----5----5-----5----5------|
|--3----3-----3----3-----3----3----|--3----3-----3----3-----3----3------|
|----------------------------------|------------------------------------|
|
|       PM--------------------|            PM---------------------------|
|----------------------------------|------------------------------------|
|----------------------------------|------------------------------------|
|--5-------------------------------|--5---------------------------------|
|--5----5-----5----5-----5----5----|--5----5-----5----5-----5----5------|
|--3----3-----3----3-----3----3----|--3----3-----3----3-----3----3------|
|----------------------------------|------------------------------------|
|
|----------------------------------|----------------------------------|
|-18-15---13-18-15---13-18-15---13-|-18-15---13-18-15---13-18-15---13-|
|----------------------------------|----------------------------------|
|----------------------------------|----------------------------------|
|----------------------------------|----------------------------------|
|----------------------------------|----------------------------------|


        PM--------------------|            PM------------------------------|
|----------------------------------|---------------------------------------|
|----------------------------------|---------------------------------------|
|--5-------------------------------|---------------------------------------|
|--5----5-----5----5-----5----5----|--7------------------------------------|
|--3----3-----3----3-----3----3----|--5----5-----5----5-----5----5---------|
|----------------------------------|--5----5-----5----5-----5----5---------|
|
|       PM--------------------|            PM------------------------------|
|----------------------------------|---------------------------------------|
|----------------------------------|---------------------------------------|
|--5-------------------------------|---------------------------------------|
|--5----5-----5----5-----5----5----|--7------------------------------------|
|--3----3-----3----3-----3----3----|--5----5-----5----5-----5----5---------|
|----------------------------------|--5----5-----5----5-----5----5---------|
|
|----------------------------------|-------------------------------------|
|-18-15---13-18-15---13-18-15---13-|-18-15---13-18-15---13-18-15---13----|
|----------------------------------|-------------------------------------|
|----------------------------------|-------------------------------------|
|----------------------------------|-------------------------------------|
|----------------------------------|-------------------------------------|


         PM---------------------|              PM-----------------------------|
|-------------------------------------|---------------------------------------|
|-------------------------------------|---------------------------------------|
|-------------------------------------|---------------------------------------|
|--5----------------------------------|--5------------------------------------|
|--5-----5-----5-----5-----5-----5----|--5-----5-----5-----5-----5-----5------|
|--3-----3-----3-----3-----3-----3----|--3-----3-----3-----3-----3-----3------|
|
|        PM---------------------|              PM-----------------------------|
|-------------------------------------|---------------------------------------|
|-------------------------------------|---------------------------------------|
|-------------------------------------|---------------------------------------|
|--5----------------------------------|--5------------------------------------|
|--5-----5-----5-----5-----5-----5----|--5-----5-----5-----5-----5-----5------|
|--3-----3-----3-----3-----3-----3----|--3-----3-----3-----3-----3-----3------|
|
|  T     T     T     T        T          T     T     T     T        T
|-13h15-13h15-18p15h18p13h15h18p13h15-|-13h15-13h15-18p15h18p13h15h18p13h15-|
|-------------------------------------|-------------------------------------|
|-------------------------------------|-------------------------------------|
|-------------------------------------|-------------------------------------|
|-------------------------------------|-------------------------------------|
|-------------------------------------|-------------------------------------|


         PM---------------------|           PM-----------------------------------|
|-------------------------------------|------------------------------------------|
|-------------------------------------|------------------------------------------|
|-------------------------------------|------------------------------------------|
|--5----------------------------------|--8---------------------------------------|
|--5-----5-----5-----5-----5-----5----|--8--8--8--8--8--8------------------------|
|--3-----3-----3-----3-----3-----3----|--6--6--6--6--6--6------------------------|
|
|        PM---------------------|           PM-----------------------------------|
|-------------------------------------|------------------------------------------|
|-------------------------------------|------------------------------------------|
|-------------------------------------|------------------------------------------|
|--5----------------------------------|--8---------------------------------------|
|--5-----5-----5-----5-----5-----5----|--8--8--8--8--8--8------------------------|
|--3-----3-----3-----3-----3-----3----|--6--6--6--6--6--6------------------------|
|
|  T              T           T          T           T           T
|-20p15h17p15h17h20p17p15-17h20-15h17-|-18p17p15h17h18p15h17p15h18p17p15h17----|
|-------------------------------------|----------------------------------------|
|-------------------------------------|----------------------------------------|
|-------------------------------------|----------------------------------------|
|-------------------------------------|----------------------------------------|
|-------------------------------------|----------------------------------------|


|-------------------------|--------------------|---------------------|
|-------------------------|--------------------|---------------------|
|-------------------------|--------------------|---------------------|
|--7----(7)-7-(7)---7-(7)-|--7-(7)-7-(7)-7-(7)-|--3-(3)-3-(3)--3-(3)-|
|--5----(5)-5-(5)---5-(5)-|--5-(5)-5-(5)-5-(5)-|--3-(3)-3-(3)--3-(3)-|
|--5----(5)-5-(5)---5-(5)-|--5-(5)-5-(5)-5-(5)-|--1-(1)-1-(1)--1-(1)-|
|
|-------------------------|--------------------|---------------------|
|-------------------------|--------------------|---------------------|
|-------------------------|--------------------|---------------------|
|--7----(7)-7-(7)---7-(7)-|--7-(7)-7-(7)-7-(7)-|--3-(3)-3-(3)--3-(3)-|
|--5----(5)-5-(5)---5-(5)-|--5-(5)-5-(5)-5-(5)-|--3-(3)-3-(3)--3-(3)-|
|--5----(5)-5-(5)---5-(5)-|--5-(5)-5-(5)-5-(5)-|--1-(1)-1-(1)--1-(1)-|
|
|                            ~~
|-17b18r======16b17r======|=15-------------13--|---------------------|
|-------------------------|--------------------|-15-----------13-----|
|-------------------------|--------------------|---------------------|
|-------------------------|--------------------|---------------------|
|-------------------------|--------------------|---------------------|
|-------------------------|--------------------|---------------------|


|---------------------|---------|----------|----------|--------|
|---------------------|---------|----------|----------|--------|
|--3-(3)-3-(3)--3-(3)-|---------|----------|----------|--------|
|--3-(3)-3-(3)--3-(3)-|--5------|-(5)------|-(5)------|-(5)----|
|--1-(1)-1-(1)--1-(1)-|--5------|-(5)------|-(5)------|-(5)----|
|---------------------|--3------|-(3)------|-(3)------|-(3)----|
|
|                        ~~~~~~~~~~~~~~~~~~~~~~~~~~~~~~~~~~~
|---------------------|---------|----------|----------|--------|
|---------------------|---------|----------|----------|-15-----|
|--3-(3)-3-(3)--3-(3)-|-12------|-14-------|-15-------|--------|
|--3-(3)-3-(3)--3-(3)-|---------|----------|----------|--------|
|--1-(1)-1-(1)--1-(1)-|---------|----------|----------|--------|
|---------------------|---------|----------|----------|--------|
|
|                        ~~~~~~~~~~~~~~~~~~~~~~~~~~~~~~~~~~~
|---------------------|---------|----------|----------|-15-----|
|--------------13-----|-11------|-13-------|-15-------|--------|
|-15------------------|---------|----------|----------|--------|
|---------------------|---------|----------|----------|--------|
|---------------------|---------|----------|----------|--------|
|---------------------|---------|----------|----------|--------|


   ~~~~~~~~~~~~~~~~~~~~~~~~~~~~~~~~~~~~~~~~~~~~~~~~~~~~~
|-18--------|-(18)--------|-(18)--------|-(18)---------|
|-----------|-------------|-------------|--------------|
|-----------|-------------|-------------|--------------|
|-----------|-------------|-------------|--------------|
|-----------|-------------|-------------|--------------|
|-----------|-------------|-------------|--------------|
|
|  ~~~~~~~~~~~~~~~~~~~~~~~~~~~~~~~~~~~~~~~~~~~~~~~~~~~~~
|-----------|-------------|-------------|--------------|
|-20--------|-(20)--------|-(20)--------|-(20)---------|
|-----------|-------------|-------------|--------------|
|-----------|-------------|-------------|--------------|
|-----------|-------------|-------------|--------------|
|-----------|-------------|-------------|--------------|
|
| Gtr V
|-----------|-------------|-------------|--------------|
|-11--------|--11---------|--11---------|--11---10--8--|
|-----7-----|-------7-----|-------7-----|--------------|
|--------8--|----------8--|----------8--|--------------|
|-----------|-------------|-------------|--------------|
|-----------|-------------|-------------|--------------|


 ~~~~~~
|-(18)--------|-----------|-----------|-------------|
|-------------|-----------|-----------|-------------|
|-------------|-----------|-----------|-------------|
|-------------|-----------|-----------|-------------|
|-------------|-----------|-----------|-------------|
|-------------|-----------|-----------|-------------|
|
|~~~~~~
|-------------|-----------|-----------|-------------|
|-(20)--------|-----------|-----------|-------------|
|-------------|-----------|-----------|-------------|
|-------------|-----------|-----------|-------------|
|-------------|-----------|-----------|-------------|
|-------------|-----------|-----------|-------------|
|
|-------------|-----------|-----------|-------------|
|--10---------|-10--------|-10--------|-10----------|
|-------7-----|-----7-----|-----7-----|-----7-------|
|----------7--|--------7--|--------7--|--------7----|
|-------------|-----------|-----------|-------------|
|-------------|-----------|-----------|-------------|


  Gtr V
|-------------|-------------|-------------|-------------|
|-13----------|-13----------|-13----------|-13--11--10--|
|-----12------|-----12------|-----12------|-------------|
|---------10--|---------10--|---------10--|-------------|
|-------------|-------------|-------------|-------------|
|-------------|-------------|-------------|-------------|


|-----------|-----------|-----------|--------------|
|-11--------|-11--------|-11--------|-11-----10----|
|-----7-----|-----7-----|-----7-----|-----7--------|
|--------8--|--------8--|--------8--|--------------|
|-----------|-----------|-----------|--------------|
|-----------|-----------|-----------|--------------|


|-----------|-----------|-----------|-----------|
|-8---------|-8---------|-8---------|-8-----10--|
|----8------|----8------|----8------|----8------|
|-------10--|-------10--|-------10--|-----------|
|-----------|-----------|-----------|-----------|
|-----------|-----------|-----------|-----------|


|-----------|-----------|-----------|--------------|
|-11--------|-11--------|-11--------|-11--10--8----|
|-----7-----|-----7-----|-----7-----|--------------|
|--------8--|--------8--|--------8--|--------------|
|-----------|-----------|-----------|--------------|
|-----------|-----------|-----------|--------------|


|-----------|-----------|-----------|-------------|
|-10--------|-10--------|-10--------|-10--11--10--|
|-----7-----|-----7-----|-----7-----|-------------|
|--------7--|--------7--|--------7--|-------------|
|-----------|-----------|-----------|-------------|
|-----------|-----------|-----------|-------------|


|----------|----------|----------|------------|
|-8--------|-8--------|-8-----8--|-6----------|
|----7-----|----7-----|----7-----|----7--5----|
|-------8--|-------8--|----------|------------|
|----------|----------|----------|------------|
|----------|----------|----------|------------|


|-----------|-----------|-----------|------------|
|-11--------|-11--------|-11--------|-11--10--8--|
|-----7-----|-----7-----|-----7-----|------------|
|--------8--|--------8--|--------8--|------------|
|-----------|-----------|-----------|------------|
|-----------|-----------|-----------|------------|


|-----------|-----------|-----------|-------------|
|-10--------|-10--------|-10--------|-10----------|
|-----7-----|-----7-----|-----7-----|-----7-------|
|--------7--|--------7--|--------7--|--------7----|
|-----------|-----------|-----------|-------------|
|-----------|-----------|-----------|-------------|


|-------------|-------------|-------------|-------------|
|-13----------|-13----------|-13----------|-13--11--10--|
|-----12------|-----12------|-----12------|-------------|
|---------10--|---------10--|---------10--|-------------|
|-------------|-------------|-------------|-------------|
|-------------|-------------|-------------|-------------|


|-----------|-----------|-----------|--------------|
|-11--------|-11--------|-11--------|-11-----10----|
|-----7-----|-----7-----|-----7-----|-----7--------|
|--------8--|--------8--|--------8--|--------------|
|-----------|-----------|-----------|--------------|
|-----------|-----------|-----------|--------------|


|-----------|-----------|-----------|-----------|
|-8---------|-8---------|-8---------|-8-----10--|
|----8------|----8------|----8------|----8------|
|-------10--|-------10--|-------10--|-----------|
|-----------|-----------|-----------|-----------|
|-----------|-----------|-----------|-----------|


|-----------|-----------|-----------|--------------|
|-11--------|-11--------|-11--------|-11--10--8----|
|-----7-----|-----7-----|-----7-----|--------------|
|--------8--|--------8--|--------8--|--------------|
|-----------|-----------|-----------|--------------|
|-----------|-----------|-----------|--------------|


|-----------|-----------|-----------|-------------|
|-10--------|-10--------|-10--------|-10--11--10--|
|-----7-----|-----7-----|-----7-----|-------------|
|--------7--|--------7--|--------7--|-------------|
|-----------|-----------|-----------|-------------|
|-----------|-----------|-----------|-------------|


|----------|----------|----------|------------|
|-8--------|-8--------|-8-----8--|-6----------|
|----7-----|----7-----|----7-----|----7--5----|
|-------8--|-------8--|----------|------------|
|----------|----------|----------|------------|
|----------|----------|----------|------------|


|-----------|-----------|-----------|------------|
|-11--------|-11--------|-11--------|-11--10--8--|
|-----7-----|-----7-----|-----7-----|------------|
|--------8--|--------8--|--------8--|------------|
|-----------|-----------|-----------|------------|
|-----------|-----------|-----------|------------|


|-----------|-----------|-----------|-------------|
|-10--------|-10--------|-10--------|-10----------|
|-----7-----|-----7-----|-----7-----|-----7-------|
|--------7--|--------7--|--------7--|--------7----|
|-----------|-----------|-----------|-------------|
|-----------|-----------|-----------|-------------|


|-------------|-------------|-------------|-------------|
|-13----------|-13----------|-13----------|-13--11--10--|
|-----12------|-----12------|-----12------|-------------|
|---------10--|---------10--|---------10--|-------------|
|-------------|-------------|-------------|-------------|
|-------------|-------------|-------------|-------------|


|-----------|-----------|-----------|--------------|
|-11--------|-11--------|-11--------|-11-----10----|
|-----7-----|-----7-----|-----7-----|-----7--------|
|--------8--|--------8--|--------8--|--------------|
|-----------|-----------|-----------|--------------|
|-----------|-----------|-----------|--------------|


|-----------|-----------|-----------|-----------|
|-8---------|-8---------|-8---------|-8-----10--|
|----8------|----8------|----8------|----8------|
|-------10--|-------10--|-------10--|-----------|
|-----------|-----------|-----------|-----------|
|-----------|-----------|-----------|-----------|


|-----------|-----------|-----------|--------------|
|-11--------|-11--------|-11--------|-11--10--8----|
|-----7-----|-----7-----|-----7-----|--------------|
|--------8--|--------8--|--------8--|--------------|
|-----------|-----------|-----------|--------------|
|-----------|-----------|-----------|--------------|


|-----------|-----------|-----------|-------------|
|-10--------|-10--------|-10--------|-10--11--10--|
|-----7-----|-----7-----|-----7-----|-------------|
|--------7--|--------7--|--------7--|-------------|
|-----------|-----------|-----------|-------------|
|-----------|-----------|-----------|-------------|


  >                     >
|----------|----------|----------|------------*|
|-8--------|-8--------|-8-----8--|-6----------*|
|----7-----|----7-----|----7-----|----7--5----*|
|-------8--|-------8--|----------|------------*|
|----------|----------|----------|------------*|
|----------|----------|----------|------------*|

The end..

Tablature Legend
----------------
 h   - hammer-on
 p   - pull-off
 b   - bend
 pb  - pre-bend
 r   - bend release (if no number after the r, then release immediately)
 /  - slide into or out of (from/to "nowhere")
 s   - legato slide
 S   - shift slide
  - natural harmonic
[n]  - artificial harmonic
n(n) - tapped harmonic
 ~   - vibrato
 tr  - trill
 T   - tap
 TP  - trem. picking
 PM  - palm muting
n/  - tremolo bar dip; n = amount to dip
 n  - tremolo bar down
 n/  - tremolo bar up
/n  - tremolo bar inverted dip
 =   - hold bend; also acts as connecting device for hammers/pulls
 <>  - volume swell (louder/softer)
 x   - on rhythm slash represents muted slash
 o   - on rhythm slash represents single note slash
comments
We did not receive enough feedback on this tab! Please rate:
print report bad tab
1 2 3 4 5
2 comments total.
0 reply
surgikal wrote on January 20 2009, 11:10 am

some of the solo seems missing or wrong..beginning with the cords with the 11 on e and 13 on b etc..i dont hear any chords in there..sounds like individual notes picked some what fast..idk..its a long song and a long tab..i could be confused..but..i dont think so

0 reply
surgikal wrote on January 20 2009, 11:11 am

i forgot to say that the rest of the tab seems decent..

I want to post or [tab]
guest
You may want to rate the tab now too:
select rating
Please do not post tabs as comments. Select "correction" instead!