Oops, an error
Loading. Please wait.

Obstacle 1 Tab

ver3
ver3

Whole song

More versions @911Tabs.com
40,701 views 252 this week
no commentswrite comment
1 2 3 4 5
excellent!
x 15
Autoscroll
+/-
esc
set tempo
stop
Difficulty
intermediate
Hey! There's an official Ultimate Guitar app which is ideal
for learning songs when you're away from computer. Get the app
WARNING: You are trying to view
                                    content from Ultimate-Guitar.com
                                    in an unauthorized application,
                                    which is prohibited.

                                    Please use an official Ultimate
                                    Guitar Tabs application for iPhone,
                                    iPad or Android to access legitimate
                                    chords, guitar, bass, and drum tabs
                                    from Ultimate-Guitar.com database.

                                    Type "ultimate guitar tabs" in Apple
                                    App Store's or Android Market's
                                    search to find the application.
Accordage (Tuning) standard : mi-la-ré-sol-si-mi (EADGBE)

*********************************************************************************
Intro - obstacle 1 - Interpol
*********************************************************************************

Guitar 1
---------------------------------------------------------------------------------|
---------------------------------------------------------------------------------|
---------------------------------------------------------------------------------|
-10-10-10-10-10-7-7-7-7-7-7-7-7-10-10-10-10-10-10-10-10-7-7-7-7-7-7-7-7-10-10-10-|
-8--8--8--8--8--8-8-8-0-0-0-0-0-0--0--0--8--8--8--8--8--8-8-8-0-0-0-0-0-0--0--0--|
---------------------------------------------------------------------------------|

Guitar 2

-(8)(8)--(8)(8)---(8)(8)--(8)(8)--(8)(8)--(8)(8)---(8)(8)--(8)(8)-|
-10-10----10-10----10-10---10-10--10-10----10-10----10-10---10-10-|
-10-10----9--9-----10-10---9--9---10-10----9--9-----10-10---9--9--|
------------------------------------------------------------------|
------------------------------------------------------------------|
------------------------------------------------------------------|



*********************************************************************************
VERSE1 PART 1 - obstacle 1 - Interpol
*********************************************************************************

"i wish i could eat the salt off of your lost faded lips"


Guitar 1
---------------------------------------------------------------------------------|
---------------------------------------------------------------------------------|
---------------------------------------------------------------------------------|
-10-10-10-10-10-7-7-7-7-7-7-7-7-10-10-10-10-10-10-10-10-7-7-7-7-7-7-7-7-10-10-10-|
-8--8--8--8--8--8-8-8-0-0-0-0-0-0--0--0--8--8--8--8--8--8-8-8-0-0-0-0-0-0--0--0--|
---------------------------------------------------------------------------------|

Guitar 2
-(8)(8)--(8)(8)---(8)(8)--(8)(8)--(8)(8)--(8)(8)---(8)(8)--(8)(8)-|
-10-10----10-10----10-10---10-10--10-10----10-10----10-10---10-10-|
-10-10----9--9-----10-10---9--9---10-10----9--9-----10-10---9--9--|
------------------------------------------------------------------|
------------------------------------------------------------------|
------------------------------------------------------------------|



*********************************************************************************
VERSE1 PART 2 - obstacle 1 - Interpol
*********************************************************************************

"we can cap the old times make playing only logical harm"

Guitar 1
---------------------------------------------------------------------------------|
---------------------------------------------------------------------------------|
---------------------------------------------------------------------------------|
-10-10-10-10-10-7-7-7-7-7-7-7-7-10-10-10-10-10-10-10-10-7-7-7-7-7-7-7-7-10-10-10-|
-8--8--8--8--8--8-8-8-0-0-0-0-0-0--0--0--8--8--8--8--8--8-8-8-0-0-0-0-0-0--0--0--|
---------------------------------------------------------------------------------|


Guitar 2
-12 12-----12 12-----12 12-----12 12-----12 12-----12 12-----12 12-----12 12----|
-13-13-----13-13-----13-13-----13-13-----13-13-----13-13-----13-13-----13-13----|
--------------------------------------------------------------------------------|
--------------------------------------------------------------------------------|
--------------------------------------------------------------------------------|
--------------------------------------------------------------------------------|

*********************************************************************************
VERSE1 PART 3 - obstacle 1 - Interpol
*********************************************************************************

"we cap the old lines make playing that nothing else will change"

Guitar 1
---------------------------------------------------------------------------------|
---------------------------------------------------------------------------------|
---------------------------------------------------------------------------------|
-10-10-10-10-10-7-7-7-7-7-7-7-7-10-10-10-10-10-10-10-10-7-7-7-7-7-7-7-7-10-10-10-|
-8--8--8--8--8--8-8-8-0-0-0-0-0-0--0--0--8--8--8--8--8--8-8-8-0-0-0-0-0-0--0--0--|
---------------------------------------------------------------------------------|


Guitar 2
-(8)(8)--(8)(8)---(8)(8)--(8)(8)--(8)(8)--(8)(8)---(8)(8)--(8)(8)-|
-10-10----10-10----10-10---10-10--10-10----10-10----10-10---10-10-|
-10-10----9--9-----10-10---9--9---10-10----9--9-----10-10---9--9--|
------------------------------------------------------------------|
------------------------------------------------------------------|
------------------------------------------------------------------|



*********************************************************************************
VERSE1 PART 4 - obstacle 1 - Interpol
*********************************************************************************

"well she can read, she can read, she can read, she can read, shes bad
she can read, she can read, she can read, she bad, oh shes bad"

Guitar 1
---------------------------------------------------------------------------------|
---------------------------------------------------------------------------------|
---------------------------------------------------------------------------------|
-10-10-10-10-10-7-7-7-7-7-7-7-7-10-10-10-10-10-10-10-10-7-7-7-7-7-7-7-7-10-10-10-|
-8--8--8--8--8--8-8-8-0-0-0-0-0-0--0--0--8--8--8--8--8--8-8-8-0-0-0-0-0-0--0--0--|
---------------------------------------------------------------------------------|

Guitar 2
-12 12-----12 12-----12 12-----12 12-----12 12-----12 12-----12 12-----12 12----|
-13-13-----13-13-----13-13-----13-13-----13-13-----13-13-----13-13-----13-13----|
--------------------------------------------------------------------------------|
--------------------------------------------------------------------------------|
--------------------------------------------------------------------------------|
--------------------------------------------------------------------------------|



*********************************************************************************
VERSE1 PART 5 - obstacle 1 - Interpol
*********************************************************************************

a) (instrumental)

Guitar 2
-12 12-----12 12-----12 12-----12 12-----12 12-----12 12-----12 12-----12 12----|
-13-13-----13-13-----13-13-----13-13-----13-13-----13-13-----13-13-----13-13----|
--------------------------------------------------------------------------------|
--------------------------------------------------------------------------------|
--------------------------------------------------------------------------------|
--------------------------------------------------------------------------------|


b) "oh she's bad..." (+ guitar 1)
(Attention au contre-temps entre guitar 1 et guitar 2 : les deux portées de tablatures 
correspondent verticalement)
Les T.. représentent les temps. Ils servent à placer les notes correctement en suivant 
la concordance verticale avec la portée de tabs.

Temps
-T1------T2-------T3-------T4-------T5-------T6-------T7-------T8-----------

Guitar 1
------------------------------------------------------------------------|
-10-10----10-10----10-10----10-10-10-10----10-10---10-10----10-10-------|
-10-10----10-10----10-10----10-10-10-10----9--9----9--9-----9--9--------|
------------------------------------------------------------------------|
------------------------------------------------------------------------|
------------------------------------------------------------------------|

Guitar 2
-12 12----12 12----12 12----12 12----12 12----12 12----12 12----12 12----|
-13-13----13-13----13-13----13-13----13-13----13-13----13-13----13-13----|
-------------------------------------------------------------------------|
-------------------------------------------------------------------------|
-------------------------------------------------------------------------|
-------------------------------------------------------------------------|

*********************************************************************************
CHORUS1 - obstacle 1 - Interpol
*********************************************************************************

a) "but its different now that im poor and im aging I ll never see this place again"

Guitar 1&2
----------------------------------------------------------------------------------|
----------------------------------------------------------------------------------|
-10-10-10-10-10-10-10-10--10-10-10-10-10-10-10-10-2--2--2--2--2--2--2--2--2--2----|
-10-10-10-10-10-10-10-10--10-10-10-10-10-10-10-10-2--2--2--2--2--2--2--2--2--2----|
-8--8--8--8--8--8--8--8---8--8--8--8--8--7--7--7--0--0--0--0--0--0--0--0--0--0----|
----------------------------------------------------------------------------------|

----------------------------|
----------------------------|
5--5--5--5--5--5--5--5------|
5--5--5--5--5--5--5--5------|
3--3--3--3--3--3--3--3------|
----------------------------|

b) "youll go stabing yourself in the neck"

Guitar 1&2
----------------------------------------------------------------------------------|
----------------------------------------------------------------------------------|
-10-10--10-10---10-10---10-10-2--2--2--2--2--2--2--2--5--5--5--5--5--5--5--5------|
-10-10--10-10---10-10---10-10-2--2--2--2--2--2--2--2--5--5--5--5--5--5--5--5------|
-8--8--8--8-----8--8----7--7--0--0--0--0--0--0--0--0--3--3--3--3--3--3--3--3------|
----------------------------------------------------------------------------------|


*********************************************************************************
REPRISE - obstacle 1 - Interpol
*********************************************************************************
(instrumental)

Guitar 1
---------------------------------------------------------------------------------|
---------------------------------------------------------------------------------|
---------------------------------------------------------------------------------|
-10-10-10-10-10-7--7--7--7--7--7--7--7--10-10-10-10-10-10-10-10-7--7--7--7--7--7-|
-8--8--8--8--8--8--8--8--0--0--0--0--0--0--0--0--8--8--8--8--8--8--8--8--0--0--0-|
---------------------------------------------------------------------------------|

-------------------|
-------------------|
-------------------|
-7--7--10-10-10----|
-0--0--0--0--0-----|
-------------------|

Guitar 2
----------------------------------------------------------------------------------|
----------------------------------------------------------------------------------|
-------------------------7--7--7--7--7--7--7--7--10-10-10-10-10-10-10-10-10-14----|
----------------------------------------------------------------------------------|
----------------------------------------------------------------------------------|
----------------------------------------------------------------------------------|

----------------------|
----------------------|
14-14-14-14-14-14-----|
----------------------|
----------------------|
----------------------|

*********************************************************************************
VERSE2 PART 1 - obstacle 1 - Interpol
*********************************************************************************

"and we can find new ways of living make playing only logical harm"

Guitar 1
---------------------------------------------------------------------------------|
---------------------------------------------------------------------------------|
---------------------------------------------------------------------------------|
-10-10-10-10-10-7-7-7-7-7-7-7-7-10-10-10-10-10-10-10-10-7-7-7-7-7-7-7-7-10-10-10-|
-8--8--8--8--8--8-8-8-0-0-0-0-0-0--0--0--8--8--8--8--8--8-8-8-0-0-0-0-0-0--0--0--|
---------------------------------------------------------------------------------|

Guitar 2

-(8)(8)--(8)(8)---(8)(8)--(8)(8)--(8)(8)--(8)(8)---(8)(8)--(8)(8)-|
-10-10----10-10----10-10---10-10--10-10----10-10----10-10---10-10-|
-10-10----9--9-----10-10---9--9---10-10----9--9-----10-10---9--9--|
------------------------------------------------------------------|
------------------------------------------------------------------|
------------------------------------------------------------------|



*********************************************************************************
VERSE2 PART 2 - obstacle 1 - Interpol
*********************************************************************************

"and we can top the old times clay making that nothing else will change"

Guitar 1
---------------------------------------------------------------------------------|
---------------------------------------------------------------------------------|
---------------------------------------------------------------------------------|
-10-10-10-10-10-7-7-7-7-7-7-7-7-10-10-10-10-10-10-10-10-7-7-7-7-7-7-7-7-10-10-10-|
-8--8--8--8--8--8-8-8-0-0-0-0-0-0--0--0--8--8--8--8--8--8-8-8-0-0-0-0-0-0--0--0--|
---------------------------------------------------------------------------------|


Guitar 2
-(8)(8)--(8)(8)---(8)(8)--(8)(8)--(8)(8)--(8)(8)---(8)(8)--(8)(8)-|
-10-10----10-10----10-10---10-10--10-10----10-10----10-10---10-10-|
-10-10----9--9-----10-10---9--9---10-10----9--9-----10-10---9--9--|
------------------------------------------------------------------|
------------------------------------------------------------------|
------------------------------------------------------------------|



*********************************************************************************
VERSE2 PART 3 - obstacle 1 - Interpol
*********************************************************************************

"but she can read, she can read, she can read, she can read, shes bad
she can read, she can read, she can read, shes bad, oh shes bad"


Guitar 1
---------------------------------------------------------------------------------|
---------------------------------------------------------------------------------|
---------------------------------------------------------------------------------|
-10-10-10-10-10-7-7-7-7-7-7-7-7-10-10-10-10-10-10-10-10-7-7-7-7-7-7-7-7-10-10-10-|
-8--8--8--8--8--8-8-8-0-0-0-0-0-0--0--0--8--8--8--8--8--8-8-8-0-0-0-0-0-0--0--0--|
---------------------------------------------------------------------------------|

Guitar 2
-12 12-----12 12-----12 12-----12 12-----12 12-----12 12-----12 12-----12 12----|
-13-13-----13-13-----13-13-----13-13-----13-13-----13-13-----13-13-----13-13----|
--------------------------------------------------------------------------------|
--------------------------------------------------------------------------------|
--------------------------------------------------------------------------------|
--------------------------------------------------------------------------------|



*********************************************************************************
CHORUS2 - obstacle 1 - Interpol
*********************************************************************************

a) "but its different now that im poor and im aging I ll never see this place again"


Guitar 1&2
----------------------------------------------------------------------------------|
----------------------------------------------------------------------------------|
-10-10-10-10-10-10-10-10--10-10-10-10-10-10-10-10-2--2--2--2--2--2--2--2--2--2----|
-10-10-10-10-10-10-10-10--10-10-10-10-10-10-10-10-2--2--2--2--2--2--2--2--2--2----|
-8--8--8--8--8--8--8--8---8--8--8--8--8--7--7--7--0--0--0--0--0--0--0--0--0--0----|
----------------------------------------------------------------------------------|

----------------------------|
----------------------------|
5--5--5--5--5--5--5--5------|
5--5--5--5--5--5--5--5------|
3--3--3--3--3--3--3--3------|
----------------------------|


b) "youll go stabing yourself in the neck"

Guitar 1&2
---------------------------------------------------------------------------------|
---------------------------------------------------------------------------------|
-10-10-------10-10--------10-10-------10-10------------2--2--2--2--2--2--2--2--5-|
-10-10-------10-10--------10-10-------10-10------------2--2--2--2--2--2--2--2--5-|
-8--8--------8--8---------8--8--------7--7-------------0--0--0--0--0--0--0--0--3-|
---------------------------------------------------------------------------------|

-------------------------|
-------------------------|
-5--5--5--5--5--5--5-----|
-5--5--5--5--5--5--5-----|
-3--3--3--3--3--3--3-----|
-------------------------|



c) "but its different now that im poor and im aging I ll never see this place again"

Guitar 1&2
----------------------------------------------------------------------------------|
----------------------------------------------------------------------------------|
-10-10-10-10-10-10-10-10--10-10-10-10-10-10-10-10-2--2--2--2--2--2--2--2--2--2----|
-10-10-10-10-10-10-10-10--10-10-10-10-10-10-10-10-2--2--2--2--2--2--2--2--2--2----|
-8--8--8--8--8--8--8--8---8--8--8--8--8--7--7--7--0--0--0--0--0--0--0--0--0--0----|
----------------------------------------------------------------------------------|


----------------------------|
----------------------------|
5--5--5--5--5--5--5--5------|
5--5--5--5--5--5--5--5------|
3--3--3--3--3--3--3--3------|
----------------------------|

d) "youll go stabing yourself in the neck"

Guitar 1&2
---------------------------------------------------------------------------------|
---------------------------------------------------------------------------------|
-10-10-------10-10--------10-10-------10-10------------2--2--2--2--2--2--2--2--5-|
-10-10-------10-10--------10-10-------10-10------------2--2--2--2--2--2--2--2--5-|
-8--8--------8--8---------8--8--------7--7-------------0--0--0--0--0--0--0--0--3-|
---------------------------------------------------------------------------------|

---------------------------|
---------------------------|
-5--5--5--5--5--5--5-------|
-5--5--5--5--5--5--5-------|
-3--3--3--3--3--3--3-------|
---------------------------|

*********************************************************************************
OUTTRO PART1 - obstacle 1 - Interpol
*********************************************************************************

"its in the way that she poses
its in the things that she puts in my heart
her stories are boring and stuff
shes always calling my bluff
she puts the, she puts the weights in to my little heart and she gets in my room 
and she takes apart
she puts the weights into my little heart
i said she puts the weights into my little heart"


-T1----T2----T3----T4----T5----T6----T7----T8--------------------------------

GUITAR 2 (Daniel)
----------12-------------12--------------------------------------------------|
----13-------------13-------------13----13-----------------------------------|
-14----14-------14----14-------14----14----14--------------------------------|
-----------------------------------------------------------------------------|
-----------------------------------------------------------------------------|
-----------------------------------------------------------------------------|

Les T.. représentent les temps. Ils servent à placer les notes correctement
en suivant la concordance verticale avec la portée de tabs.



*********************************************************************************
OUTTRO PART2 - obstacle 1 - Interpol
*********************************************************************************

"she packs it away, she packs it away, she packs it away, she packs it away,
she packs it away, she packs it away, she packs it away"

guitar 1
1----------------------------------------------------|
2----------------------------------------------------|
3-------------------5--5--7--7--7--7--7--7--7--7-----|
4-5--5--5--7--7--7-----------------------------------|
5----------------------------------------------------|
6-------------------------------------------------%--|

guitar 2 (Daniel)
----------12-------------12--------------------------------------------------|
----13-------------13-------------13----13-----------------------------------|
-14----14-------14----14-------14----14----14--------------------------------|
-----------------------------------------------------------------------------|
-----------------------------------------------------------------------------|
-----------------------------------------------------------------------------|



*********************************************************************************
OUTTRO PART3 - obstacle 1 - Interpol
*********************************************************************************

(Cette partie ne diffère que par l'entrée d'une guitare 3 dans la version studio.
Les tabs ci-dessous pour cette g3 sont justes, au niveau des accords (comme dans tout le 
morceau : F-Am),
mais les positions peut-être pas. Dans tous les cas, le rendu est à peu près le même)

"its in the way that she walks, everythings different now
she puts the weights in my heart
she puts the, she puts the weights into my little heart "


guitar 1
1----------------------------------------------------|
2----------------------------------------------------|
3-------------------5--5--7--7--7--7--7--7--7--7-----|
4-5--5--5--7--7--7-----------------------------------|
5----------------------------------------------------|
6-------------------------------------------------%--|

guitar 2 (Daniel)
----------12-------------12--------------------------------------------------|
----13-------------13-------------13----13-----------------------------------|
-14----14-------14----14-------14----14----14--------------------------------|
-----------------------------------------------------------------------------|
-----------------------------------------------------------------------------|
-----------------------------------------------------------------------------|

guitar 3
-----------------------------------------------------------------------------|
-----------------------------------------------------------------------------|
--10-10-10-10-10-10-10-10-9--9--9--9--9--9--9--9-----------------------------|
--10-10-10-10-10-10-10-10-7--7--7--7--7--7--7--7-----------------------------|
--8--8--8--8--8--8--8--8--0--0--0--0--0--0--0--0-----------------------------|
-----------------------------------------------------------------------------|
comments
print report bad tab
I want to post or [tab]
guest
You may want to rate the tab now too:
select rating
Please do not post tabs as comments. Select "correction" instead!