Oops, an error
Loading. Please wait.

Pain Through Breathing Tab

ver1
ver1

Solo

Whole song

More versions @911Tabs.com
175 views 1 this week
no commentswrite comment
1 2 3 4 5
excellent!
x 2
Autoscroll
+/-
esc
set tempo
stop
Contributor
Difficulty
Tuning
intermediate
C F A# D# G C
WARNING: You are trying to view
                                    content from Ultimate-Guitar.com
                                    in an unauthorized application,
                                    which is prohibited.

                                    Please use an official Ultimate
                                    Guitar Tabs application for iPhone,
                                    iPad or Android to access legitimate
                                    chords, guitar, bass, and drum tabs
                                    from Ultimate-Guitar.com database.

                                    Type "ultimate guitar tabs" in Apple
                                    App Store's or Android Market's
                                    search to find the application.
INTO ETERNITY
PAIN THROUGH BREATHING
C-F-A#-D#-G-C

TABBED BY-andherembrace


BOTH GTRS
-------------------------------------------------------------------|
-------------------------------------------------------------------|
-------------------------------------------------------------------|
9-9-9-9-9-101010-------------------------------------------4-4-4-4-|
7-7-7-7-7-7-7-7-9-9-9-9-9-101010-1010101010-121212-7-7-7-7-6-6-6-6-|
----------------7-7-7-7-7-7-7-7---8-8-8-8-8--8-8-8-5-5-5-5---------|

-------------------------------------------------------------------|
-------------------------------------------------------------------|
-------------------------------------------------------------------|
9-9-9-9-9-101010-------------------------------------------4-4-4-4-|
7-7-7-7-7-7-7-7-9-9-9-9-9-101010-1010101010-121212-7-7-7-7-6-6-6-6-|
----------------7-7-7-7-7-7-7-7---8-8-8-8-8--8-8-8-5-5-5-5---------|

0:08
GT.1
-------------------------------------------------------------------|
-------------------------------------------------------------------|
-------------------------------------------------------------------|
9-9-9-9-9-101010-------------------------------------------4-4-4-4-|
7-7-7-7-7-7-7-7-9-9-9-9-9-101010-1010101010-121212-7-7-7-7-6-6-6-6-|
----------------7-7-7-7-7-7-7-7---8-8-8-8-8--8-8-8-5-5-5-5---------|
GT.2
/19-15-------------14----------------------------------------------|
-----17----------15--15------------------------------10-12-13------|
------16--------16----------------------9-12-9-11-12----------11~--|
-------17------16------17-14/9--------9----------------------------|
--------19-14-17---------------10-7-9------------------------------|
-------------------------------------------------------------------|


GT.1
-------------------------------------------------------------------|
-------------------------------------------------------------------|
-------------------------------------------------------------------|
9-9-9-9-9-101010-------------------------------------------4-4-4-4-|
7-7-7-7-7-7-7-7-9-9-9-9-9-101010-1010101010-121212-7-7-7-7-6-6-6-6-|
----------------7-7-7-7-7-7-7-7---8-8-8-8-8--8-8-8-5-5-5-5---------|
GT.2
/19-15-------------14----------------------------------------------|
-----17----------15--15------------------------------10-12-13------|
------16--------16----------------------9-12-9-11-12----------11~--|
-------17------16------17-14/9--------9----------------------------|
--------19-14-17---------------10-7-9------------------------------|
-------------------------------------------------------------------|

R
-------------------------|
-------------------------|
-/8-7-5------------------|
---------8-7-5-7~--------|
-------------------------|
-------------------------|


0:18
BOTH
------------------------------------------------------------------|
------------------------------------------------------------------|
-----------------------7-----8--------------------------7-----8---|
-0-5-7-0-5-8-0-5-7-0-5---5-0---5--0-5-7-0-5-8-0-5-7-0-5---5-0---5-|
------------------------------------------------------------------|
------------------------------------------------------------------|

----------------------------------------------------------------|
----------------------------------------------------------------|
-----------------------7-----8--------------------8-7-5---------|
-0-5-7-0-5-8-0-5-7-0-5---5-0---5--0-5-7-0-5-8-0-5-------8-7-5-7~|
----------------------------------------------------------------|
----------------------------------------------------------------|

------------------------------------------------------------------|
------------------------------------------------------------------|
-----------------------7-----8--------------------------7-----8---|
-0-5-7-0-5-8-0-5-7-0-5---5-0---5--0-5-7-0-5-8-0-5-7-0-5---5-0---5-|
------------------------------------------------------------------|
------------------------------------------------------------------|

----------------------------------------------------------------|
----------------------------------------------------------------|
-----------------------7-----8--------------------8-7-5---------|
-0-5-7-0-5-8-0-5-7-0-5---5-0---5--0-5-7-0-5-8-0-5-------8-7-5-7~|
----------------------------------------------------------------|
----------------------------------------------------------------|


0:36
---------------------------------------------------------|
---------------------------------------------------------|
9---9---9--12--12---12---12------------------------------|
-7---7---7--10--10---10---10--9---9---9---12---12---12---|
--5---5-------8---8----8-------7---7---7---10---10---10--|
--------------------------------5---5--------8----8------|

-------------------------------------------------|
-------------------------------------------------|
9---9---9--12--12---12---12---------------7------|
-7---7---7--10--10---10---10--9---9---9---5--7---|
--5---5-------8---8----8-------7---7---7-----5---|
--------------------------------5---5------------|

---------------------------------------------------------|
---------------------------------------------------------|
9---9---9--12--12---12---12------------------------------|
-7---7---7--10--10---10---10--9---9---9---12---12---12---|
--5---5-------8---8----8-------7---7---7---10---10---10--|
--------------------------------5---5--------8----8------|

-------------------------------------------------|
-------------------------------------------------|
9---9---9--12--12---12---12---------------7------|
-7---7---7--10--10---10---10--9---9---9---5--7---|
--5---5-------8---8----8-------7---7---7-----5---|
--------------------------------5---5------------|


0:54
GT.1
--------------------------------------|
/17-0-12-0-12-13-12-0-10-12-0-8-10-0--|
--------------------------------------|
--------------------------------------|
--------------------------------------|
--------------------------------------|
RYTHM
-----------------------------------|
-----------------------------------|
-----------------------------------|
-9-9-9-9-9-9-9-9-9-9-9-9-9-9-9-9---|
-7-7-7-7-7-7-7-7-7-7-7-7-7-7-7-7---|
-7-7-7-7-7-7-7-7-7-7-7-7-7-7-7-7---|
GT.1
---------------------------------------------------|
/17-0-12-0-12-13-12-0-17-15-13-15-13-12-13-12------|
---------------------------------------------------|
---------------------------------------------------|
---------------------------------------------------|
---------------------------------------------------|
RYTHM
--------------------------------------------------|
--------------------------------------------------|
--------------------------------------------------|
10-10-10-10-10-10-10-10-10-10-10-10-10-10-10-10---|
10-10-10-10-10-10-10-10-10-10-10-10-10-10-10-10---|
-8--8--8--8--8--8--8--8--8--8--8--8--8--8--8--8---|


GT.1
--------------------------------------|
/17-0-12-0-12-13-12-0-10-12-0-8-10-0--|
--------------------------------------|
--------------------------------------|
--------------------------------------|
--------------------------------------|
RYTHM
--------------------------------------------------|
--------------------------------------------------|
--------------------------------------------------|
-12-12-12-12-12-12-12-12-12-12-12-12-12-12-12-12--|
-10-10-10-10-10-10-10-10-10-10-10-10-10-10-10-10--|
-10-10-10-10-10-10-10-10-10-10-10-10-10-10-10-10--|


GT.1
---------------------------------------------------|
/17-0-12-0-12-13-12-0-17-15-13-15-13-12-13-12------|
---------------------------------------------------|
---------------------------------------------------|
---------------------------------------------------|
---------------------------------------------------|
RYTHM
-----------------------------------|
-----------------------------------|
-----------------------------------|
-----------------------------------|
-9-9-9-9-9-9-9-9-7-7-7-7-7-7-7-7---|
-7-7-7-7-7-7-7-7-5-5-5-5-5-5-5-5---|

GT.1
--------------------------------------|
/17-0-12-12-0-13-12-0-10-12-0-8-10-0--|
--------------------------------------|
--------------------------------------|
--------------------------------------|
--------------------------------------|
RYTHM
-----------------------------------|
-----------------------------------|
-----------------------------------|
-9-9-9-9-9-9-9-9-9-9-9-9-9-9-9-9---|
-7-7-7-7-7-7-7-7-7-7-7-7-7-7-7-7---|
-7-7-7-7-7-7-7-7-7-7-7-7-7-7-7-7---|
GT.1
---------------------------------------------------|
/17-0-12-0-12-13-12-0-17-15-13-15-13-12-13-12------|
---------------------------------------------------|
---------------------------------------------------|
---------------------------------------------------|
---------------------------------------------------|
RYTHM
--------------------------------------------------|
--------------------------------------------------|
--------------------------------------------------|
10-10-10-10-10-10-10-10-10-10-10-10-10-10-10-10---|
10-10-10-10-10-10-10-10-10-10-10-10-10-10-10-10---|
-8--8--8--8--8--8--8--8--8--8--8--8--8--8--8--8---|


GT.1
--------------------------------------|
/17-0-12-0-12-13-12-0-10-12-0-8-10-0--|
--------------------------------------|
--------------------------------------|
--------------------------------------|
--------------------------------------|
RYTHM
--------------------------------------------------|
--------------------------------------------------|
--------------------------------------------------|
-12-12-12-12-12-12-12-12-12-12-12-12-12-12-12-12--|
-10-10-10-10-10-10-10-10-10-10-10-10-10-10-10-10--|
-10-10-10-10-10-10-10-10-10-10-10-10-10-10-10-10--|

GT.1
-15-12-----------------------------------------|
-------13--------------------------------------|
----------14-15-14-15-14-12-14-10-12-10-9-10---|
-----------------------------------------------|
-----------------------------------------------|
-----------------------------------------------|
RYTHM
-----------------------------------|
-----------------------------------|
-----------------------------------|
-----------------------------------|
-9-9-9-9-9-9-9-9-7-7-7-7-7-7-7-7---|
-7-7-7-7-7-7-7-7-5-5-5-5-5-5-5-5---|


1:11
GT.1`
-----------------------------------------------------------------------|
-----------------------------------------------------------------------|
-----------------------------------------------------------------------|
14-15--12-14--10-12--9-10--------------------14-15--12-14--10-12--9-10-|
--------------------------12-14--10-12--9-10---------------------------|
-----------------------------------------------------------------------|
RYTHM
---------------------------------------------------------------|
---------------------------------------------------------------|
---------------------------------------------------------------|
-9-------------------------------------------------------------|
-7-------------------------------------------9-----------------|
---------------------------------------------7-----------------|

GT.1`
--------------------------------------13-12-10-------------------------|
----------------------------------------------13-12-10-9-10-9--9-------|
-------------------------------------------------------------10-10-9~--|
14-15-12-14-10-12-9-10-------------------------------------------------|
----------------------12-14-10-12-9-10---------------------------------|
-----------------------------------------------------------------------|
RYTHM
---------------------------------------------------------------|
---------------------------------------------------------------|
---------------------------------------------------------------|
---------------------------------------------------------------|
10-------------------------------------7-------------------6---|
-8-------------------------------------5-------------------4---|



GT.1`
-----------------------------------------------------------------------|
-----------------------------------------------------------------------|
-----------------------------------------------------------------------|
14-15--12-14--10-12--9-10--------------------14-15--12-14--10-12--9-10-|
--------------------------12-14--10-12--9-10---------------------------|
-----------------------------------------------------------------------|
R HARMONY
---------------------------------------------------------------------|
---------------------------------------------------------------------|
12--14--10-12--9-10--7-9--------------------12--14--10-12--9-10--7-9-|
--------------------------10-12--9-10--7-9---------------------------|
---------------------------------------------------------------------|
---------------------------------------------------------------------|
RYTHM
---------------------------------------------------------------|
---------------------------------------------------------------|
---------------------------------------------------------------|
-9-------------------------------------------------------------|
-7-------------------------------------------9-----------------|
---------------------------------------------7-----------------|


GT.1`
--------------------------------------13-12-10-------------------------|
----------------------------------------------13-12-10-9-10-9--9-------|
-------------------------------------------------------------10-10-9~--|
14-15-12-14-10-12-9-10-------------------------------------------------|
----------------------12-14-10-12-9-10---------------------------------|
-----------------------------------------------------------------------|
R HARMONY
-----------------------------------------|
-----------------------------------------|
12-14-10-12-9-10-7-9---------------------|
---------------------10-12-9-10-7-9------|
-----------------------------------------|
-----------------------------------------|
RYTHM
---------------------------------------------------------------|
---------------------------------------------------------------|
---------------------------------------------------------------|
---------------------------------------------------------------|
10-------------------------------------7-------------------6---|
-8-------------------------------------5-------------------4---|

1:25
BOTH
-------------------------------------------------------------------------|
-------------------------------------------------------------------------|
---------------------7-----5-----8-----------------------7-----5-----8---|
-0-5-7-0-5-8-0-5-7-5---5-0---5-0---5-0-5-7-0-5-8-0-5-7-5---5-0---5-0---5-|
-------------------------------------------------------------------------|
-------------------------------------------------------------------------|

-----------------------------------------------------------------------|
-----------------------------------------------------------------------|
---------------------7-----5-----8-------------------8-7-5-------------|
-0-5-7-0-5-8-0-5-7-5---5-0---5-0---5-0-5-7-0-5-8-0-5-------8-7-5-7~----|
-----------------------------------------------------------------------|
-----------------------------------------------------------------------|

-------------------------------------------------------------------------|
-------------------------------------------------------------------------|
---------------------7-----5-----8-----------------------7-----5-----8---|
-0-5-7-0-5-8-0-5-7-5---5-0---5-0---5-0-5-7-0-5-8-0-5-7-5---5-0---5-0---5-|
-------------------------------------------------------------------------|
-------------------------------------------------------------------------|

-----------------------------------------------------------------------|
-----------------------------------------------------------------------|
---------------------7-----5-----8-------------------8-7-5-------------|
-0-5-7-0-5-8-0-5-7-5---5-0---5-0---5-0-5-7-0-5-8-0-5-------8-7-5-7~----|
-----------------------------------------------------------------------|
-----------------------------------------------------------------------|


1:43
---------------------------------------------------------|
---------------------------------------------------------|
9---9---9--12--12---12---12------------------------------|
-7---7---7--10--10---10---10--9---9---9---12---12---12---|
--5---5-------8---8----8-------7---7---7---10---10---10--|
--------------------------------5---5--------8----8------|

-------------------------------------------------|
-------------------------------------------------|
9---9---9--12--12---12---12---------------7------|
-7---7---7--10--10---10---10--9---9---9---5--7---|
--5---5-------8---8----8-------7---7---7-----5---|
--------------------------------5---5------------|

---------------------------------------------------------|
---------------------------------------------------------|
9---9---9--12--12---12---12------------------------------|
-7---7---7--10--10---10---10--9---9---9---12---12---12---|
--5---5-------8---8----8-------7---7---7---10---10---10--|
--------------------------------5---5--------8----8------|

-------------------------------------------------|
-------------------------------------------------|
9---9---9--12--12---12---12---------------7------|
-7---7---7--10--10---10---10--9---9---9---5--7---|
--5---5-------8---8----8-------7---7---7-----5---|
--------------------------------5---5------------|


2:01
GT.1
--------------------------------------|
/17-0-12-0-12-13-12-0-10-12-0-8-10-0--|
--------------------------------------|
--------------------------------------|
--------------------------------------|
--------------------------------------|
RYTHM
-----------------------------------|
-----------------------------------|
-----------------------------------|
-9-9-9-9-9-9-9-9-9-9-9-9-9-9-9-9---|
-7-7-7-7-7-7-7-7-7-7-7-7-7-7-7-7---|
-7-7-7-7-7-7-7-7-7-7-7-7-7-7-7-7---|
GT.1
---------------------------------------------------|
/17-0-12-0-12-13-12-0-17-15-13-15-13-12-13-12------|
---------------------------------------------------|
---------------------------------------------------|
---------------------------------------------------|
---------------------------------------------------|
RYTHM
--------------------------------------------------|
--------------------------------------------------|
--------------------------------------------------|
10-10-10-10-10-10-10-10-10-10-10-10-10-10-10-10---|
10-10-10-10-10-10-10-10-10-10-10-10-10-10-10-10---|
-8--8--8--8--8--8--8--8--8--8--8--8--8--8--8--8---|


GT.1
--------------------------------------|
/17-0-12-0-12-13-12-0-10-12-0-8-10-0--|
--------------------------------------|
--------------------------------------|
--------------------------------------|
--------------------------------------|
RYTHM
--------------------------------------------------|
--------------------------------------------------|
--------------------------------------------------|
-12-12-12-12-12-12-12-12-12-12-12-12-12-12-12-12--|
-10-10-10-10-10-10-10-10-10-10-10-10-10-10-10-10--|
-10-10-10-10-10-10-10-10-10-10-10-10-10-10-10-10--|


GT.1
---------------------------------------------------|
/17-0-12-0-12-13-12-0-17-15-13-15-13-12-13-12------|
---------------------------------------------------|
---------------------------------------------------|
---------------------------------------------------|
---------------------------------------------------|
RYTHM
-----------------------------------|
-----------------------------------|
-----------------------------------|
-----------------------------------|
-9-9-9-9-9-9-9-9-7-7-7-7-7-7-7-7---|
-7-7-7-7-7-7-7-7-5-5-5-5-5-5-5-5---|

GT.1
--------------------------------------|
/17-0-12-0-12-13-12-0-10-12-0-8-10-0--|
--------------------------------------|
--------------------------------------|
--------------------------------------|
--------------------------------------|
RYTHM
-----------------------------------|
-----------------------------------|
-----------------------------------|
-9-9-9-9-9-9-9-9-9-9-9-9-9-9-9-9---|
-7-7-7-7-7-7-7-7-7-7-7-7-7-7-7-7---|
-7-7-7-7-7-7-7-7-7-7-7-7-7-7-7-7---|
GT.1
---------------------------------------------------|
/17-0-12-0-12-13-12-0-17-15-13-15-13-12-13-12------|
---------------------------------------------------|
---------------------------------------------------|
---------------------------------------------------|
---------------------------------------------------|
RYTHM
--------------------------------------------------|
--------------------------------------------------|
--------------------------------------------------|
10-10-10-10-10-10-10-10-10-10-10-10-10-10-10-10---|
10-10-10-10-10-10-10-10-10-10-10-10-10-10-10-10---|
-8--8--8--8--8--8--8--8--8--8--8--8--8--8--8--8---|


GT.1
--------------------------------------|
/17-0-12-0-12-13-12-0-10-12-0-8-10-0--|
--------------------------------------|
--------------------------------------|
--------------------------------------|
--------------------------------------|
RYTHM
--------------------------------------------------|
--------------------------------------------------|
--------------------------------------------------|
-12-12-12-12-12-12-12-12-12-12-12-12-12-12-12-12--|
-10-10-10-10-10-10-10-10-10-10-10-10-10-10-10-10--|
-10-10-10-10-10-10-10-10-10-10-10-10-10-10-10-10--|


GT.1
-15-12-----------------------------------------|
-------13--------------------------------------|
----------14-15-14-15-14-12-14-10-12-10-9-10---|
-----------------------------------------------|
-----------------------------------------------|
-----------------------------------------------|
RYTHM
-----------------------------------|
-----------------------------------|
-----------------------------------|
-----------------------------------|
-9-9-9-9-9-9-9-9-7-7-7-7-7-7-7-7---|
-7-7-7-7-7-7-7-7-5-5-5-5-5-5-5-5---|

2:18
both
-------------------------------------------------------------------|
-------------------------------------------------------------------|
-------------------------------------------------------------------|
9-9-9-9-9-101010-------------------------------------------4-4-4-4-|
7-7-7-7-7-7-7-7-9-9-9-9-9-101010-1010101010-121212-7-7-7-7-6-6-6-6-|
----------------7-7-7-7-7-7-7-7---8-8-8-8-8--8-8-8-5-5-5-5---------|

-------------------------------------------------------------------|
-------------------------------------------------------------------|
-------------------------------------------------------------------|
9-9-9-9-9-101010-------------------------------------------4-4-4-4-|
7-7-7-7-7-7-7-7-9-9-9-9-9-101010-1010101010-121212-7-7-7-7-6-6-6-6-|
----------------7-7-7-7-7-7-7-7---8-8-8-8-8--8-8-8-5-5-5-5---------|

2:26
GT.1
---------------------------------------------------------------|
---------------------------------------------------------------|
-/9------9---/11------9---/12------9----/14--12--11------------|
-----------9------------9------------9-------------------------|
---------------------------------------------------------------|
---------------------------------------------------------------|
RYTHM
-------------------------------------------------------------------|
-------------------------------------------------------------------|
-------------------------------------------------------------------|
9-9-9-9-9-101010-------------------------------------------4-4-4-4-|
7-7-7-7-7-7-7-7-9-9-9-9-9-101010-1010101010-121212-7-7-7-7-6-6-6-6-|
----------------7-7-7-7-7-7-7-7---8-8-8-8-8--8-8-8-5-5-5-5---------|

GT.1
-------------------------------------------------------------|
-------------------------------------------------------------|
/12------12----/14------12----/16------12-----17--16--14-----|
------------12-------------12-------------12-----------------|
-------------------------------------------------------------|
-------------------------------------------------------------|
RYTHM
-------------------------------------------------------------------|
-------------------------------------------------------------------|
-------------------------------------------------------------------|
9-9-9-9-9-101010-------------------------------------------4-4-4-4-|
7-7-7-7-7-7-7-7-9-9-9-9-9-101010-1010101010-121212-7-7-7-7-6-6-6-6-|
----------------7-7-7-7-7-7-7-7---8-8-8-8-8--8-8-8-5-5-5-5---------|



GT.1
-------------------------------------------------------------------|
-------------------------------------------------------------------|
-------------------------------------------------------------------|
9-9-9-9-9-101010-------------------------------------------4-4-4-4-|
7-7-7-7-7-7-7-7-9-9-9-9-9-101010-1010101010-121212-7-7-7-7-6-6-6-6-|
----------------7-7-7-7-7-7-7-7---8-8-8-8-8--8-8-8-5-5-5-5---------|
GT.2
/19-15-------------14----------------------------------------------|
-----17----------15--15------------------------------10-12-13------|
------16--------16----------------------9-12-9-11-12----------11~--|
-------17------16------17-14/9--------9----------------------------|
--------19-14-17---------------10-7-9------------------------------|
-------------------------------------------------------------------|


GT.1
-------------------------------------------------------------------|
-------------------------------------------------------------------|
-------------------------------------------------------------------|
9-9-9-9-9-101010-------------------------------------------4-4-4-4-|
7-7-7-7-7-7-7-7-9-9-9-9-9-101010-1010101010-121212-7-7-7-7-6-6-6-6-|
----------------7-7-7-7-7-7-7-7---8-8-8-8-8--8-8-8-5-5-5-5---------|
GT.2
/19-15-------------14----------------------------------------------|
-----17----------15--15------------------------------10-12-13------|
------16--------16----------------------9-12-9-11-12----------11~--|
-------17------16------17-14/9--------9----------------------------|
--------19-14-17---------------10-7-9------------------------------|
-------------------------------------------------------------------|


2:44
GT.1
---------------------------------------------------------------|
---------------------------------------------------------------|
-/9------9---/11------9---/12------9----/14--12--11------------|
-----------9------------9------------9-------------------------|
---------------------------------------------------------------|
---------------------------------------------------------------|
GT.2
-------------------------------------------------------------|
-------------------------------------------------------------|
/12------12----/14------12----/16------12-----17--16--14-----|
------------12-------------12-------------12-----------------|
-------------------------------------------------------------|
-------------------------------------------------------------|
RYTHM
-------------------------------------------------------------------|
-------------------------------------------------------------------|
-------------------------------------------------------------------|
9-9-9-9-9-101010-------------------------------------------4-4-4-4-|
7-7-7-7-7-7-7-7-9-9-9-9-9-101010-1010101010-121212-7-7-7-7-6-6-6-6-|
----------------7-7-7-7-7-7-7-7---8-8-8-8-8--8-8-8-5-5-5-5---------|

GT.1
-------------------------------------------------------------|
-///------------///-///---------///--///---------///---------|
/12-----///----/14--12---///---/16---12---///-----17--16~~---|
--------12---------------12---------------12-----------------|
-------------------------------------------------------------|
-------------------------------------------------------------|
GT.2
-///------------///--///-------///--///----------///---------|
-15----///-----/17---15--///--/19---15----///---/20--19~~----|
-------16----------------16---------------16-----------------|
-------------------------------------------------------------|
-------------------------------------------------------------|
-------------------------------------------------------------|
RYTHM
-------------------------------------------------------------------|
-------------------------------------------------------------------|
-------------------------------------------------------------------|
9-9-9-9-9-101010-------------------------------------------4-4-4-4-|
7-7-7-7-7-7-7-7-9-9-9-9-9-101010-1010101010-121212-7-7-7-7-6-6-6-6-|
----------------7-7-7-7-7-7-7-7---8-8-8-8-8--8-8-8-5-5-5-5---------|


2:53
both
-------------------------------------------------------------------|
-------------------------------------------------------------------|
-------------------------------------------------------------------|
9-9-9-9-9-101010-------------------------------------------4-4-4-4-|
7-7-7-7-7-7-7-7-9-9-9-9-9-101010-1010101010-121212-7-7-7-7-6-6-6-6-|
----------------7-7-7-7-7-7-7-7---8-8-8-8-8--8-8-8-5-5-5-5---------|

-------------------------------------------------------------------|
-------------------------------------------------------------------|
-------------------------------------------------------------------|
9-9-9-9-9-101010-------------------------------------------4-4-4-4-|
7-7-7-7-7-7-7-7-9-9-9-9-9-101010-1010101010-121212-7-7-7-7-6-6-6-6-|
----------------7-7-7-7-7-7-7-7---8-8-8-8-8--8-8-8-5-5-5-5---------|

-------------------------------------------------------------------|
-------------------------------------------------------------------|
-------------------------------------------------------------------|
9-9-9-9-9-101010-------------------------------------------4-4-4-4-|
7-7-7-7-7-7-7-7-9-9-9-9-9-101010-1010101010-121212-7-7-7-7-6-6-6-6-|
----------------7-7-7-7-7-7-7-7---8-8-8-8-8--8-8-8-5-5-5-5---------|

-------------------------------------------------------------------|
-------------------------------------------------------------------|
-------------------------------------------------------------------|
9-9-9-9-9-101010-------------------------------------------4-4-4-4-|
7-7-7-7-7-7-7-7-9-9-9-9-9-101010-1010101010-121212-7-7-7-7-6-6-6-6-|
----------------7-7-7-7-7-7-7-7---8-8-8-8-8--8-8-8-5-5-5-5---------|

3:11
---------------------------------------------------------------|
---------------------------------------------------------------|
---------------------------------------------------------------|
-9-----------------12------------------------------------------|
-7------10---------10--------9----------7----------------------|
-7------8----------10--------7----------5----------------------|


GT.1
--------------------------------------|
/17-0-12-0-12-13-12-0-10-12-0-8-10-0--|
--------------------------------------|
--------------------------------------|
--------------------------------------|
--------------------------------------|
GT,2
---------------------------------------|
/20-0-15-0-15-17-15-0-13-15-0-12-13-0--|
---------------------------------------|
---------------------------------------|
---------------------------------------|
---------------------------------------|
RYTHM
-----------------------------------|
-----------------------------------|
-----------------------------------|
-9-9-9-9-9-9-9-9-9-9-9-9-9-9-9-9---|
-7-7-7-7-7-7-7-7-7-7-7-7-7-7-7-7---|
-7-7-7-7-7-7-7-7-7-7-7-7-7-7-7-7---|


GT.1
---------------------------------------------------|
/17-0-12-0-12-13-12-0-17-15-13-15-13-12-13-12------|
---------------------------------------------------|
---------------------------------------------------|
---------------------------------------------------|
---------------------------------------------------|
GT.2
---------------------------------------------------|
/20-0-15-0-15-17-15-0-20-19-17-19-17----17---------|
-------------------------------------19----19------|
---------------------------------------------------|
---------------------------------------------------|
---------------------------------------------------|
RYTHM
--------------------------------------------------|
--------------------------------------------------|
--------------------------------------------------|
10-10-10-10-10-10-10-10-10-10-10-10-10-10-10-10---|
10-10-10-10-10-10-10-10-10-10-10-10-10-10-10-10---|
-8--8--8--8--8--8--8--8--8--8--8--8--8--8--8--8---|


GT.1
--------------------------------------|
/17-0-12-0-12-13-12-0-10-12-0-8-10-0--|
--------------------------------------|
--------------------------------------|
--------------------------------------|
--------------------------------------|
GT,2
---------------------------------------|
/20-0-15-0-15-17-15-0-13-15-0-12-13-0--|
---------------------------------------|
---------------------------------------|
---------------------------------------|
---------------------------------------|
RYTHM
--------------------------------------------------|
--------------------------------------------------|
--------------------------------------------------|
-12-12-12-12-12-12-12-12-12-12-12-12-12-12-12-12--|
-10-10-10-10-10-10-10-10-10-10-10-10-10-10-10-10--|
-10-10-10-10-10-10-10-10-10-10-10-10-10-10-10-10--|


GT.1
---------------------------------------------------|
/17-0-12-0-12-13-12-0-17-15-13-15-13-12-13-12------|
---------------------------------------------------|
---------------------------------------------------|
---------------------------------------------------|
---------------------------------------------------|
GT.2
---------------------------------------------------|
/20-0-15-0-15-17-15-0-20-19-17-19-17----17---------|
-------------------------------------19----19------|
---------------------------------------------------|
---------------------------------------------------|
---------------------------------------------------|
RYTHM
-----------------------------------|
-----------------------------------|
-----------------------------------|
-----------------------------------|
-9-9-9-9-9-9-9-9-7-7-7-7-7-7-7-7---|
-7-7-7-7-7-7-7-7-5-5-5-5-5-5-5-5---|


GT.1
--------------------------------------|
/17-0-12-0-12-13-12-0-10-12-0-8-10-0--|
--------------------------------------|
--------------------------------------|
--------------------------------------|
--------------------------------------|
GT,2
---------------------------------------|
/20-0-15-0-15-17-15-0-13-15-0-12-13-0--|
---------------------------------------|
---------------------------------------|
---------------------------------------|
---------------------------------------|
RYTHM
-----------------------------------|
-----------------------------------|
-----------------------------------|
-9-9-9-9-9-9-9-9-9-9-9-9-9-9-9-9---|
-7-7-7-7-7-7-7-7-7-7-7-7-7-7-7-7---|
-7-7-7-7-7-7-7-7-7-7-7-7-7-7-7-7---|


GT.1
---------------------------------------------------|
/17-0-12-0-12-13-12-0-17-15-13-15-13-12-13-12------|
---------------------------------------------------|
---------------------------------------------------|
---------------------------------------------------|
---------------------------------------------------|
GT.2
---------------------------------------------------|
/20-0-15-0-15-17-15-0-20-19-17-19-17----17---------|
-------------------------------------19----19------|
---------------------------------------------------|
---------------------------------------------------|
---------------------------------------------------|
RYTHM
--------------------------------------------------|
--------------------------------------------------|
--------------------------------------------------|
10-10-10-10-10-10-10-10-10-10-10-10-10-10-10-10---|
10-10-10-10-10-10-10-10-10-10-10-10-10-10-10-10---|
-8--8--8--8--8--8--8--8--8--8--8--8--8--8--8--8---|


GT.1
--------------------------------------|
/17-0-12-0-12-13-12-0-10-12-0-8-10-0--|
--------------------------------------|
--------------------------------------|
--------------------------------------|
--------------------------------------|
GT,2
---------------------------------------|
/20-0-15-0-15-17-15-0-13-15-0-12-13-0--|
---------------------------------------|
---------------------------------------|
---------------------------------------|
---------------------------------------|
RYTHM
--------------------------------------------------|
--------------------------------------------------|
--------------------------------------------------|
-12-12-12-12-12-12-12-12-12-12-12-12-12-12-12-12--|
-10-10-10-10-10-10-10-10-10-10-10-10-10-10-10-10--|
-10-10-10-10-10-10-10-10-10-10-10-10-10-10-10-10--|

GT.1
-15-12-----------------------------------------|
-------13--------------------------------------|
----------14-15-14-15-14-12-14-10-12-10-9-10---|
-----------------------------------------------|
-----------------------------------------------|
-----------------------------------------------|
RYTHM
-----------------------------------|
-----------------------------------|
-----------------------------------|
-----------------------------------|
-9-9-9-9-9-9-9-9-7-7-7-7-7-7-7-7---|
-7-7-7-7-7-7-7-7-5-5-5-5-5-5-5-5---|


3:37
GT.1`
-----------------------------------------------------------------------|
-----------------------------------------------------------------------|
-----------------------------------------------------------------------|
14-15--12-14--10-12--9-10--------------------14-15--12-14--10-12--9-10-|
--------------------------12-14--10-12--9-10---------------------------|
-----------------------------------------------------------------------|
RYTHM
---------------------------------------------------------------|
---------------------------------------------------------------|
---------------------------------------------------------------|
-9-------------------------------------------------------------|
-7-------------------------------------------9-----------------|
---------------------------------------------7-----------------|


GT.1
--------------------------------------13-12-10-------------------------|
----------------------------------------------13-12-10-9-10-9--9-------|
-------------------------------------------------------------10-10-9~--|
14-15-12-14-10-12-9-10-------------------------------------------------|
----------------------12-14-10-12-9-10---------------------------------|
-----------------------------------------------------------------------|`
RYTHM
---------------------------------------------------------------|
---------------------------------------------------------------|
---------------------------------------------------------------|
---------------------------------------------------------------|
10-------------------------------------7-------------------6---|
-8-------------------------------------5-------------------4---|



GT.1`
-----------------------------------------------------------------------|
-----------------------------------------------------------------------|
-----------------------------------------------------------------------|
14-15--12-14--10-12--9-10--------------------14-15--12-14--10-12--9-10-|
--------------------------12-14--10-12--9-10---------------------------|
-----------------------------------------------------------------------|
R HARMONY
---------------------------------------------------------------------|
---------------------------------------------------------------------|
12--14--10-12--9-10--7-9--------------------12--14--10-12--9-10--7-9-|
--------------------------10-12--9-10--7-9---------------------------|
---------------------------------------------------------------------|
---------------------------------------------------------------------|
RYTHM
---------------------------------------------------------------|
---------------------------------------------------------------|
---------------------------------------------------------------|
-9-------------------------------------------------------------|
-7-------------------------------------------9-----------------|
---------------------------------------------7-----------------|

GT.1`
--------------------------------------13-12-10-------------------------|
----------------------------------------------13-12-10-9-10-9--9-------|
-------------------------------------------------------------10-10-9~--|
14-15-12-14-10-12-9-10-------------------------------------------------|
----------------------12-14-10-12-9-10---------------------------------|
-----------------------------------------------------------------------|
GT.2
------------------------------------------|
17-18-15-17-13-15-12-13-------------------|
-----------------------14-16-12-14-10-12--|
------------------------------------------|
------------------------------------------|
------------------------------------------|
RYTHM
---------------------------------------------------------------|
---------------------------------------------------------------|
---------------------------------------------------------------|
---------------------------------------------------------------|
10-------------------------------------7-------------------6---|
-8-------------------------------------5-------------------4---|



comments
We did not receive enough feedback on this tab! Please rate:
1 2 3 4 5
I want to post or [tab]
guest
You may want to rate the tab now too:
select rating
Please do not post tabs as comments. Select "correction" instead!