Oops, an error
Loading. Please wait.

Severe Emotional Distress Tab

ver2
ver2

Whole song

More versions @911Tabs.com
1,738 views 1 this week
2 commentsread comments
1 2 3 4 5
excellent!
x 1
Autoscroll
+/-
esc
set tempo
stop
Contributor
WARNING: You are trying to view
                                    content from Ultimate-Guitar.com
                                    in an unauthorized application,
                                    which is prohibited.

                                    Please use an official Ultimate
                                    Guitar Tabs application for iPhone,
                                    iPad or Android to access legitimate
                                    chords, guitar, bass, and drum tabs
                                    from Ultimate-Guitar.com database.

                                    Type "ultimate guitar tabs" in Apple
                                    App Store's or Android Market's
                                    search to find the application.
-------------------------------------------------------------------------------
                             Severe Emotional Distress – Into Eternity
-------------------------------------------------------------------------------
Tabbed by: MyNameIsGrant
Email: plz don’t email me

Tuning: C

   Guitar 1
 c|-------------------------------------------------------|
 G|-------------------------------------------------------|
Eb|-------------------------------7-----------------------|  X2
Bb|------9-----7-----5-----7------5--------7--------------|
 F|------7-----5-----3-----5---------------5--------------|
 C|-------------------------------------------------------|
  |                                                       |
  |      Guitar 2 (2nd time)                              |
 c|---------------8-10------------------------------------|
 G|-------10-12--------12--13-----------------------------|
Eb|---/12-------------------------------------------------|
Bb|-------------------------------------------------------|
 F|-------------------------------------------------------|
 C|-------------------------------------------------------|
  |                                                       |
  |     Guitar 3 (2nd time)                               |
 c|-------------------------------------------------------|
 G|----------------10--12---------------------------------|
Eb|----/9--11--12-----------12--14------------------------|
Bb|-------------------------------------------------------|
 F|-------------------------------------------------------|
 C|-------------------------------------------------------|
   

   Verse (Guitar 1)
 c|-------------------------------------------------------|
 G|-------------------------------------------------------|
Eb|-------------------------------------------------------|
Bb|---------7---9---------7--9-----7----------------------|
 F|---0--7----------0--7--------7-----7-------------------|
 C|-------------------------------------------------------|

   PM .  .  .   .   .  .  .  .  .  .  .


 c|-------------------------------------------------------|
 G|-------------------------------------------------------|
Eb|-------------------------------------------------------|
Bb|---------7--10----------7--10------9-------------------|
 F|---0--7----------0--7----------7-------7---------------|
 C|-------------------------------------------------------|

   PM .  .  .   .   .  .   .   .  .   .   .


 c|-------------------------------------------------------|
 G|-------------------------------------------------------|
Eb|-------------------------------------------------------|
Bb|---------7---9---------7--9-----7----------------------|
 F|---0--7----------0--7--------7-----7-------------------|
 C|-------------------------------------------------------|

   PM .  .  .   .   .  .  .  .  .  .  .


    “Now    you’re    on      your    own“
 c|-------------------------------------------------------|
 G|-------------------------------------------------------|
Eb|----------------------------5--------------------------|
Bb|----------5-----------------3--------------------------|
 F|---3------3--------3h5p3-------------------------------|
 C|---1---------------------------------------------------|


 c|-------------------------------------------------------|
 G|-------------------------------------------------------|
Eb|-------------------------------------------------------|
Bb|---------7---9---------7--9-----7----------------------|
 F|---0--7----------0--7--------7-----7-------------------|
 C|-------------------------------------------------------|

   PM .  .  .   .   .  .  .  .  .  .  .


 c|-------------------------------------------------------|
 G|-------------------------------------------------------|
Eb|-------------------------------------------------------|
Bb|---------7--10----------7--10------9-------------------|
 F|---0--7----------0--7----------7-------7---------------|
 C|-------------------------------------------------------|

   PM .  .  .   .   .  .   .   .  .   .   .


 c|-------------------------------------------------------|
 G|-------------------------------------------------------|
Eb|-------------------------------------------------------|
Bb|---------7---9---------7--9-----7----------------------|
 F|---0--7-----------0-7--------7-----7-------------------|
 C|-------------------------------------------------------|

   PM .  .  .   .    . .  .  .  .  .  .


    “Now    you’re    on      your    owwwwwwwwwwwwwwwwwww
 c|-------------------------------------------------------|
 G|-------------------------------------------------------|
Eb|----------------------------5--------------------------|
Bb|----------5-----------------3--------------------------|
 F|---3------3--------3h5p3-------------------------------|
 C|---1---------------------------------------------------|


     wwwwwwwwwwwwwwwwwwwwwwwwwwwwwwwwwwww
 c|-------------------------------------------------------|
 G|-------------------------------------------------------|
Eb|-------------------------------------------------------|
Bb|---------7---9---------7--9-----7----------------------|
 F|---0--7----------0--7--------7-----7-------------------|
 C|-------------------------------------------------------|

   PM .  .  .   .   .  .  .  .  .  .  .


     wwwwwwwwwwwwwwwwwwwwwwwwwwwwwwn
 c|-------------------------------------------------------|
 G|-------------------------------------------------------|
Eb|-------------------------------------------------------|
Bb|---------7--10----------7--10------9-------------------|
 F|---0--7----------0--7----------7-------7---------------|
 C|-------------------------------------------------------|

   PM .  .  .   .   .  .   .   .  .   .   .


   “Now    you’re    on      your    own“
 c|-------------------------------------------------------|
 G|-------------------------------------------------------|
Eb|----------------------------5--------------------------|
Bb|----------5-----------------3--------------------------|
 F|---3------3--------3h5p3-------------------------------|
 C|---1---------------------------------------------------|


    Pre Chorus (Both Guitars)
 c|-------------------------------------------------------|
 G|-------------------------------------------------------|
Eb|------4-----5-----7-----9-----12v----------------------|
Bb|-------------------------------------------------------|
 F|--0-0---0-0---0-0---0-0---0-0--------------------------|
 C|-------------------------------------------------------|


 c|-------------------------------------------------------|
 G|------------------------------13v----------------------|
Eb|------4-----5-----7-----9------------------------------|
Bb|-------------------------------------------------------|
 F|--0-0---0-0---0-0---0-0---0-0--------------------------|
 C|-------------------------------------------------------|


     Guitar 1
 c|-------------------------------------------------------|
 G|-------------------------------------------------------|
Eb|------4-----5-----7-----9-----12v----------------------|   X2
Bb|-------------------------------------------------------|
 F|--0-0---0-0---0-0---0-0---0-0--------------------------|
 C|-------------------------------------------------------|
  |                                                       |
  |   Guitar 2                                           |
 c|-------------------------------------------------------|
 G|------5-----6-----8-----10-----13v---------------------|
Eb|-------------------------------------------------------|   X2
Bb|-------------------------------------------------------|
 F|--0-0---0-0---0-0---0-0----0-0-------------------------|
 C|-------------------------------------------------------|


     Chorus (same as the intro)
 c|-------------------------------------------------------|
 G|-------------------------------------------------------|
Eb|---------------------------------7---------------------|  X2
Bb|---9------7-----5-------7--------5--------7------------|
 F|---7------5-----3-------5-----------------5------------|
 C|-------------------------------------------------------|


    Riff
 c|-------------------------------------------------------|
 G|-------------------------------------------------------|
Eb|-------------------------------------------------------|
Bb|---------7---9---------7--9-----7----------------------|
 F|---0--7-----------0-7--------7-----7-------------------|
 C|-------------------------------------------------------|

   PM .  .  .   .    . .  .  .  .  .  .


 c|-------------------------------------------------------|
 G|-------------------------------------------------------|
Eb|-------------------------------------------------------|
Bb|---------7--10----------7--10------9-------------------|
 F|---0--7-----------0-7----------7-------7---------------|
 C|-------------------------------------------------------|

   PM .  .  .   .    . .   .   .  .   .   .


 c|-------------------------------------------------------|
 G|-------------------------------------------------------|
Eb|-------------------------------------------------------|
Bb|---------7---9---10-9-7--------------------------------|
 F|---0--7-----------------10-9-7-------------------------|
 C|-------------------------------10----------------------|

   PM .  .  .


 c|-------------------------------------------------------|
 G|-------------------------------------------------------|
Eb|-------------------------------------------------------|
Bb|-----------5-3-2---------------------------------------|
 F|-------3---------3-2--3h5------------------------------|
 C|--1----------------------------------------------------|

 c|-------------------------------------------------------|
 G|-------------------------------------------------------|
Eb|-------------------------------------------------------|
Bb|---------5---7---------5--7-----5----------------------|
 F|---0--5----------0--5--------5-----5-------------------|
 C|-------------------------------------------------------|

   PM .  .  .   .   .  .  .  .  .  .  .


 c|-------------------------------------------------------|
 G|-------------------------------------------------------|
Eb|-------------------------------------------------------|
Bb|---------5--8-----------5--8-------7-------------------|
 F|---0--5----------0--5----------5-------5---------------|
 C|-------------------------------------------------------|

   PM .  .  .   .   .  .   .   .  .   .   .


 c|-------------------------------------------------------|
 G|-------------------------------------------------------|
Eb|-------------------------------------------------------|
Bb|---------5---7---8--7-5--------------------------------|
 F|---0--5------------------8-7-5-------------------------|
 C|--------------------------------8----------------------|

   PM .  .  .

 c|-------------------------------------------------------|
 G|-------------------------------------------------------|
Eb|-------------------------------------------------------|   X3
Bb|-----------5-3-2---------------------------------------|
 F|-------3---------3-2--3h5------------------------------|
 C|--1----------------------------------------------------|


 c|-------------------------------------------------------|
 G|-------------------------------------------------------|
Eb|--------5----------------------------------------------|
Bb|-----5--3--5-4-5-7-------------------------------------|
 F|--3--3-----3-2-3-5-------------------------------------|
 C|--1----------------------------------------------------|

    Verse
 c|-------------------------------------------------------|
 G|-------------------------------------------------------|
Eb|-------------------------------------------------------|
Bb|---------7---9---------7--9-----7----------------------|
 F|---0--7----------0--7--------7-----7-------------------|
 C|-------------------------------------------------------|

   PM .  .  .   .   .  .  .  .  .  .  .


 c|-------------------------------------------------------|
 G|-------------------------------------------------------|
Eb|-------------------------------------------------------|
Bb|---------7--10----------7--10------9-------------------|
 F|---0--7----------0--7----------7-------7---------------|
 C|-------------------------------------------------------|

   PM .  .  .   .   .  .   .   .  .   .   .

 c|-------------------------------------------------------|
 G|-------------------------------------------------------|
Eb|-------------------------------------------------------|
Bb|---------7---9---------7--9-----7----------------------|
 F|---0--7----------0--7--------7-----7-------------------|
 C|-------------------------------------------------------|

   PM .  .  .   .   .  .  .  .  .  .  .


    “Now    you’re    on      your    own“
 c|-------------------------------------------------------|
 G|-------------------------------------------------------|
Eb|----------------------------5--------------------------|
Bb|----------5-----------------3--------------------------|
 F|---3------3--------3h5p3-------------------------------|
 C|---1---------------------------------------------------|


 c|-------------------------------------------------------|
 G|-------------------------------------------------------|
Eb|-------------------------------------------------------|
Bb|---------7---9---------7--9-----7----------------------|
 F|---0--7----------0--7--------7-----7-------------------|
 C|-------------------------------------------------------|

   PM .  .  .   .   .  .  .  .  .  .  .


 c|-------------------------------------------------------|
 G|-------------------------------------------------------|
Eb|-------------------------------------------------------|
Bb|---------7--10----------7--10------9-------------------|
 F|---0--7----------0--7----------7-------7---------------|
 C|-------------------------------------------------------|

   PM .  .  .   .   .  .   .   .  .   .   .


 c|-------------------------------------------------------|
 G|-------------------------------------------------------|
Eb|-------------------------------------------------------|
Bb|---------7---9---------7--9-----7----------------------|
 F|---0--7----------0--7--------7-----7-------------------|
 C|-------------------------------------------------------|

   PM .  .  .   .   .  .  .  .  .  .  .


    “Now    you’re    on      your    owwwwwww
 c|-------------------------------------------------------|
 G|-------------------------------------------------------|
Eb|----------------------------5--------------------------|
Bb|----------5-----------------3--------------------------|
 F|---3------3--------3h5p3-------------------------------|
 C|---1---------------------------------------------------|


     wwwwwwwwwwww yeah you get it
 c|-------------------------------------------------------|
 G|-------------------------------------------------------|
Eb|-------------------------------------------------------|
Bb|---------7---9---------7--9-----7----------------------|
 F|---0--7----------0--7--------7-----7-------------------|
 C|-------------------------------------------------------|

   PM .  .  .   .   .  .  .  .  .  .  .


 c|-------------------------------------------------------|
 G|-------------------------------------------------------|
Eb|-------------------------------------------------------|
Bb|---------7--10----------7--10------9-------------------|
 F|---0--7----------0--7----------7-------7---------------|
 C|-------------------------------------------------------|

   PM .  .  .   .   .  .   .   .  .   .   .


 c|-------------------------------------------------------|
 G|-------------------------------------------------------|
Eb|-------------------------------------------------------|
Bb|---------7---9---------7--9-----7----------------------|
 F|---0--7----------0--7--------7-----7-------------------|
 C|-------------------------------------------------------|

   PM .  .  .   .   .  .  .  .  .  .  .


   Pre Chorus (Both Guitars)
 c|-------------------------------------------------------|
 G|-------------------------------------------------------|
Eb|------4-----5-----7-----9-----12v----------------------|
Bb|-------------------------------------------------------|
 F|--0-0---0-0---0-0---0-0---0-0--------------------------|
 C|-------------------------------------------------------|


 c|-------------------------------------------------------|
 G|------------------------------13v----------------------|
Eb|------4-----5-----7-----9------------------------------|
Bb|-------------------------------------------------------|
 F|--0-0---0-0---0-0---0-0---0-0--------------------------|
 C|-------------------------------------------------------|


     Guitar 1
 c|-------------------------------------------------------|
 G|-------------------------------------------------------|
Eb|------4-----5-----7-----9-----12v----------------------|   X2
Bb|-------------------------------------------------------|
 F|--0-0---0-0---0-0---0-0---0-0--------------------------|
 C|-------------------------------------------------------|
  |                                                       |
  |   Guitar 2                                           |
 c|-------------------------------------------------------|
 G|------5-----6-----8-----10-----13v---------------------|
Eb|-------------------------------------------------------|   X2
Bb|-------------------------------------------------------|
 F|--0-0---0-0---0-0---0-0----0-0-------------------------|
 C|-------------------------------------------------------|


Chorus
 c|-------------------------------------------------------|
 G|-------------------------------------------------------|
Eb|---------------------------------7---------------------|  X2
Bb|---9------7-----5-------7--------5--------7------------|
 F|---7------5-----3-------5-----------------5------------|
 C|-------------------------------------------------------|


    Ill tab the solo separately. I might not tab it at all because im lazy.

   Outro 
 c|-------------------------------------------------------|
 G|----------------10--12---------------------------------|
Eb|----/9--11--12-----------12--14------------------------|
Bb|-------------------------------------------------------|
 F|-------------------------------------------------------|
 C|-------------------------------------------------------|


 c|---------------8-10------------------------------------|
 G|-------10-12--------12--13-----------------------------|
Eb|---/12-------------------------------------------------|
Bb|-------------------------------------------------------|
 F|-------------------------------------------------------|
 C|-------------------------------------------------------|
  


   Guitar 1
 c|-------------------------------------------------------|
 G|-------------------------------------------------------|
Eb|---------------------------12--------------------------|
Bb|----10----------14------------15-14-12--15--14---------|
 F|-------12--8-------15--12------------------------------|
 C|-------------------------------------------------------|
 

 c|-------------------------------------------------------|
 G|-------------------------------------------------------|
Eb|-----------------------------14-16-17---13-14----------|
Bb|----10----------14-------------------------------------|
 F|-------12--8-------15--12------------------------------|
 C|-------------------------------------------------------|


   Guitar 2
 c|--------------------15---------------------------------|
 G|-----15-17-18-17-15----18-17-15--18-17-----------------|
Eb|--17---------------------------------------------------|
Bb|-------------------------------------------------------|
 F|-------------------------------------------------------|
 C|-------------------------------------------------------|


 c|--------------------15---------------------------------|
 G|-----15-17-18-17-15----18-17-15v-----------------------|
Eb|--17---------------------------------------------------|
Bb|-------------------------------------------------------|
 F|-------------------------------------------------------|
 C|-------------------------------------------------------|


 c|-------------------------------------------------------|
 G|-------------------------------------------------------|
Eb|------4-----5-----7-----9-----12v----------------------|   X4
Bb|-------------------------------------------------------|
 F|--0-0---0-0---0-0---0-0---0-0--------------------------|
 C|-------------------------------------------------------|





| /  slide up
| \  slide down
| h  hammer-on
| p  pull-off
| ~  vibrato
| +  harmonic
| x  Mute note
===============================================================================

comments
We did not receive enough feedback on this tab! Please rate:
print report bad tab
1 2 3 4 5
2 comments total.
0 reply
MetalGuitar9 wrote on March 10 2009, 02:47 pm

great tab thnx...can u tab out "beginning of the end"? the one up right now does not have all the parts just the verse.

0 reply
MyNameIsGrant wrote on March 23 2009, 02:44 pm

I guess I could do that, it might take a while though

I want to post or [tab]
guest
You may want to rate the tab now too:
select rating
Please do not post tabs as comments. Select "correction" instead!