Oops, an error
Loading. Please wait.

Surrounded By Night Tab

ver1
ver1

Whole song

Interactive

More versions @911Tabs.com
2,208 views 1 this week
no commentswrite comment
1 2 3 4 5
worth learning
x 1
Autoscroll
+/-
esc
set tempo
stop
Difficulty
intermediate
WARNING: You are trying to view
                                    content from Ultimate-Guitar.com
                                    in an unauthorized application,
                                    which is prohibited.

                                    Please use an official Ultimate
                                    Guitar Tabs application for iPhone,
                                    iPad or Android to access legitimate
                                    chords, guitar, bass, and drum tabs
                                    from Ultimate-Guitar.com database.

                                    Type "ultimate guitar tabs" in Apple
                                    App Store's or Android Market's
                                    search to find the application.
                              Surrounded By Night                               


                                                                   Into Eternity
Acoustic1



      E  E  E  E  E  E  E  E     E  E  E  E  E  E  E  E  E  E  E  E   
C ||-----1--------1--------1--|-----1--------1--------1-----1-----1--|
G ||--------3--------3--------|--------3--------3--------------------|
D#||-----------2--------3-----|-----------2--------3-----0-----------|
A#||--0-----------------------|--0-----------------------------3-----|
F ||--------------------------|--------------------------------------|
C ||--------------------------|--------------------------------------|


  E  E  E  E  E  E  E  E     E  E  E  E  E  E  E  E   
-----1--------1--------1--|-----1-----1-----1-----1--|
--------3--------3--------|--------------------------|
-----------2--------3-----|--0-----------------------|
--0-----------------------|--------3-----2-----3-----|
--------------------------|--------------------------|
--------------------------|--------------------------|


  E  E  E  E  E  E  E  E     E  E  E  E  E  E  E  E  E  E  E  E   
-----1--------1--------1--|-----1--------1--------1-----1-----1--|
--------3--------3--------|--------3--------3--------------------|
-----------2--------3-----|-----------2--------3-----0-----------|
--0-----------------------|--0-----------------------------3-----|
--------------------------|--------------------------------------|
--------------------------|--------------------------------------|


  E  E  E  E  E  E  E  E     E  E  E  E  E  E  E  E   
-----1--------1--------1--|-----1-----1-----1-----1--|
--------3--------3--------|--------------------------|
-----------2--------3-----|--0-----------------------|
--0-----------------------|--------3-----2-----------|
--------------------------|--------------------3-----|
--------------------------|--------------------------|


  E  E  E  E  E  E  E  E     E  E  E  E  E  E  E  E  E  E  E  E   
-----1--------1--------1--|-----1--------1--------1-----1-----1--|
--------3--------3--------|--------3--------3--------------------|
-----------2--------3-----|-----------2--------3-----0-----------|
--0-----------------------|--0-----------------------------3-----|
--------------------------|--------------------------------------|
--------------------------|--------------------------------------|


  E  E  E  E  E  E  E  E     E  E  E  E  E  E  E  E   
-----1--------1--------1--|-----1-----1-----1-----1--|
--------3--------3--------|--------------------------|
-----------2--------3-----|--0-----------------------|
--0-----------------------|--------3-----2-----3-----|
--------------------------|--------------------------|
--------------------------|--------------------------|


  E  E  E  E  E  E  E  E     E  E  E  E  E  E  E  E  E  E  E  E   
-----1--------1--------1--|-----1--------1--------1-----1-----1--|
--------3--------3--------|--------3--------3--------------------|
-----------2--------3-----|-----------2--------3-----0-----------|
--0-----------------------|--0-----------------------------3-----|
--------------------------|--------------------------------------|
--------------------------|--------------------------------------|


  E  E  E  E  E  E  E  E     E  E  E  E  E  E  E  E   
-----1--------1--------1--|-----1-----1-----1-----1--|
--------3--------3--------|--------------------------|
-----------2--------3-----|--0-----------------------|
--0-----------------------|--------3-----2-----------|
--------------------------|--------------------3-----|
--------------------------|--------------------------|


  E  E  E  E  E  E  E  E     E  E  E  E  E  E  E  E   
-----1--------1--------1--|-----3--------3--------3--|
--------3--------3--------|--------3--------3--------|
-----------2--------2-----|--2--------2--------2-----|
--0-----------------------|--------------------------|
--------------------------|--------------------------|
--------------------------|--------------------------|


  E  E  E  E  E  E  E  E     E  E  E  E  E  E  E  E   
-----3--------3--------3--|-----0--------0--------0--|
--------3--------3--------|--------3--------3--------|
--3--------3--------3-----|--2--------2--------------|
--------------------------|--------------------------|
--------------------------|--------------------3-----|
--------------------------|--------------------------|


  E  E  E  E  E  E  E  E     E  E  E  E  E  E  E  E   
-----1--------1--------1--|-----3--------3--------3--|
--------3--------3--------|--------3--------3--------|
-----------2--------2-----|--2--------2--------2-----|
--0-----------------------|--------------------------|
--------------------------|--------------------------|
--------------------------|--------------------------|


  E  E  E  E  E  E  E  E     E  E  E  E  E  E  E  E   
-----3--------3--------3--|-----0--------0--------1--|
--------3--------3--------|--------3--------3--------|
--3--------3--------3-----|--2--------2--------------|
--------------------------|--------------------3-----|
--------------------------|--------------------------|
--------------------------|--------------------------|


  E  E  E  E  E  E  E  E     E  E  E  E  E  E  E  E   
-----1--------1--------1--|-----3--------3--------3--|
--------3--------3--------|--------3--------3--------|
-----------2--------2-----|--2--------2--------2-----|
--0-----------------------|--------------------------|
--------------------------|--------------------------|
--------------------------|--------------------------|


  E  E  E  E  E  E  E  E     E  E  E  E  E  E  E  E   
-----3--------3--------3--|-----0--------0--------0--|
--------3--------3--------|--------3--------3--------|
--3--------3--------3-----|--2--------2--------------|
--------------------------|--------------------------|
--------------------------|--------------------3-----|
--------------------------|--------------------------|


  E  E  E  E  E  E  E  E     E  E  E  E  E  E  E  E   
-----1--------1--------1--|-----3--------3--------3--|
--------3--------3--------|--------3--------3--------|
-----------2--------2-----|--2--------2--------2-----|
--0-----------------------|--------------------------|
--------------------------|--------------------------|
--------------------------|--------------------------|


                             ^                                            
  E  E  E  E  E  E  E  E     W                   E  E  E  E  E  E  E  E   
-----3--------3--------3--|--0----------------|-----1--------1--------1--|
--------3--------3--------|--3----------------|--------3--------3--------|
--3--------3--------3-----|--2----------------|-----------2--------3-----|
--------------------------|-------------------|--0-----------------------|
--------------------------|-------------------|--------------------------|
--------------------------|-------------------|--------------------------|


  E  E  E  E  E  E  E  E  E  E  E  E     E  E  E  E  E  E  E  E   
-----1--------1--------1-----1-----1--|-----1--------1--------1--|
--------3--------3--------------------|--------3--------3--------|
-----------2--------3-----0-----------|-----------2--------3-----|
--0-----------------------------3-----|--0-----------------------|
--------------------------------------|--------------------------|
--------------------------------------|--------------------------|


  E  E  E  E  E  E  E  E     E  E  E  E  E  E  E  E   
-----1-----1-----1-----1--|-----1--------1--------1--|
--------------------------|--------3--------3--------|
--0-----------------------|-----------2--------3-----|
--------3-----2-----3-----|--0-----------------------|
--------------------------|--------------------------|
--------------------------|--------------------------|


  E  E  E  E  E  E  E  E  E  E  E  E     E  E  E  E  E  E  E  E   
-----1--------1--------1-----1-----1--|-----1--------1--------1--|
--------3--------3--------------------|--------3--------3--------|
-----------2--------3-----0-----------|-----------2--------3-----|
--0-----------------------------3-----|--0-----------------------|
--------------------------------------|--------------------------|
--------------------------------------|--------------------------|


  E  E  E  E  E  E  E  E     E  E  E  E  E  E  E  E   
-----1-----1-----1-----1--|-----1--------1--------1--|
--------------------------|--------3--------3--------|
--0-----------------------|-----------2--------3-----|
--------3-----2-----------|--0-----------------------|
--------------------3-----|--------------------------|
--------------------------|--------------------------|


  E  E  E  E  E  E  E  E  E  E  E  E     E  E  E  E  E  E  E  E   
-----1--------1--------1-----1-----1--|-----1--------1--------1--|
--------3--------3--------------------|--------3--------3--------|
-----------2--------3-----0-----------|-----------2--------3-----|
--0-----------------------------3-----|--0-----------------------|
--------------------------------------|--------------------------|
--------------------------------------|--------------------------|


  E  E  E  E  E  E  E  E     E  E  E  E  E  E  E  E   
-----1-----1-----1-----1--|-----1--------1--------1--|
--------------------------|--------3--------3--------|
--0-----------------------|-----------2--------3-----|
--------3-----2-----3-----|--0-----------------------|
--------------------------|--------------------------|
--------------------------|--------------------------|


  E  E  E  E  E  E  E  E  E  E  E  E     E  E  E  E  E  E  E  E   
-----1--------1--------1-----1-----1--|-----1--------1--------1--|
--------3--------3--------------------|--------3--------3--------|
-----------2--------3-----0-----------|-----------2--------3-----|
--0-----------------------------3-----|--0-----------------------|
--------------------------------------|--------------------------|
--------------------------------------|--------------------------|


  E  E  E  E  E  E  E  E     E  E  E  E  E  E  E  E   
-----1-----1-----1-----1--|-----1--------1--------1--|
--------------------------|--------3--------3--------|
--0-----------------------|-----------2--------2-----|
--------3-----2-----------|--0-----------------------|
--------------------3-----|--------------------------|
--------------------------|--------------------------|


  E  E  E  E  E  E  E  E     E  E  E  E  E  E  E  E   
-----3--------3--------3--|-----3--------3--------3--|
--------3--------3--------|--------3--------3--------|
--2--------2--------2-----|--3--------3--------3-----|
--------------------------|--------------------------|
--------------------------|--------------------------|
--------------------------|--------------------------|


  E  E  E  E  E  E  E  E     E  E  E  E  E  E  E  E   
-----0--------0--------0--|-----1--------1--------1--|
--------3--------3--------|--------3--------3--------|
--2--------2--------------|-----------2--------2-----|
--------------------------|--0-----------------------|
--------------------3-----|--------------------------|
--------------------------|--------------------------|


  E  E  E  E  E  E  E  E     E  E  E  E  E  E  E  E   
-----3--------3--------3--|-----3--------3--------3--|
--------3--------3--------|--------3--------3--------|
--2--------2--------2-----|--3--------3--------3-----|
--------------------------|--------------------------|
--------------------------|--------------------------|
--------------------------|--------------------------|


  E  E  E  E  E  E  E  E     E  E  E  E  E  E  E  E   
-----0--------0--------1--|-----1--------1--------1--|
--------3--------3--------|--------3--------3--------|
--2--------2--------------|-----------2--------2-----|
--------------------3-----|--0-----------------------|
--------------------------|--------------------------|
--------------------------|--------------------------|


  E  E  E  E  E  E  E  E     E  E  E  E  E  E  E  E   
-----3--------3--------3--|-----3--------3--------3--|
--------3--------3--------|--------3--------3--------|
--2--------2--------2-----|--3--------3--------3-----|
--------------------------|--------------------------|
--------------------------|--------------------------|
--------------------------|--------------------------|


  E  E  E  E  E  E  E  E     E  E  E  E  E  E  E  E   
-----0--------0--------0--|-----1--------1--------1--|
--------3--------3--------|--------3--------3--------|
--2--------2--------------|-----------2--------2-----|
--------------------------|--0-----------------------|
--------------------3-----|--------------------------|
--------------------------|--------------------------|


                                                        ^                 
  E  E  E  E  E  E  E  E     E  E  E  E  E  E  E  E     W                 
-----3--------3--------3--|-----3--------3--------3--|--0----------------|
--------3--------3--------|--------3--------3--------|--3----------------|
--2--------2--------2-----|--3--------3--------3-----|--2----------------|
--------------------------|--------------------------|-------------------|
--------------------------|--------------------------|-------------------|
--------------------------|--------------------------|-------------------|


-------------------|-------------------|-------------------|-------------------|
-------------------|-------------------|-------------------|-------------------|
-------------------|-------------------|-------------------|-------------------|
-------------------|-------------------|-------------------|-------------------|
-------------------|-------------------|-------------------|-------------------|
-------------------|-------------------|-------------------|-------------------|


-------------------|-------------------|-------------------|-------------------|
-------------------|-------------------|-------------------|-------------------|
-------------------|-------------------|-------------------|-------------------|
-------------------|-------------------|-------------------|-------------------|
-------------------|-------------------|-------------------|-------------------|
-------------------|-------------------|-------------------|-------------------|


-------------------|-------------------|-------------------|-------------------|
-------------------|-------------------|-------------------|-------------------|
-------------------|-------------------|-------------------|-------------------|
-------------------|-------------------|-------------------|-------------------|
-------------------|-------------------|-------------------|-------------------|
-------------------|-------------------|-------------------|-------------------|


-------------------|-------------------|-------------------|-------------------|
-------------------|-------------------|-------------------|-------------------|
-------------------|-------------------|-------------------|-------------------|
-------------------|-------------------|-------------------|-------------------|
-------------------|-------------------|-------------------|-------------------|
-------------------|-------------------|-------------------|-------------------|


-------------------|-------------------|-------------------|-------------------|
-------------------|-------------------|-------------------|-------------------|
-------------------|-------------------|-------------------|-------------------|
-------------------|-------------------|-------------------|-------------------|
-------------------|-------------------|-------------------|-------------------|
-------------------|-------------------|-------------------|-------------------|


-------------------|-------------------|-------------------|-------------------|
-------------------|-------------------|-------------------|-------------------|
-------------------|-------------------|-------------------|-------------------|
-------------------|-------------------|-------------------|-------------------|
-------------------|-------------------|-------------------|-------------------|
-------------------|-------------------|-------------------|-------------------|


-------------------|-------------------|-------------------|-------------------|
-------------------|-------------------|-------------------|-------------------|
-------------------|-------------------|-------------------|-------------------|
-------------------|-------------------|-------------------|-------------------|
-------------------|-------------------|-------------------|-------------------|
-------------------|-------------------|-------------------|-------------------|


-------------------|-------------------|-------------------|-------------------|
-------------------|-------------------|-------------------|-------------------|
-------------------|-------------------|-------------------|-------------------|
-------------------|-------------------|-------------------|-------------------|
-------------------|-------------------|-------------------|-------------------|
-------------------|-------------------|-------------------|-------------------|


-------------------|-------------------|-------------------|-------------------|
-------------------|-------------------|-------------------|-------------------|
-------------------|-------------------|-------------------|-------------------|
-------------------|-------------------|-------------------|-------------------|
-------------------|-------------------|-------------------|-------------------|
-------------------|-------------------|-------------------|-------------------|


-------------------|-------------------|-------------------|-------------------|
-------------------|-------------------|-------------------|-------------------|
-------------------|-------------------|-------------------|-------------------|
-------------------|-------------------|-------------------|-------------------|
-------------------|-------------------|-------------------|-------------------|
-------------------|-------------------|-------------------|-------------------|


-------------------|-------------------|-------------------|-------------------|
-------------------|-------------------|-------------------|-------------------|
-------------------|-------------------|-------------------|-------------------|
-------------------|-------------------|-------------------|-------------------|
-------------------|-------------------|-------------------|-------------------|
-------------------|-------------------|-------------------|-------------------|


-------------------|-------------------|-------------------|-------------------|
-------------------|-------------------|-------------------|-------------------|
-------------------|-------------------|-------------------|-------------------|
-------------------|-------------------|-------------------|-------------------|
-------------------|-------------------|-------------------|-------------------|
-------------------|-------------------|-------------------|-------------------|


-------------------|-------------------|-------------------|-------------------|
-------------------|-------------------|-------------------|-------------------|
-------------------|-------------------|-------------------|-------------------|
-------------------|-------------------|-------------------|-------------------|
-------------------|-------------------|-------------------|-------------------|
-------------------|-------------------|-------------------|-------------------|


-------------------|-------------------|-------------------|-------------------|
-------------------|-------------------|-------------------|-------------------|
-------------------|-------------------|-------------------|-------------------|
-------------------|-------------------|-------------------|-------------------|
-------------------|-------------------|-------------------|-------------------|
-------------------|-------------------|-------------------|-------------------|


-------------------|-------------------|-------------------|-------------------|
-------------------|-------------------|-------------------|-------------------|
-------------------|-------------------|-------------------|-------------------|
-------------------|-------------------|-------------------|-------------------|
-------------------|-------------------|-------------------|-------------------|
-------------------|-------------------|-------------------|-------------------|


-------------------|-------------------|-------------------|-------------------|
-------------------|-------------------|-------------------|-------------------|
-------------------|-------------------|-------------------|-------------------|
-------------------|-------------------|-------------------|-------------------|
-------------------|-------------------|-------------------|-------------------|
-------------------|-------------------|-------------------|-------------------|


  ^                                                              
  W                                       Q    E  E  E  E  Q     
--5----------------|-------------------|-------------8----------|
--3----------------|-------------------|----------8-----8-------|
--3----------------|-------------------|-------9-----------9----|
--0----------------|-------------------|------------------------|
-------------------|-------------------|------------------------|
-------------------|-------------------|------------------------|


                       ^                                     
                       W                                     
-------------------|--13----------------|-------------------|
-------------------|--15----------------|-------------------|
-------------------|--15----------------|-------------------|
-------------------|--------------------|-------------------|
-------------------|--------------------|-------------------|
-------------------|--------------------|-------------------|


                                                     ^                 
   E  E   E   E   E  E   Q                           W                 
-------------10---------------|-------------------|--5----------------|
---------13------13-----------|-------------------|--3----------------|
------9--------------9--------|-------------------|--3----------------|
--10--------------------10----|-------------------|--0----------------|
------------------------------|-------------------|-------------------|
------------------------------|-------------------|-------------------|


                      Q    E  E  E  E  Q                         
-------------------|-------------8----------|-------------------|
-------------------|----------8-----8-------|-------------------|
-------------------|-------9-----------9----|-------------------|
-------------------|------------------------|-------------------|
-------------------|------------------------|-------------------|
-------------------|------------------------|-------------------|


   ^                                                                    
   W                                        E  E   E   E   E  E   Q     
--13----------------|-------------------|-------------10---------------|
--15----------------|-------------------|---------13------13-----------|
--15----------------|-------------------|------9--------------9--------|
--------------------|-------------------|--10--------------------10----|
--------------------|-------------------|------------------------------|
--------------------|-------------------|------------------------------|


-------------------|-------------------|-------------------|-------------------|
-------------------|-------------------|-------------------|-------------------|
-------------------|-------------------|-------------------|-------------------|
-------------------|-------------------|-------------------|-------------------|
-------------------|-------------------|-------------------|-------------------|
-------------------|-------------------|-------------------|-------------------|


-------------------|-------------------|-------------------|-------------------|
-------------------|-------------------|-------------------|-------------------|
-------------------|-------------------|-------------------|-------------------|
-------------------|-------------------|-------------------|-------------------|
-------------------|-------------------|-------------------|-------------------|
-------------------|-------------------|-------------------|-------------------|


-------------------|-------------------|-------------------|-------------------|
-------------------|-------------------|-------------------|-------------------|
-------------------|-------------------|-------------------|-------------------|
-------------------|-------------------|-------------------|-------------------|
-------------------|-------------------|-------------------|-------------------|
-------------------|-------------------|-------------------|-------------------|


-------------------|-------------------|-------------------|-------------------|
-------------------|-------------------|-------------------|-------------------|
-------------------|-------------------|-------------------|-------------------|
-------------------|-------------------|-------------------|-------------------|
-------------------|-------------------|-------------------|-------------------|
-------------------|-------------------|-------------------|-------------------|


-------------------|-------------------|-------------------|-------------------|
-------------------|-------------------|-------------------|-------------------|
-------------------|-------------------|-------------------|-------------------|
-------------------|-------------------|-------------------|-------------------|
-------------------|-------------------|-------------------|-------------------|
-------------------|-------------------|-------------------|-------------------|


-------------------|-------------------|-------------------|-------------------|
-------------------|-------------------|-------------------|-------------------|
-------------------|-------------------|-------------------|-------------------|
-------------------|-------------------|-------------------|-------------------|
-------------------|-------------------|-------------------|-------------------|
-------------------|-------------------|-------------------|-------------------|


-------------------|-------------------|-------------------|-------------------|
-------------------|-------------------|-------------------|-------------------|
-------------------|-------------------|-------------------|-------------------|
-------------------|-------------------|-------------------|-------------------|
-------------------|-------------------|-------------------|-------------------|
-------------------|-------------------|-------------------|-------------------|


-------------------|-------------------|-------------------|-------------------|
-------------------|-------------------|-------------------|-------------------|
-------------------|-------------------|-------------------|-------------------|
-------------------|-------------------|-------------------|-------------------|
-------------------|-------------------|-------------------|-------------------|
-------------------|-------------------|-------------------|-------------------|


-------------------|-------------------|-------------------|-------------------|
-------------------|-------------------|-------------------|-------------------|
-------------------|-------------------|-------------------|-------------------|
-------------------|-------------------|-------------------|-------------------|
-------------------|-------------------|-------------------|-------------------|
-------------------|-------------------|-------------------|-------------------|


-------------------|-------------------|-------------------|-------------------|
-------------------|-------------------|-------------------|-------------------|
-------------------|-------------------|-------------------|-------------------|
-------------------|-------------------|-------------------|-------------------|
-------------------|-------------------|-------------------|-------------------|
-------------------|-------------------|-------------------|-------------------|


-------------------|-------------------|-------------------|-------------------|
-------------------|-------------------|-------------------|-------------------|
-------------------|-------------------|-------------------|-------------------|
-------------------|-------------------|-------------------|-------------------|
-------------------|-------------------|-------------------|-------------------|
-------------------|-------------------|-------------------|-------------------|


-------------------|-------------------|-------------------|-------------------|
-------------------|-------------------|-------------------|-------------------|
-------------------|-------------------|-------------------|-------------------|
-------------------|-------------------|-------------------|-------------------|
-------------------|-------------------|-------------------|-------------------|
-------------------|-------------------|-------------------|-------------------|


-------------------|-------------------|-------------------|-------------------|
-------------------|-------------------|-------------------|-------------------|
-------------------|-------------------|-------------------|-------------------|
-------------------|-------------------|-------------------|-------------------|
-------------------|-------------------|-------------------|-------------------|
-------------------|-------------------|-------------------|-------------------|


-------------------|-------------------|-------------------|-------------------|
-------------------|-------------------|-------------------|-------------------|
-------------------|-------------------|-------------------|-------------------|
-------------------|-------------------|-------------------|-------------------|
-------------------|-------------------|-------------------|-------------------|
-------------------|-------------------|-------------------|-------------------|


-------------------|-------------------||
-------------------|-------------------||
-------------------|-------------------||
-------------------|-------------------||
-------------------|-------------------||
-------------------|-------------------||




Duration Legend
---------------
W - whole
H - half
Q - quarter
E - 8th
S - 16th
T - 32nd
X - 64th
. - note dotted
|-n-|  - n-tuplets


Tablature Legend
----------------
L - tied note
x - dead note
g - grace note
(n) - ghost note
> - accentuded note
NH - natural harmonic
AH - artificial harmonic
TH - tapped harmonic
SH - semi harmonic
PH - pitch harmonic
h - hammer on
p - pull off
b - bend
br - bendRelease
pb - preBend
pbr - preBendRelease
brb - bendReleaseBend
\n/ - tremolo bar dip
\n - tremolo bar dive
-/n - tremolo bar Release up
/n\ - tremolo bar inverted dip
/n - tremolo bar return
-\n - tremolo bar Release down
S - shift slide
s - legato slide
/ -  slide into from below or out of upwards
\ -  slide into from above or out of downwards
~ - vibrato
W - wide vibrato
tr - trill
TP - tremolo picking
T - tapping
S - slap
P - pop
< - fade in
^ - brush up
v - brush down
comments
We did not receive enough feedback on this tab! Please rate:
print report bad tab
1 2 3 4 5
I want to post or [tab]
guest
You may want to rate the tab now too:
select rating
Please do not post tabs as comments. Select "correction" instead!