Oops, an error
Loading. Please wait.

Flightless Bird American Mouth Tab

ver6
ver6
More versions @911Tabs.com
4,310 views 6 this week
1 commentread comment
1 2 3 4 5
excellent!
x 1
add to favorites launch autoscroll
font size
0
reset
Autoscroll
+/-
esc
set tempo
stop
Difficulty
intermediate
WARNING: You are trying to view
                                    content from Ultimate-Guitar.com
                                    in an unauthorized application,
                                    which is prohibited.

                                    Please use an official Ultimate
                                    Guitar Tabs application for iPhone,
                                    iPad or Android to access legitimate
                                    chords, guitar, bass, and drum tabs
                                    from Ultimate-Guitar.com database.

                                    Type "ultimate guitar tabs" in Apple
                                    App Store's or Android Market's
                                    search to find the application.
-------------------------------------------------------------------------------
                            FLIGHTLESS BIRD AMERICAN MOUTH - IRON & WINE
-------------------------------------------------------------------------------
Tabbed by: Paradigm
Email: tk.jonny@gmail.com

Tuning: Standard - Capo 3



VERSE: VOCALS TRANSCRIBED FOR GUITAR
e|------------------------------------------------------------|
B|------------------------------------------------------------|
G|------------0--------0--------0--------0--------(2)---------|
D|---0--2--3--2-----2--2-----2--2-----2--2--3--2--2-----2-----|
A|---2--0--2--3--3-----3--3-----3--3-----3--------0--0--------|
E|---3--------------------------------------------------------|


e|-------------------------------------|
B|-------------------------------------|
G|(2)------(2)---------(2)-------------|
D|2-----2--2-----2----2--0-----3-------|
A|0--0-----0--0-------0-----3--3-------|
E|-----------------------------1-------|


e|----------------------------------------------------------------|
B|----------------------------------------------------------------|
G|----------------------------------------------------------------|
D|---------3--------3-----------0--2--0--------0--------0---------|
A|------3--3-----3--3-----3--3--------2-----2--2-----2--2-----2---|
E|---1-----1--1-----1--1-----1--------3--3-----3--3-----3--3------|

( x2 , on the last 320 let it ring)



CHORUS: VOCALS TRANSCRIBED FOR GUITAR
e|---------------0-----------------------------0--------------------------|
B|------------3--1-----1--1-----1--1--3--------1---------3p1--------------|
G|---0--0-----0--------0--0-----0--0--2-----2--------2---2---2--------2---|
D|------------------------------------2--2---------------2---------2------|
A|---------3--------3--------2--------------------0-----------------------|
E|-------------------------------------------------------------0----------|

e|------------------------------------------------------------------------|
B|------------1-----------------1--------0--------0-----------------------|
G|---2--------2-----2--------2--2-----2--0--------0--------2--p--0--------|
D|---3-----3--------------3--------------0-----0--------0--0--------------|
A|------------------------------------------------------------------------|
E|---1--1--------1-----1-----------1-----3--3--------3--------------------|



==============================================================================================

The section below was taken from another tab, I take no credit for this part.

This part is played throughout the song.


  C                        Am
e|------------------------|------------------------|
B|--1-1---1-1---1-1---1-1-|--1-1---1-1---1-1---1-1-|
G|--0-0---0-0---0-0---0-0-|--2-2---2-2---2-2---2-2-|
D|------2-----------------|------2-----------------|
A|3-----------3-----2-----|0-----------0-----------|
E|------------------------|------------------0-----|




  F                        G
e|------------------------|------------------------|
B|--1-1---1-1---1-1---1-1-|--0-0---0-0---0-0-------|
G|--2-2---2-2---2-2---2-2-|--0-0---0-0---0-0-------|
D|------------------------|------------------------|
A|------3-----------3-----|-----0h2------------0-2-|
E|1-----------1-----------|3-----------3-----3-----|



************************************

| /   slide up
| \   slide down
| h   hammer-on
| p   pull-off
| ~   vibrato
| +   harmonic
| x   Mute note
| b   Bend
| pb  Pre-bend
| br  Bend release
| pbr Pre-bend release
| brb Bend release bend

************************************
comments
We did not receive enough feedback on this tab! Please rate:
1 2 3 4 5
1 comment total.
0 reply
Flycstr wrote on April 2 2012, 02:40 pm

Nice instrumental version! I especially like the Asus4 in the chorus...

I want to post or [tab]
guest
You may want to rate the tab now too:
select rating
Please do not post tabs as comments. Select "correction" instead!