Oops, an error
Loading. Please wait.

2 Minutes To Midnight Tab

ver4
ver4

Solo

Whole song

Video

More versions @911Tabs.com
9,164 views 39 this week
no commentswrite comment
1 2 3 4 5
worth learning
x 2
Autoscroll
+/-
esc
set tempo
stop
Contributor
WARNING: You are trying to view
                                    content from Ultimate-Guitar.com
                                    in an unauthorized application,
                                    which is prohibited.

                                    Please use an official Ultimate
                                    Guitar Tabs application for iPhone,
                                    iPad or Android to access legitimate
                                    chords, guitar, bass, and drum tabs
                                    from Ultimate-Guitar.com database.

                                    Type "ultimate guitar tabs" in Apple
                                    App Store's or Android Market's
                                    search to find the application.
Two minutes to midnight - Iron maiden

****************************************************************************

Hi there people, I saw that this tab was requested, so: here it is! Lead guitar at 
the top, rhythm in the middle, and the legends at the bottom.
Every guitarist has to be able to play this song. It's so good!!!

****************************************************************************

Lead (Dave)

     E  E  E  E  E  E  E  E     E  E  E  Q    Q.       
E||--------------------------|------------------------|
B||--------------------------|------------------------|
G||--------5--------7--------|--5--------7----7~------|
D||--------5--------7--------|--5--------7----7~------|
A||--0--0-----0--0-----0--0--|-----0--0---------------|
E||--------------------------|------------------------|


  E  E  E  E  E  E  E  E     E  E  E  Q    Q.      
--------------------------|-----------------------|
--------------------------|-----------------------|
--------5--------7--------|--5--------2----2------|
--------5--------7--------|--5--------2----2------|
--0--0-----0--0-----0--0--|-----0--0--0----0------|
--------------------------|-----------------------|


  E  E  E  E  E  E  E  E     E  E  E  Q    Q.       
--------------------------|------------------------|
--------------------------|------------------------|
--------5--------7--------|--5--------7----7~------|
--------5--------7--------|--5--------7----7~------|
--0--0-----0--0-----0--0--|-----0--0---------------|
--------------------------|------------------------|


  E  E  E  E  E  E  E  E     E  E  E  Q    Q.      
--------------------------|-----------------------|
--------------------------|-----------------------|
--------5--------7--------|--5--------2----2------|
--------5--------7--------|--5--------2----2------|
--0--0-----0--0-----0--0--|-----0--0--0----0------|
--------------------------|-----------------------|


  E  E  E  E  E  E  E  E     E  E  E  Q    Q.       
--------------------------|------------------------|
--------------------------|------------------------|
--------5--------7--------|--5--------7----7~------|
--------5--------7--------|--5--------7----7~------|
--0--0-----0--0-----0--0--|-----0--0---------------|
--------------------------|------------------------|


  E  E  E  E  E  E  E  E     E  E  E  Q    Q.      
--------------------------|-----------------------|
--------------------------|-----------------------|
--------5--------7--------|--5--------2----2------|
--------5--------7--------|--5--------2----2------|
--0--0-----0--0-----0--0--|-----0--0--0----0------|
--------------------------|-----------------------|


  E  E  E  E  E  E  E  E     E  E  E  Q    Q.       
--------------------------|------------------------|
--------------------------|------------------------|
--------5--------7--------|--5--------7----7~------|
--------5--------7--------|--5--------7----7~------|
--0--0-----0--0-----0--0--|-----0--0---------------|
--------------------------|------------------------|


  E  E  E  E  E  E  E  E     E  E  E  Q    Q.      
--------------------------|-----------------------|
--------------------------|-----------------------|
--------5--------7--------|--5--------2----2------|
--------5--------7--------|--5--------2----2------|
--0--0-----0--0-----0--0--|-----0--0--0----0------|
--------------------------|-----------------------|


  E  E  E  E  E  E  E  E     E  E  E  Q    Q.      
--------------------------|-----------------------|
--------------------------|-----------------------|
--------5--------7--------|--5--------7----7------|
--------5--------7--------|--5--------7----7------|
--0--0-----0--0-----0--0--|-----0--0--------------|
--------------------------|-----------------------|


  E  E  E  E  E  E  E  E     E  E  E  Q    E  E  E   
--------------------------|-------------------------|
--------------------------|-------------------------|
--------5--------7--------|--5--------2-------------|
--------5--------7--------|--5--------2-------------|
--0--0-----0--0-----0--0--|-----0--0--0----0--3--0--|
--------------------------|-------------------------|


  E  E  E  E  E  E  E  E     E  E  E  Q    Q.      
--------------------------|-----------------------|
--------------------------|-----------------------|
--------5--------7--------|--5--------7----7------|
--------5--------7--------|--5--------7----7------|
--0--0-----0--0-----0--0--|-----0--0--------------|
--------------------------|-----------------------|


  E  E  E  E  E  E  E  E     E  E  E  Q    E  E  E   
--------------------------|-------------------------|
--------------------------|-------------------------|
--------5--------7--------|--5--------2-------------|
--------5--------7--------|--5--------2-------------|
--0--0-----0--0-----0--0--|-----0--0--0----0--3--0--|
--------------------------|-------------------------|


  E  E  E  E  E  E  E  E     E  E  E  Q    Q.      
--------------------------|-----------------------|
--------------------------|-----------------------|
--------5--------7--------|--5--------7----7------|
--------5--------7--------|--5--------7----7------|
--0--0-----0--0-----0--0--|-----0--0--------------|
--------------------------|-----------------------|


  E  E  E  E  E  E  E  E     E  E  E  Q    E  E  E   
--------------------------|-------------------------|
--------------------------|-------------------------|
--------5--------7--------|--5--------2-------------|
--------5--------7--------|--5--------2-------------|
--0--0-----0--0-----0--0--|-----0--0--0----0--3--0--|
--------------------------|-------------------------|


  E  E  E  E  E  E  E  E     E  E  E  Q    Q.      
--------------------------|-----------------------|
--------------------------|-----------------------|
--------5--------7--------|--5--------7----7------|
--------5--------7--------|--5--------7----7------|
--0--0-----0--0-----0--0--|-----0--0--------------|
--------------------------|-----------------------|


  E  E  E  E  E  E  E  E     E  E  E  Q    E  E  E   
--------------------------|-------------------------|
--------------------------|-------------------------|
--------5--------7--------|--5--------2-------------|
--------5--------7--------|--5--------2-------------|
--0--0-----0--0-----0--0--|-----0--0--0----0--3--0--|
--------------------------|-------------------------|


  E  E  E  E  E  E  E  E     E  E  E  Q    Q.      
--------------------------|-----------------------|
--------------------------|-----------------------|
--------5--------7--------|--5--------7----7------|
--------5--------7--------|--5--------7----7------|
--0--0-----0--0-----0--0--|-----0--0--------------|
--------------------------|-----------------------|


  E  E  E  E  E  E  E  E     Q.     Q    E  E  E   
--------------------------|-----------------------|
--------------------------|-----------------------|
--------5--------7--------|--5------5----5--5--5--|
--------5--------7--------|--5------5----5--5--5--|
--5--5-----5--5-----5--5--|-----------------------|
--------------------------|-----------------------|


  E  E  E  E  E  E  E  E     E  E  E  Q    Q.      
--------------------------|-----------------------|
--------------------------|-----------------------|
--------5--------7--------|--5--------7----7------|
--------5--------7--------|--5--------7----7------|
--0--0-----0--0-----0--0--|-----0--0--------------|
--------------------------|-----------------------|


  E  E  E  E  E  E  E  E     Q.     Q    E  E  E   
--------------------------|-----------------------|
--------------------------|-----------------------|
--------5--------7--------|--5------5----5--5--5--|
--------5--------7--------|--5------5----5--5--5--|
--5--5-----5--5-----5--5--|-----------------------|
--------------------------|-----------------------|


  E  E  E  E  E  E  E  E     H        Q    E  E   
--------------------------|----------------------|
-----------------------6--|--L--------6----------|
--2--x--x--x--2--x--x--5--|--L--------5----x--x--|
--2--x--x--x--2--x--x--7--|-----------7----x--x--|
--0--x--x--x--0--x--x--0--|--L-------------------|
--------------------------|----------------------|


  E  E  E  E  E  E  E  E     H        E   E  E   E   
--------------------------|-------------------------|
--3-----------3-----------|-------------------------|
--4--x--x--x--4--------5--|--L--------5S--4--4p--2--|
--5--x--x--x--5--x--x--5--|--L--------5S--4--4p--2--|
-----------------x--x--3--|--L--------3-------------|
--------------------------|-------------------------|


  E  E  E  E  E  E  E  E     H        E   E  E   E   
--------------------------|-------------------------|
--------------------------|-------------------------|
-----------------------3--|--L--------3S--2--2p--0--|
--3--x--x--x--3--x--x--3--|--L--------3S--2--2p--0--|
--3--x--x--x--3--x--x--1--|--L--------1-------------|
--1--x--x--x--1--x--x-----|-------------------------|


  Q    E  E  Q    E  E     H        H         
------------------------|--------------------|
------------------------|--------------------|
--5----5--5--5----5--5--|--L-----------------|
--5----5--5--5----5--5--|--L--------5--------|
--3----3--3--3----3--2--|--L--------5--------|
------------------------|-----------3--------|


  E  E  E  E  E  E  E  E     H        Q    E  E   
--------------------------|----------------------|
-----------------------6--|--L--------6----------|
--2--x--x--x--2--x--x--5--|--L--------5----x--x--|
--2--x--x--x--2--x--x--7--|-----------7----x--x--|
--0--x--x--x--0--x--x--0--|--L-------------------|
--------------------------|----------------------|


  E  E  E  E  E  E  E  E     H        E   E  E   E   
--------------------------|-------------------------|
--3-----------3-----------|-------------------------|
--4--x--x--x--4--------5--|--L--------5S--4--4p--2--|
--5--x--x--x--5--x--x--5--|--L--------5S--4--4p--2--|
-----------------x--x--3--|--L--------3-------------|
--------------------------|-------------------------|


  E  E  E  E  E  E  E  E     H        E   E  E   E   
--------------------------|-------------------------|
--------------------------|-------------------------|
-----------------------3--|--L--------3S--2--2p--0--|
--3--x--x--x--3--x--x--3--|--L--------3S--2--2p--0--|
--3--x--x--x--3--x--x--1--|--L--------1-------------|
--1--x--x--x--1--x--x-----|-------------------------|


  H.           E  E     H.           E  E   
---------------------|---------------------|
---------------------|---------------------|
--2------------L--1--|--L------------------|
--2------------L--2--|--L---------------5--|
--2------------L--2--|--L---------------0--|
---------------------|---------------------|


  E  E  E  E  E  E  E  E     E  E  E  E  E  E  E  E   
--------------------------|--------------------------|
--------------------------|--------------------------|
--------------------------|--L-----------------------|
--L--7--7--7--7--5-----5--|--L--7--7--7--7--------5--|
--L--0--0--0--0-----7--0--|--L--0--0--0--0--5--7--3--|
--------------------------|--------------------------|


  H.           E  E     H.           E  E   
---------------------|---------------------|
---------------------|---------------------|
---------------------|------------------7--|
---------------L--5--|--L---------------7--|
---------------L--5--|--L---------------5--|
---------------------|---------------3-----|


  W                   H.           E   E   
-------------------|----------------------|
-------------------|----------------------|
--L----------------|--L------------L--10--|
--L----------------|--L------------L--10--|
--L----------------|--L------------L---8--|
-------------------|----------------------|


  H.           E   E     H.           E  E   
----------------------|---------------------|
----------------------|---------------------|
--L------------L--12--|--L------------L-----|
--L------------L--12--|--L------------L--5--|
--L------------L--10--|--L------------L--0--|
----------------------|---------------------|


  E  E  E  E  E  E  E  E     E  E  E  E  E  E  E  E   
--------------------------|--------------------------|
--------------------------|--------------------------|
--------------------------|--L-----------------------|
--L--7--7--7--7--5-----5--|--L--7--7--7--7--------5--|
--L--0--0--0--0-----7--0--|--L--0--0--0--0--5--7--3--|
--------------------------|--------------------------|


  H.           E  E     H.           E  E   
---------------------|---------------------|
---------------------|---------------------|
---------------------|------------------7--|
---------------L--5--|--L---------------7--|
---------------L--5--|--L---------------5--|
---------------------|---------------3-----|


  W                   H.           E   E   
-------------------|----------------------|
-------------------|----------------------|
--L----------------|--L------------L--10--|
--L----------------|--L------------L--10--|
--L----------------|--L------------L---8--|
-------------------|----------------------|


  H.           E   E     H.           E  E   
----------------------|---------------------|
----------------------|---------------L-----|
--L------------L--12--|--L------------L--2--|
--L------------L--12--|--L------------L--2--|
--L------------L--10--|--L------------L--0--|
----------------------|---------------------|


  E  E  E  E  E  E  E  E     E  E  E  Q    Q.      
--------------------------|-----------------------|
--------------------------|-----------------------|
--L-----5--------7--------|--5--------7----7------|
--L-----5--------7--------|--5--------7----7------|
--L--0-----0--0-----0--0--|-----0--0--------------|
--------------------------|-----------------------|


  E  E  E  E  E  E  E  E     E  E  E  Q    Q.      
--------------------------|-----------------------|
--------------------------|-----------------------|
--------5--------7--------|--5--------2----2------|
--------5--------7--------|--5--------2----2------|
--0--0-----0--0-----0--0--|-----0--0--0----0------|
--------------------------|-----------------------|


  E  E  E  E  E  E  E  E     E  E  E  Q    Q.      
--------------------------|-----------------------|
--------------------------|-----------------------|
--------5--------7--------|--5--------7----7------|
--------5--------7--------|--5--------7----7------|
--0--0-----0--0-----0--0--|-----0--0--------------|
--------------------------|-----------------------|


  E  E  E  E  E  E  E  E     E  E  E  Q    E  E  E   
--------------------------|-------------------------|
--------------------------|-------------------------|
--------5--------7--------|--5--------2-------------|
--------5--------7--------|--5--------2-------------|
--0--0-----0--0-----0--0--|-----0--0--0----0--3--0--|
--------------------------|-------------------------|


  E  E  E  E  E  E  E  E     E  E  E  Q    Q.      
--------------------------|-----------------------|
--------------------------|-----------------------|
--------5--------7--------|--5--------7----7------|
--------5--------7--------|--5--------7----7------|
--0--0-----0--0-----0--0--|-----0--0--------------|
--------------------------|-----------------------|


  E  E  E  E  E  E  E  E     E  E  E  Q    E  E  E   
--------------------------|-------------------------|
--------------------------|-------------------------|
--------5--------7--------|--5--------2-------------|
--------5--------7--------|--5--------2-------------|
--0--0-----0--0-----0--0--|-----0--0--0----0--3--0--|
--------------------------|-------------------------|


  E  E  E  E  E  E  E  E     E  E  E  Q    Q.      
--------------------------|-----------------------|
--------------------------|-----------------------|
--------5--------7--------|--5--------7----7------|
--------5--------7--------|--5--------7----7------|
--0--0-----0--0-----0--0--|-----0--0--------------|
--------------------------|-----------------------|


  E  E  E  E  E  E  E  E     E  E  E  Q    E  E  E   
--------------------------|-------------------------|
--------------------------|-------------------------|
--------5--------7--------|--5--------2-------------|
--------5--------7--------|--5--------2-------------|
--0--0-----0--0-----0--0--|-----0--0--0----0--3--0--|
--------------------------|-------------------------|


  E  E  E  E  E  E  E  E     E  E  E  Q    Q.      
--------------------------|-----------------------|
--------------------------|-----------------------|
--------5--------7--------|--5--------7----7------|
--------5--------7--------|--5--------7----7------|
--0--0-----0--0-----0--0--|-----0--0--------------|
--------------------------|-----------------------|


  E  E  E  E  E  E  E  E     Q.     Q    E  E  E   
--------------------------|-----------------------|
--------------------------|-----------------------|
--------5--------7--------|--5------5----5--5--5--|
--------5--------7--------|--5------5----5--5--5--|
--5--5-----5--5-----5--5--|-----------------------|
--------------------------|-----------------------|


  E  E  E  E  E  E  E  E     E  E  E  Q    Q.      
--------------------------|-----------------------|
--------------------------|-----------------------|
--------5--------7--------|--5--------7----7------|
--------5--------7--------|--5--------7----7------|
--0--0-----0--0-----0--0--|-----0--0--------------|
--------------------------|-----------------------|


  E  E  E  E  E  E  E  E     Q.     Q    E  E  E   
--------------------------|-----------------------|
--------------------------|-----------------------|
--------5--------7--------|--5------5----5--5--5--|
--------5--------7--------|--5------5----5--5--5--|
--5--5-----5--5-----5--5--|-----------------------|
--------------------------|-----------------------|


  E  E  E  E  E  E  E  E     H        Q    E  E   
--------------------------|----------------------|
-----------------------6--|--L--------6----------|
--2--x--x--x--2--x--x--5--|--L--------5----x--x--|
--2--x--x--x--2--x--x--7--|-----------7----x--x--|
--0--x--x--x--0--x--x--0--|--L-------------------|
--------------------------|----------------------|


  E  E  E  E  E  E  E  E     H        E   E  E   E   
--------------------------|-------------------------|
--3-----------3-----------|-------------------------|
--4--x--x--x--4--------5--|--L--------5S--4--4p--2--|
--5--x--x--x--5--x--x--5--|--L--------5S--4--4p--2--|
-----------------x--x--3--|--L--------3-------------|
--------------------------|-------------------------|


  E  E  E  E  E  E  E  E     H        E   E  E   E   
--------------------------|-------------------------|
--------------------------|-------------------------|
-----------------------3--|--L--------3S--2--2p--0--|
--3--x--x--x--3--x--x--3--|--L--------3S--2--2p--0--|
--3--x--x--x--3--x--x--1--|--L--------1-------------|
--1--x--x--x--1--x--x-----|-------------------------|


  Q    E  E  Q    E  E     H        H         
------------------------|--------------------|
------------------------|--------------------|
--5----5--5--5----5--5--|--L-----------------|
--5----5--5--5----5--5--|--L--------5--------|
--3----3--3--3----3--2--|--L--------5--------|
------------------------|-----------3--------|


  E  E  E  E  E  E  E  E     H        Q    E  E   
--------------------------|----------------------|
-----------------------6--|--L--------6----------|
--2--x--x--x--2--x--x--5--|--L--------5----x--x--|
--2--x--x--x--2--x--x--7--|-----------7----x--x--|
--0--x--x--x--0--x--x--0--|--L-------------------|
--------------------------|----------------------|


  E  E  E  E  E  E  E  E     H        E   E  E   E   
--------------------------|-------------------------|
--3-----------3-----------|-------------------------|
--4--x--x--x--4--------5--|--L--------5S--4--4p--2--|
--5--x--x--x--5--x--x--5--|--L--------5S--4--4p--2--|
-----------------x--x--3--|--L--------3-------------|
--------------------------|-------------------------|


  E  E  E  E  E  E  E  E     H        E   E  E   E   
--------------------------|-------------------------|
--------------------------|-------------------------|
-----------------------3--|--L--------3S--2--2p--0--|
--3--x--x--x--3--x--x--3--|--L--------3S--2--2p--0--|
--3--x--x--x--3--x--x--1--|--L--------1-------------|
--1--x--x--x--1--x--x-----|-------------------------|


  H.           E  E     H.           E  E   
---------------------|---------------------|
---------------------|---------------------|
--2------------L--1--|--L------------------|
--2------------L--2--|--L---------------5--|
--2------------L--2--|--L---------------0--|
---------------------|---------------------|


  E  E  E  E  E  E  E  E     E  E  E  E  E  E  E  E   
--------------------------|--------------------------|
--------------------------|--------------------------|
--------------------------|--------------------------|
--L--7--7--7--7--5-----5--|--L--7--7--7--7--------5--|
--L--0--0--0--0-----7--0--|--L--0--0--0--0--5--7--3--|
--------------------------|--------------------------|


  H.           E  E     H.           E  E   
---------------------|---------------------|
---------------------|---------------------|
---------------------|------------------7--|
---------------L--5--|--L---------------7--|
---------------L--5--|--L---------------5--|
---------------------|---------------3-----|


  W                   H.           E   E   
-------------------|----------------------|
-------------------|----------------------|
--L----------------|--L------------L--10--|
--L----------------|--L------------L--10--|
--L----------------|--L------------L---8--|
-------------------|----------------------|


  H.           E   E     H.           E  E   
----------------------|---------------------|
----------------------|---------------------|
--L------------L--12--|--L------------L-----|
--L------------L--12--|--L------------L--5--|
--L------------L--10--|--L------------L--0--|
----------------------|---------------------|


  E  E  E  E  E  E  E  E     E  E  E  E  E  E  E  E   
--------------------------|--------------------------|
--------------------------|--------------------------|
--------------------------|--L-----------------------|
--L--7--7--7--7--5-----5--|--L--7--7--7--7--------5--|
--L--0--0--0--0-----7--0--|--L--0--0--0--0--5--7--3--|
--------------------------|--------------------------|


  H.           E  E     H.           E  E   
---------------------|---------------------|
---------------------|---------------------|
---------------------|------------------7--|
---------------L--5--|--L---------------7--|
---------------L--5--|--L---------------5--|
---------------------|---------------3-----|


  W                   H.           E   E   
-------------------|----------------------|
-------------------|----------------------|
--L----------------|--L------------L--10--|
--L----------------|--L------------L--10--|
--L----------------|--L------------L---8--|
-------------------|----------------------|


  H.           E   E     H.           E  E   
----------------------|---------------------|
----------------------|---------------------|
--L------------L--12--|--L------------L--2--|
--L------------L--12--|--L------------L--2--|
--L------------L--10--|--L------------L--0--|
----------------------|---------------------|


                                                  \1/  
                                    |---3---|          
  W                     Q    E   E  E   E   E  E  E    
---------------------|--------------------------------|
---------------------|--------------------------------|
--7br----------------|--L----7p--5--4h--5p--4---------|
---------------------|-------------------------7--5---|
---------------------|--------------------------------|
---------------------|--------------------------------|


                                 |----3----|     
  H.           Q        H        Q    Q    Q     
---------------------|--------------------------|
---------------------|----------------5----6----|
---------------------|--------------------------|
--L------------5~----|--L-----------------------|
---------------------|--------------------------|
---------------------|--------------------------|


  E   E   S  S  E   S  S  S  S  S  E   S   
------------------------------------------|
--8p--6p--5h-6p-5h--5h-6p-5h-8p-6p-5h--5h-|
------------------------------------------|
------------------------------------------|
------------------------------------------|
------------------------------------------|


                      |---3---|         
  S  S  S  S  E  S  S E   E   E   Q     
---------------------------------------|
--6p-5h-8p-6p-5------------------------|
-----------------7p-5-7p--5p--4h--4----|
---------------------------------------|
---------------------------------------|
---------------------------------------|


  \1/                                       
  H.           E   E      W                 
-----------------------|-------------------|
-----------------------|-------------------|
------------------12~--|--L----------------|
--5------------L-------|-------------------|
-----------------------|-------------------|
-----------------------|-------------------|


   Q.       E    E   Q.       
--------------------15b------|
--15b------15p--13-----------|
-----------------------------|
-----------------------------|
-----------------------------|
-----------------------------|


  Q     S     S  E   E   E   E   E   
--L----15pbr--L-12--15------12------|
------------------------15------13--|
------------------------------------|
------------------------------------|
------------------------------------|
------------------------------------|


   E    E   E   E      E   E   E   E    
-----------15--------------------------|
--15b---L------15pbr---L---L--13-------|
----------------------------------14~--|
---------------------------------------|
---------------------------------------|
---------------------------------------|


                 tremolo pick          
  H        Q     S            S  S  S  
--------------------------------------|
----------------12-----------12-12-12-|
--L-----------------------------------|
--------------------------------------|
--------------------------------------|
--------------------------------------|


   S  S  S  S   S  S  S  S   S  S  S  S  S  S  S  S   
----------------------------------------12-12-12-12S-|
--12-12-12-12S-13-13-13-13S-15-15-15-15--------------|
-----------------------------------------------------|
-----------------------------------------------------|
-----------------------------------------------------|
-----------------------------------------------------|


                             |---3---|             
   S  S  S  S   S  S  S  S   E   E   E    E   E    
--13-13-13-13S-15-15-15-15S-17--17--17S--20--20b--|
--------------------------------------------------|
--------------------------------------------------|
--------------------------------------------------|
--------------------------------------------------|
--------------------------------------------------|


   Q.      E      E   S   S  Q      
---L------20pbr---L--20p-17--------|
----------------------------20b----|
-----------------------------------|
-----------------------------------|
-----------------------------------|
-----------------------------------|


  H.             Q         Q.     E  Q    Q     
------------------------|----------------------|
--L------------(22)S----|-----------------3----|
------------------------|--9------9-------0----|
------------------------|--9------9-------0----|
------------------------|--7------7-------2----|
------------------------|----------------------|


  Q     E   E  Q     E   E     Q.     E  Q    Q     
----------------------------|----------------------|
--L-----x---x--3-----x---x--|----------------------|
--L-----x---x--0-----x---x--|--5------5-------6----|
--L-----x---x--0-----x---x--|--5------5-------7----|
--L-----x---x--2-----x---x--|--3------3-------4----|
----------------------------|----------------------|


  Q    E  E  E  E  E  E     Q.     E  Q    Q     
-------------------------|----------------------|
-------------------------|-----------------3----|
--L----------------------|--9------9-------0----|
--L-------------4--5--7--|--9------9-------0----|
--L----4--5--6-----------|--7------7-------2----|
-------------------------|----------------------|


  Q     E   E  Q     E   E     Q.     Q.     Q     
----------------------------|---------------------|
--L-----x---x--3-----x---x--|---------------------|
--L-----x---x--0-----x---x--|--5------5------6----|
--L-----x---x--0-----x---x--|--5------5------7----|
--L-----x---x--2-----x---x--|--3------3------4----|
----------------------------|---------------------|


  Q    E  E  E  E  E  E     Q.     E  Q    Q     
-------------------------|----------------------|
-------------------------|-----------------3----|
--L----------------------|--9------9-------0----|
--L----------------------|--9------9-------0----|
--L-------2--5--2--------|--7------7-------2----|
-------5-----------5--3--|----------------------|


  Q     E   E  Q     E   E     Q.     E  Q    Q     
----------------------------|----------------------|
--L-----x---x--3-----x---x--|----------------------|
--L-----x---x--0-----x---x--|--5------5-------6----|
--L-----x---x--0-----x---x--|--5------5-------7----|
--L-----x---x--2-----x---x--|--3------3-------4----|
----------------------------|----------------------|


  Q    E  E  E  E  E  E     Q.     E  Q    Q     
-------------------------|----------------------|
-------------------------|-----------------3----|
--L----------------------|--9------9-------0----|
--L-------------4--5--7--|--9------9-------0----|
--L----4--5--6-----------|--7------7-------2----|
-------------------------|----------------------|


  Q     E   E  Q     E   E     Q.     Q.     Q     
----------------------------|---------------------|
--L-----x---x--3-----x---x--|---------------------|
--L-----x---x--0-----x---x--|--5------5------6----|
--L-----x---x--0-----x---x--|--5------5------7----|
--L-----x---x--2-----x---x--|--3------3------4----|
----------------------------|---------------------|


  Q    E  E  E  E  E  E     W                 
-------------------------|-------------------|
-------------------------|-------------------|
--L----------------------|--5----------------|
--L----------------------|--5----------------|
--L-------2--5--2--------|--3----------------|
-------5-----------5--3--|-------------------|


  W                   W                 
-------------------|-------------------|
-------------------|-------------------|
--L----------------|--7----------------|
--L----------------|--7----------------|
--L----------------|--5----------------|
-------------------|-------------------|


  W                   Q    Q.     Q.      
-------------------|---------------------|
-------------------|---------------------|
--L----------------|--x----9------7------|
--L----------------|--x----9------7------|
--L----------------|--7----7------5------|
-------------------|---------------------|


  W                    Q.     Q.     Q     
-------------------|----------------------|
-------------------|----------------------|
--9----------------|--12------7------9----|
--9----------------|--12------7------9----|
--7----------------|--10------5------7----|
-------------------|----------------------|


  W                   W                 
-------------------|-------------------|
-------------------|-------------------|
--L----------------|--5----------------|
--L----------------|--5----------------|
--L----------------|--3----------------|
-------------------|-------------------|


  W                   W                 
-------------------|-------------------|
-------------------|-------------------|
--L----------------|--7----------------|
--L----------------|--7----------------|
--L----------------|--5----------------|
-------------------|-------------------|


  W                   Q    Q.     Q.      
-------------------|---------------------|
-------------------|---------------------|
--L----------------|--x----9------7------|
--L----------------|--x----9------7------|
--L----------------|--7----7------5------|
-------------------|---------------------|


  W                    Q.     Q.     Q     
-------------------|----------------------|
-------------------|----------------------|
--9----------------|--12------7------9----|
--9----------------|--12------7------9----|
--7----------------|--10------5------7----|
-------------------|----------------------|


                         \2                
  H.            Q        W                 
---------------------|--------------------|
---------------17----|--15----------------|
--L------------------|--------------------|
--L------------------|--------------------|
--L------------------|--------------------|
---------------------|--------------------|


                |----3----|                           
  H.            E     E   E      H         Q    Q     
-----------------------------|-----------------------|
--L--------------------------|-----------------------|
---------------14br---L--12--|--14~--------L----L----|
-----------------------------|-----------------------|
-----------------------------|-----------------------|
-----------------------------|-----------------------|


  Q    Q     Q     E   E      W                  
--------------------------|---------------------|
--------------------------|---------------------|
--L----L----11------------|---------------------|
------------------12------|--12~----------------|
----------------------14--|---------------------|
--------------------------|---------------------|


  W                   W                 
-------------------|-------------------|
-------------------|-------------------|
-------------------|-------------------|
--L----------------|--L----------------|
-------------------|-------------------|
-------------------|-------------------|


                         \2                
  H.            Q        W                 
---------------------|--------------------|
---------------17----|--15----------------|
---------------------|--------------------|
--L------------------|--------------------|
---------------------|--------------------|
---------------------|--------------------|


                |----3----|                           
  H.            E     E   E      H         Q    Q     
-----------------------------|-----------------------|
--L--------------------------|-----------------------|
---------------14br---L--12--|--14~--------L----L----|
-----------------------------|-----------------------|
-----------------------------|-----------------------|
-----------------------------|-----------------------|


  Q    Q     Q     Q        W                  
------------------------|---------------------|
------------12----13----|--12~----------------|
--L----L----------------|---------------------|
------------------------|---------------------|
------------------------|---------------------|
------------------------|---------------------|


                      \4                
  W                   W                 
-------------------|-------------------|
--L----------------|-------------------|
-------------------|--0----------------|
-------------------|-------------------|
-------------------|-------------------|
-------------------|-------------------|


  W                   W                 
-------------------|-------------------|
-------------------|-------------------|
-------------------|--5----------------|
-------------------|--5----------------|
-------------------|--3----------------|
-------------------|-------------------|


  W                   W                 
-------------------|-------------------|
-------------------|-------------------|
--L----------------|--7----------------|
--L----------------|--7----------------|
--L----------------|--5----------------|
-------------------|-------------------|


  H.           E  E     E  E  E  E  E  E  E  E   
---------------------|--------------------------|
---------------------|--------------------------|
--L---------------2--|--L-----5--------7--------|
--L---------------2--|--L-----5--------7--------|
--L---------------0--|--L--0-----0--0-----0--0--|
---------------------|--------------------------|


  E  E  E  Q    Q.        E  E  E  E  E  E  E  E   
-----------------------|--------------------------|
-----------------------|--------------------------|
--5--------7----7------|--------5--------7--------|
--5--------7----7------|--------5--------7--------|
-----0--0--------------|--0--0-----0--0-----0--0--|
-----------------------|--------------------------|


  E  E  E  Q    Q.        E  E  E  E  E  E  E  E   
-----------------------|--------------------------|
-----------------------|--------------------------|
--5--------2----2------|--------5--------7--------|
--5--------2----2------|--------5--------7--------|
-----0--0--0----0------|--0--0-----0--0-----0--0--|
-----------------------|--------------------------|


  E  E  E  Q    Q.        E  E  E  E  E  E  E  E   
-----------------------|--------------------------|
-----------------------|--------------------------|
--5--------7----7------|--------5--------7--------|
--5--------7----7------|--------5--------7--------|
-----0--0--------------|--0--0-----0--0-----0--0--|
-----------------------|--------------------------|


  E  E  E  Q    E  E  E     E  E  E  E  E  E  E  E   
-------------------------|--------------------------|
-------------------------|--------------------------|
--5--------2-------------|--------5--------7--------|
--5--------2-------------|--------5--------7--------|
-----0--0--0----0--3--0--|--0--0-----0--0-----0--0--|
-------------------------|--------------------------|


  E  E  E  Q    Q.        E  E  E  E  E  E  E  E   
-----------------------|--------------------------|
-----------------------|--------------------------|
--5--------7----7------|--------5--------7--------|
--5--------7----7------|--------5--------7--------|
-----0--0--------------|--0--0-----0--0-----0--0--|
-----------------------|--------------------------|


  E  E  E  Q    E  E  E     E  E  E  E  E  E  E  E   
-------------------------|--------------------------|
-------------------------|--------------------------|
--5--------2-------------|--------5--------7--------|
--5--------2-------------|--------5--------7--------|
-----0--0--0----0--3--0--|--0--0-----0--0-----0--0--|
-------------------------|--------------------------|


  E  E  E  Q    Q.        E  E  E  E  E  E  E  E   
-----------------------|--------------------------|
-----------------------|--------------------------|
--5--------7----7------|--------5--------7--------|
--5--------7----7------|--------5--------7--------|
-----0--0--------------|--0--0-----0--0-----0--0--|
-----------------------|--------------------------|


  E  E  E  Q    E  E  E     E  E  E  E  E  E  E  E   
-------------------------|--------------------------|
-------------------------|--------------------------|
--5--------2-------------|--------5--------7--------|
--5--------2-------------|--------5--------7--------|
-----0--0--0----0--3--0--|--0--0-----0--0-----0--0--|
-------------------------|--------------------------|


  E  E  E  Q    Q.        E  E  E  E  E  E  E  E   
-----------------------|--------------------------|
-----------------------|--------------------------|
--5--------7----7------|--------5--------7--------|
--5--------7----7------|--------5--------7--------|
-----0--0--------------|--5--5-----5--5-----5--5--|
-----------------------|--------------------------|


  Q.     Q    E  E  E     E  E  E  E  E  E  E  E   
-----------------------|--------------------------|
-----------------------|--------------------------|
--5------5----5--5--5--|--------5--------7--------|
--5------5----5--5--5--|--------5--------7--------|
-----------------------|--0--0-----0--0-----0--0--|
-----------------------|--------------------------|


  E  E  E  Q    Q.        E  E  E  E  E  E  E  E   
-----------------------|--------------------------|
-----------------------|--------------------------|
--5--------7----7------|--------5--------7--------|
--5--------7----7------|--------5--------7--------|
-----0--0--------------|--5--5-----5--5-----5--5--|
-----------------------|--------------------------|


  Q.     Q    E  E  E     E  E  E  E  E  E  E  E   
-----------------------|--------------------------|
-----------------------|-----------------------6--|
--5------5----5--5--5--|--2--x--x--x--2--x--x--5--|
--5------5----5--5--5--|--2--x--x--x--2--x--x--7--|
-----------------------|--0--x--x--x--0--x--x--0--|
-----------------------|--------------------------|


  H        Q    E  E     E  E  E  E  E  E  E  E   
----------------------|--------------------------|
--L--------6----------|--3-----------3-----------|
--L--------5----x--x--|--4--x--x--x--4--------5--|
-----------7----x--x--|--5--x--x--x--5--x--x--5--|
--L-------------------|-----------------x--x--3--|
----------------------|--------------------------|


  H        E   E  E   E     E  E  E  E  E  E  E  E   
-------------------------|--------------------------|
-------------------------|--------------------------|
--L--------5S--4--4p--2--|-----------------------3--|
--L--------5S--4--4p--2--|--3--x--x--x--3--x--x--3--|
--L--------3-------------|--3--x--x--x--3--x--x--1--|
-------------------------|--1--x--x--x--1--x--x-----|


  H        E   E  E   E     Q    E  E  Q    E  E   
-------------------------|------------------------|
-------------------------|------------------------|
--L--------3S--2--2p--0--|--5----5--5--5----5--5--|
--L--------3S--2--2p--0--|--5----5--5--5----5--5--|
--L--------1-------------|--3----3--3--3----3--2--|
-------------------------|------------------------|


  H        H           E  E  E  E  E  E  E  E   
--------------------|--------------------------|
--------------------|-----------------------6--|
--L-----------------|--2--x--x--x--2--x--x--5--|
--L--------5--------|--2--x--x--x--2--x--x--7--|
--L--------5--------|--0--x--x--x--0--x--x--0--|
-----------3--------|--------------------------|


  H        Q    E  E     E  E  E  E  E  E  E  E   
----------------------|--------------------------|
--L--------6----------|--3-----------3-----------|
--L--------5----x--x--|--4--x--x--x--4--------5--|
-----------7----x--x--|--5--x--x--x--5--x--x--5--|
--L-------------------|-----------------x--x--3--|
----------------------|--------------------------|


  H        E   E  E   E     E  E  E  E  E  E  E  E   
-------------------------|--------------------------|
-------------------------|--------------------------|
--L--------5S--4--4p--2--|-----------------------3--|
--L--------5S--4--4p--2--|--3--x--x--x--3--x--x--3--|
--L--------3-------------|--3--x--x--x--3--x--x--1--|
-------------------------|--1--x--x--x--1--x--x-----|


  H        E   E  E   E     H.           E  E   
-------------------------|---------------------|
-------------------------|---------------------|
--L--------3S--2--2p--0--|--2------------L--1--|
--L--------3S--2--2p--0--|--2------------L--2--|
--L--------1-------------|--2------------L--2--|
-------------------------|---------------------|


  H.           E  E     E  E  E  E  E  E  E  E   
---------------------|--------------------------|
---------------------|--------------------------|
--L------------------|--------------------------|
--L---------------5--|--L--7--7--7--7--5-----5--|
--L---------------0--|--L--0--0--0--0-----7--0--|
---------------------|--------------------------|


  E  E  E  E  E  E  E  E     H.           E  E   
--------------------------|---------------------|
--------------------------|---------------------|
--------------------------|---------------------|
--L--7--7--7--7--------5--|---------------L--5--|
--L--0--0--0--0--5--7--3--|---------------L--5--|
--------------------------|---------------------|


  H.           E  E     W                 
---------------------|-------------------|
---------------------|-------------------|
------------------7--|--L----------------|
--L---------------7--|--L----------------|
--L---------------5--|--L----------------|
---------------3-----|-------------------|


  H.           E   E     H.           E   E   
----------------------|----------------------|
----------------------|----------------------|
--L------------L--10--|--L------------L--12--|
--L------------L--10--|--L------------L--12--|
--L------------L---8--|--L------------L--10--|
----------------------|----------------------|


  H.           E  E     E  E  E  E  E  E  E  E   
---------------------|--------------------------|
---------------------|--------------------------|
--L------------L-----|--------------------------|
--L------------L--5--|--L--7--7--7--7--5-----5--|
--L------------L--0--|--L--0--0--0--0-----7--0--|
---------------------|--------------------------|


  E  E  E  E  E  E  E  E     H.           E  E   
--------------------------|---------------------|
--------------------------|---------------------|
--------------------------|---------------------|
--L--7--7--7--7--------5--|---------------L--5--|
--L--0--0--0--0--5--7--3--|---------------L--5--|
--------------------------|---------------------|


  H.           E  E     W                 
---------------------|-------------------|
---------------------|-------------------|
------------------7--|--L----------------|
--L---------------7--|--L----------------|
--L---------------5--|--L----------------|
---------------3-----|-------------------|


  H.           E   E     H.           E   E   
----------------------|----------------------|
----------------------|----------------------|
--L------------L--10--|--L------------L--12--|
--L------------L--10--|--L------------L--12--|
--L------------L---8--|--L------------L--10--|
----------------------|----------------------|


  H.           E  E      Q.      H        E   
---------------------|-----------------------|
---------------------|-----------------------|
--L------------L--x--|--12------14--------L--|
--L------------L--x--|--12------14--------L--|
--L------------L--x--|--10------12--------L--|
---------------------|-----------------------|


  W                   Q.     H        E   
-------------------|---------------------|
-------------------|--6------8--------L--|
--L----------------|--5------7--------L--|
--L----------------|--3------5--------L--|
--L----------------|---------------------|
-------------------|---------------------|


  W                   Q.     H        E   
-------------------|---------------------|
--L----------------|---------------------|
--L----------------|--5------7--------L--|
--L----------------|--5------7--------L--|
-------------------|--3------5--------L--|
-------------------|---------------------|


  W                   Q.     H        E   
-------------------|---------------------|
-------------------|---------------------|
--L----------------|--5------2--------L--|
--L----------------|--5------2--------L--|
--L----------------|--3------0--------L--|
-------------------|---------------------|


  W                    Q.      H        E   
-------------------|-----------------------|
-------------------|-----------------------|
--L----------------|--12------14--------L--|
--L----------------|--12------14--------L--|
--L----------------|--10------12--------L--|
-------------------|-----------------------|


  W                   Q.     H        E   
-------------------|---------------------|
-------------------|--6------8--------L--|
--L----------------|--5------7--------L--|
--L----------------|--3------5--------L--|
--L----------------|---------------------|
-------------------|---------------------|


  W                   Q.     H        E   
-------------------|---------------------|
--L----------------|---------------------|
--L----------------|--5------7--------L--|
--L----------------|--5------7--------L--|
-------------------|--3------5--------L--|
-------------------|---------------------|


  W                   Q.     H        E   
-------------------|---------------------|
-------------------|---------------------|
--L----------------|--5------2--------L--|
--L----------------|--5------2--------L--|
--L----------------|--3------0--------L--|
-------------------|---------------------|


  W                    Q.      E   E   E   E   E   
-------------------|------------------------------|
-------------------|------------------------------|
--L----------------|--12------14---x---x---x---x--|
--L----------------|--12------14---x---x---x---x--|
--L----------------|--10------12--12--12--12--12--|
-------------------|------------------------------|


   E   E   E   E   E   E   E   E   
----------------------------------|
----------------------------------|
---x---x---x---x---x---x---x---x--|
---x---x---x---x---x---x---x---x--|
--12--12--12--12--12--12--12--12--|
----------------------------------|


  Q.     E  E  E  E  E     E  E  E  E  E  E  E  E   
------------------------|--------------------------|
--6------8--x--x--x--x--|--8--x--x--8--x--x--8--x--|
--5------7--x--x--x--x--|--7--x--x--7--x--x--7-----|
--3------5--5--5--5--5--|--5--5--5--5--5--5--5-----|
------------------------|--------------------------|
------------------------|--------------------------|


  Q.     E  E  E  E  E     E  E  E  E  E  E  E  E   
------------------------|--------------------------|
------------------------|--------------------------|
--5------7--x--x--x--x--|--7--x--x--7--x--x--7--x--|
--5------7--x--x--x--x--|--7--x--x--7--x--x--7--x--|
--3------5--5--5--5--5--|--5--5--5--5--5--5--5--x--|
------------------------|--------------------------|


  Q.     Q    E  E  E     E  E  E  E  E  E  E  E   
-----------------------|--------------------------|
-----------------------|--------------------------|
--5------2----x--x--x--|--------------------------|
--5------2----x--x--x--|--------------------------|
--3------0----0--0--0--|--0--0--0--0--0--0--0--0--|
-----------------------|--------------------------|


   Q.      E   E   E   E   E   
------------------------------|
------------------------------|
--12------14---x---x---x---x--|
--12------14---x---x---x---x--|
--10------12--12--12--12--12--|
------------------------------|


   E   E   E   E   E   E   E   E   
----------------------------------|
----------------------------------|
---x---x---x---x---x---x---x---x--|
---x---x---x---x---x---x---x---x--|
--12--12--12--12--12--12--12--12--|
----------------------------------|


  Q.     E  E  E  E  E     E  E  E  E  E  E  E  E   
------------------------|--------------------------|
--6------8--x--x--x--x--|--8--x--x--8--x--x--8--x--|
--5------7--x--x--x--x--|--7--x--x--7--x--x--7-----|
--3------5--5--5--5--5--|--5--5--5--5--5--5--5-----|
------------------------|--------------------------|
------------------------|--------------------------|


  Q.     E  E  E  E  E     E  E  E  E  E  E  E  E   
------------------------|--------------------------|
------------------------|--------------------------|
--5------7--x--x--x--x--|--7--x--x--7--x--x--7--x--|
--5------7--x--x--x--x--|--7--x--x--7--x--x--7--x--|
--3------5--5--5--5--5--|--5--5--5--5--5--5--5--x--|
------------------------|--------------------------|


  Q.     H        E          
---------------------|-----||
---------------------|-----||
--5------2-----------|-----||
--5------2-----------|-----||
--3------0-----------|-----||
---------------------|-----||

Rhythm (Adrian)

     W                   W                 
E||-------------------|-------------------|
B||-------------------|-------------------|
G||-------------------|-------------------|
D||-------------------|-------------------|
A||-------------------|-------------------|
E||-------------------|-------------------|


  W                   H        E  E  E  E   
-------------------|-----------------------|
-------------------|-----------------------|
-------------------|--------------2--2--2--|
-------------------|--------------2--2--2--|
-------------------|--------------0--0--0--|
-------------------|-----------------------|


  Q    H.              W                 
--------------------|-------------------|
--------------------|-------------------|
--2-----------------|-------------------|
--2-----------------|-------------------|
--0-----------------|-------------------|
--------------------|-------------------|


  W                   H.           E  E   
-------------------|---------------------|
-------------------|---------------------|
-------------------|------------------2--|
-------------------|------------------2--|
-------------------|------------------0--|
-------------------|---------------------|


  Q    H.              W                 
--------------------|-------------------|
--------------------|-------------------|
--L-----------------|-------------------|
--L-----------------|-------------------|
--L-----------------|-------------------|
--------------------|-------------------|


  W                   H        E  E  E  E   
-------------------|-----------------------|
-------------------|-----------------------|
-------------------|--------------2--2--2--|
-------------------|--------------2--2--2--|
-------------------|--------------0--0--0--|
-------------------|-----------------------|


  Q    H.              W                 
--------------------|-------------------|
--------------------|-------------------|
--2-----------------|-------------------|
--2-----------------|-------------------|
--0-----------------|-------------------|
--------------------|-------------------|


  W                   W                 
-------------------|-------------------|
-------------------|-------------------|
-------------------|-------------------|
-------------------|-------------------|
-------------------|-------------------|
-------------------|-------------------|


  E  E  E  E  E  E  E  E     E  E  E  Q    Q.      
--------------------------|-----------------------|
--------------------------|-----------------------|
--------5--------7--------|--5--------7----7------|
--------5--------7--------|--5--------7----7------|
--0--0-----0--0-----0--0--|-----0--0--------------|
--------------------------|-----------------------|


  E  E  E  E  E  E  E  E     E  E  E  Q    E  E  E   
--------------------------|-------------------------|
--------------------------|-------------------------|
--------5--------7--------|--5--------2-------------|
--------5--------7--------|--5--------2-------------|
--0--0-----0--0-----0--0--|-----0--0--0----0--3--0--|
--------------------------|-------------------------|


  E  E  E  E  E  E  E  E     E  E  E  Q    Q.      
--------------------------|-----------------------|
--------------------------|-----------------------|
--------5--------7--------|--5--------7----7------|
--------5--------7--------|--5--------7----7------|
--0--0-----0--0-----0--0--|-----0--0--------------|
--------------------------|-----------------------|


  E  E  E  E  E  E  E  E     E  E  E  Q    E  E  E   
--------------------------|-------------------------|
--------------------------|-------------------------|
--------5--------7--------|--5--------2-------------|
--------5--------7--------|--5--------2-------------|
--0--0-----0--0-----0--0--|-----0--0--0----0--3--0--|
--------------------------|-------------------------|


  E  E  E  E  E  E  E  E     E  E  E  Q    Q.      
--------------------------|-----------------------|
--------------------------|-----------------------|
--------5--------7--------|--5--------7----7------|
--------5--------7--------|--5--------7----7------|
--0--0-----0--0-----0--0--|-----0--0--------------|
--------------------------|-----------------------|


  E  E  E  E  E  E  E  E     E  E  E  Q    E  E  E   
--------------------------|-------------------------|
--------------------------|-------------------------|
--------5--------7--------|--5--------2-------------|
--------5--------7--------|--5--------2-------------|
--0--0-----0--0-----0--0--|-----0--0--0----0--3--0--|
--------------------------|-------------------------|


  E  E  E  E  E  E  E  E     E  E  E  Q    Q.      
--------------------------|-----------------------|
--------------------------|-----------------------|
--------5--------7--------|--5--------7----7------|
--------5--------7--------|--5--------7----7------|
--0--0-----0--0-----0--0--|-----0--0--------------|
--------------------------|-----------------------|


  E  E  E  E  E  E  E  E     E  E  E  Q    E  E  E   
--------------------------|-------------------------|
--------------------------|-------------------------|
--------5--------7--------|--5--------2-------------|
--------5--------7--------|--5--------2-------------|
--0--0-----0--0-----0--0--|-----0--0--0----0--3--0--|
--------------------------|-------------------------|


  E  E  E  E  E  E  E  E     E  E  E  Q    Q.      
--------------------------|-----------------------|
--------------------------|-----------------------|
--------5--------7--------|--5--------7----7------|
--------5--------7--------|--5--------7----7------|
--0--0-----0--0-----0--0--|-----0--0--------------|
--------------------------|-----------------------|


  E  E  E  E  E  E  E  E     Q.     Q    E  E  E   
--------------------------|-----------------------|
--------------------------|-----------------------|
--------5--------7--------|--5------5----5--5--5--|
--------5--------7--------|--5------5----5--5--5--|
--5--5-----5--5-----5--5--|-----------------------|
--------------------------|-----------------------|


  E  E  E  E  E  E  E  E     E  E  E  Q    Q.      
--------------------------|-----------------------|
--------------------------|-----------------------|
--------5--------7--------|--5--------7----7------|
--------5--------7--------|--5--------7----7------|
--0--0-----0--0-----0--0--|-----0--0--------------|
--------------------------|-----------------------|


  E  E  E  E  E  E  E  E     Q.     Q    E  E  E   
--------------------------|-----------------------|
--------------------------|-----------------------|
--------5--------7--------|--5------5----5--5--5--|
--------5--------7--------|--5------5----5--5--5--|
--5--5-----5--5-----5--5--|-----------------------|
--------------------------|-----------------------|


  E  E  E  E  E  E  E  E     H        Q    E  E   
--------------------------|----------------------|
-----------------------6--|--L--------6----------|
--2--x--x--x--2--x--x--5--|--L--------5----x--x--|
--2--x--x--x--2--x--x--7--|-----------7----x--x--|
--0--x--x--x--0--x--x--0--|--L-------------------|
--------------------------|----------------------|


  E  E  E  E  E  E  E  E     H        E   E  E   E   
--------------------------|-------------------------|
--3-----------3-----------|-------------------------|
--4--x--x--x--4--------5--|--L--------5S--4--4p--2--|
--5--x--x--x--5--x--x--5--|--L--------5S--4--4p--2--|
-----------------x--x--3--|--L--------3-------------|
--------------------------|-------------------------|


  E  E  E  E  E  E  E  E     H        E   E  E   E   
--------------------------|-------------------------|
--------------------------|-------------------------|
-----------------------3--|--L--------3S--2--2p--0--|
--3--x--x--x--3--x--x--3--|--L--------3S--2--2p--0--|
--3--x--x--x--3--x--x--1--|--L--------1-------------|
--1--x--x--x--1--x--x-----|-------------------------|


  Q    E  E  Q    E  E     H        H         
------------------------|--------------------|
------------------------|--------------------|
--5----5--5--5----5--5--|--L-----------------|
--5----5--5--5----5--5--|--L--------5--------|
--3----3--3--3----3--2--|--L--------5--------|
------------------------|-----------3--------|


  E  E  E  E  E  E  E  E     H        Q    E  E   
--------------------------|----------------------|
-----------------------6--|--L--------6----------|
--2--x--x--x--2--x--x--5--|--L--------5----x--x--|
--2--x--x--x--2--x--x--7--|-----------7----x--x--|
--0--x--x--x--0--x--x--0--|--L-------------------|
--------------------------|----------------------|


  E  E  E  E  E  E  E  E     H        E   E  E   E   
--------------------------|-------------------------|
--3-----------3-----------|-------------------------|
--4--x--x--x--4--------5--|--L--------5S--4--4p--2--|
--5--x--x--x--5--x--x--5--|--L--------5S--4--4p--2--|
-----------------x--x--3--|--L--------3-------------|
--------------------------|-------------------------|


  E  E  E  E  E  E  E  E     H        E   E  E   E   
--------------------------|-------------------------|
--------------------------|-------------------------|
-----------------------3--|--L--------3S--2--2p--0--|
--3--x--x--x--3--x--x--3--|--L--------3S--2--2p--0--|
--3--x--x--x--3--x--x--1--|--L--------1-------------|
--1--x--x--x--1--x--x-----|-------------------------|


  H.           E  E     H.           E  E   
---------------------|---------------------|
---------------------|---------------------|
--2------------L--1--|--L------------------|
--2------------L--2--|--L---------------5--|
--2------------L--2--|--L---------------0--|
---------------------|---------------------|


  E  E  E  E  E  E  E  E     E  E  E  E  E  E  E  E   
--------------------------|--------------------------|
--------------------------|--------------------------|
--------------------------|--L-----------------------|
--L--7--7--7--7--5-----5--|--L--7--7--7--7--------5--|
--L--0--0--0--0-----7--0--|--L--0--0--0--0--5--7--3--|
--------------------------|--------------------------|


  H.           E  E     H.           E  E   
---------------------|---------------------|
---------------------|---------------------|
---------------------|------------------7--|
---------------L--5--|--L---------------7--|
---------------L--5--|--L---------------5--|
---------------------|---------------3-----|


                      |----3----|                
  W                   Q    Q    Q    Q.      E   
-------------------|----------------------------|
-------------------|--6-------------------------|
--L----------------|-------7----------------10--|
--L----------------|------------7----L------10--|
--L----------------|-------------------------8--|
-------------------|----------------------------|


  H.           E   E     E  E  E  E  E  E  E  E   
----------------------|--------------------------|
----------------------|--------------------------|
--L------------L--12--|--L-----------------------|
--L------------L--12--|--L--7--5--------------5--|
--L------------L--10--|--L--------7--6--5--3--0--|
----------------------|--------------------------|


  E  E  E  E  E  E  E  E     E  E  E  E  E  E  E  E   
--------------------------|--------------------------|
--------------------------|--------------------------|
--------------------------|--L-----------------------|
--L--7--7--7--7--5-----5--|--L--7--7--7--7--------5--|
--L--0--0--0--0-----7--0--|--L--0--0--0--0--5--7--3--|
--------------------------|--------------------------|


  H.           E  E     H.           E  E   
---------------------|---------------------|
---------------------|---------------------|
---------------------|------------------7--|
---------------L--5--|--L---------------7--|
---------------L--5--|--L---------------5--|
---------------------|---------------3-----|


                      |----3----|   
comments
We did not receive enough feedback on this tab! Please rate:
1 2 3 4 5
I want to post or [tab]
guest
You may want to rate the tab now too:
select rating
Please do not post tabs as comments. Select "correction" instead!