Oops, an error
Loading. Please wait.

A Matter Of Life And Death Bass Tab

10,312 views 9 this week
no commentswrite comment
1 2 3 4 5
accurate
x 1
add to favorites launch autoscroll
font size
0
reset
Autoscroll
+/-
esc
set tempo
stop
Contributor
WARNING: You are trying to view
                                    content from Ultimate-Guitar.com
                                    in an unauthorized application,
                                    which is prohibited.

                                    Please use an official Ultimate
                                    Guitar Tabs application for iPhone,
                                    iPad or Android to access legitimate
                                    chords, guitar, bass, and drum tabs
                                    from Ultimate-Guitar.com database.

                                    Type "ultimate guitar tabs" in Apple
                                    App Store's or Android Market's
                                    search to find the application.
Iron Maiden
A Matter of Life and Death Album
Bass Tabs


1. Different World
RIFF 1 :

G------------------------------------|------------------7-5-4---------|
D-----------------------4-5-7-5-4-0--|------------------------7-5-4-0-|
A--7-7-7-7-7-7-7-7---7---------------|-7-7-7-7-7-7-7-7----------------| X 2
E------------------------------------|--------------------------------|
VERSE :

G------------------------------------------------------------------------|
D------------------------------------------------------------------------|
A--7-7-7-7-7-7-7-7---7-7-7-7-7-7-7-7---3-3-3-3-3-3-3-3----------0--------|
E----------------------------------------------------------0-2-3--3-2-0--|

G------------------------------------------------------------------------|
D------------------------------------------------------------------------|
A--7-7-7-7-7-7-7-7---7-7-7-7-7-7-7-7----------------------------0--------|
E--------------------------------------3-3-3-3-3-3-3-3-----0-2-3--3-2-0--|

G------------------------------------------------------------------------|
D------------------------------------------------------------------------|
A--7-7-7-7-7-7-7-7---7-7-7-7-7-7-7-7---3-3-3-3-3-3-3-3----------0--------|
E----------------------------------------------------------0-2-3--3-2-0--|

G-------------------------------------------------------------------------|
D-------------------------------------------------------------------------|
A--7-7-7-7-7-7-7-7---7-7-7-7-7-7-7-7---------------------5-5-5-5-5-5-5-5--|
E--------------------------------------3-3-3-3-3-3-3-3--------------------|
REPEAT RIFF 1 (X 2)
REPEAT VERSE
CHORUS :

G----------------------------------------------------------------------|
D----------------------------------------------------------------------|
A-------------------3-3-3-3-3-3-3-3--0-0-0-0-0-0-0-0--3-3-3-3-3-3-3-3--|
E--3-3-3-3-3-3-3-3-----------------------------------------------------|

G----------------------------------------------------------------------|
D----------------------------------------------------------------------|
A-------------------3-3-3-3-3-3-3-3--7-7-7-7-7-7-7-7--5-5-5-5-5-5-5-5 -|
E--3-3-3-3-3-3-3-3-----------------------------------------------------|

G----------------------------------------------------------------------|
D----------------------------------------------------------------------|
A--7-7-7-7-7-7-7-7--3-3-3-3-3-3-3-3-------------------5-5-5-5-5-5-5-5--|
E------------------------------------3-3-3-3-3-3-3-3-------------------|

G----------------------------------------------------------------------|
D----------------------------------------------------------------------|
A--7-7-7-7-7-7-7-7--3-3-3-3-3-3-3-3-------------------5-5-5-5-5-5-5-5--|
E------------------------------------3-3-3-3-3-3-3-3-------------------|
BRIDGE :

G----------------------------------------------------------------------|
D----------------------------------------------------------------------|
A--7-7-7-7-7-7-7-7-------------------3-3-3-3-3-3-3-3--5-5-5-5-5-5-5-5--| x 3
E-------------------3-3-3-3-3-3-3-3------------------------------------|

G------------------------------------------------------------------------|
D------------------------------------------------------------------------|
A--0-0-0-0-0-0-0-0--3-3-3-3-3-3-3-3--5-5-5-5-5-5-5-5--5-5-5-5-5-5-3-2----|
E---------------------------------------------------------------------3--|
REPEAT CHORUS
RIFF 1 (X 1)
then:

G------------------------------------|------------------7-5-4-5-4-------------------|
D-----------------------4-5-7-5-4-0--|----------------------------7-5-9-7-5-4-7-5-4-|
A--7-7-7-7-7-7-7-7---7---------------|-7-7-7-7-7-7-7-7------------------------------|
E------------------------------------|----------------------------------------------|
INTERLUDE :

G----------------------------------------------------------------------|
D----------------------------------------------------------------------|
A--7-7-7-7-7-7-7-7--3-3-3-3-3-3-3-3-------------------5-5-5-5-5-5-5-5--| x 3
E------------------------------------3-3-3-3-3-3-3-3-------------------|

G------------------------------------------------------------------------|
D------------------------------------------------------------------------|
A--7-7-7-7-7-7-7-7--3-3-3-3-3-3-3-3--5-5-5-5-5-5-5-5--5-5-5-5-5-5-3-2----|
E---------------------------------------------------------------------3--|
RIFF UNDER GUITAR SOLO :

G----------------------------------------------------------------------|
D----------------------------------------------------------------------|
A--7-7-7-7-7-7-7-7--3-3-3-3-3-3-3-3-------------------5-5-5-5-5-5-5-5--| x 3
E------------------------------------3-3-3-3-3-3-3-3-------------------|

G------------------------------------------------------------------------|
D------------------------------------------------------------------------|
A--3-3-3-3-3-3-3-3--2-2-2-2-2-2-2-2--5-5-5-5-5-5-5-5--5-5-5-5-5-5-3-2----|
E---------------------------------------------------------------------3--|
REPEAT CHORUS
REPEAT BRIDGE (X2)
REPEAT RIFF 1 (X 1)
then:

G------------------------------------|------------------------------------|
D-----------------------4-5-7-5-4-0--|-------------------9-9---10-9---9/--|
A--7-7-7-7-7-7-7-7---7---------------|-7-7-7-7-7-7-7-7---7-7-7-7--7-7-7/--|
E------------------------------------|------------------------------------|


2. These Colours Don't Run
 Intro
   4/4
    Gtr I
                                                                         5x
||------------------|-----------------|-----------------|----------------||
||o-----4---4---4---|-----5---5---5---|-----4---4---4---|-----5------7--o||
||o---2---2---2---2-|---3---3---3---3-|---2---2---2---2-|---3------5----o||
||--0---------------|-0---------------|-0---------------|-0------0-------||


|-----------------|-----------------|-----------------|----------------|
|-----4---4---4---|-----5---5---5---|-----4---4---4---|-----5------7---|
|---2---2---2---2-|---3---3---3---3-|---2---2---2---2-|---3------5---7-|
|-0---------------|-0---------------|-0---------------|-0------0-------|

    Q=160
    $
||--------------------|-------------------|
||o-------------------|-------------------|
||o-(7)-7-7-7-7-7-7-7-|-(7)-7-7-7-7-7-7-7-|
||--------------------|-------------------|


|-------------------|--------------------||
|-------------------|-------------------o||
|-(7)-7-7-7-7-7-7-3-|-(3)-3-3-5--5-5-7--o||
|-------------------|--------------------||

   Verse
||--------------------|-------------------|
||o-------------------|-------------------|
||o-(7)-7-7-7-7-7-0-3-|-(3)-3-3-3-3-3-----|
||--------------------|---------------0-3-|

                                          4x
|-------------------|---------------------||
|-------------------|--------------------o||
|---------------0-5-|-(5)-5-5-5-5-5-0-7--o||
|-(3)-3-3-3-3-3-----|---------------------||

 Pre-Chorus
  Q=180
|-------------------|-------------------|
|-------------------|-------------------|
|-(7)-7-7-7-7-7-0-3-|-(3)-3-3-3-3-3-----|
|-------------------|---------------0-3-|


|-------------------|-------------------|
|-------------------|-------------------|
|---------------0-5-|-(5)-5-5-5-5-5-0-7-|
|-(3)-3-3-3-3-3-----|-------------------|


|-------------------|-------------------|
|-------------------|-------------------|
|-(7)-7-7-7-7-7-0-3-|-(3)-3-3-3-3-3-----|
|-------------------|---------------0-3-|


|-------------------|-------------------|
|-------------------|-------------------|
|---------------0-5-|-(5)-5-5-5-5-5-5-5-|
|-(3)-3-3-3-3-3-----|-------------------|

   Chorus
                                                          D.S.
                                                                4x
||---------------|--------------|--------------|----------------||
||o--------------|--------------|--------------|---------------o||
||o-7-7-7-7-7----|-3-3-3-3-3----|--------------|-5-5-5-5-5-----o||
||---------------|--------------|-3-3-3-3-3----|----------------||

   Interlude
    Q=160
||------------------|-----------------|-----------------|----------------|
||o-7-7-7-7-7-7-7-7-|-7-7-7-7-7-7-7-7-|-7-7-7-7-7-7-7-7-|-7-7-7-7-7-7-7-7|
||o-----------------|-----------------|-----------------|----------------|
||------------------|-----------------|-----------------|----------------|


|-----------------|-----------------|-----------------|-----------------|
|-7-7-7-7-7-7-7-7-|-7-7-7-7-7-7-7-7-|-7-7-7-7-7-7-7-7-|-7-7-7-7-7-5-5-5-|
|-----------------|-----------------|-----------------|-----------------|
|-----------------|-----------------|-----------------|-----------------|


|-----------------|-----------------|-----------------|-----------------|
|-----------------|-----------------|-----------------|-----------------|
|-8-8-8-8-8-8-8-8-|-8-8-8-8-8-8-7-7-|-5-5-5-5-5-5-5-5-|-5-5-5-5-5-5-5-5-|
|-----------------|-----------------|-----------------|-----------------|


|-----------------|-----------------|-----------------|------------------||
|-----------------|-----------------|-----------------|-----------------o||
|-8-8-8-8-8-8-8-8-|-8-8-8-8-8-8-7-7-|-5-5-5-5-5-5-5-5-|-5-5-5-5-5-5-5-5-o||
|-----------------|-----------------|-----------------|------------------||

   Solo 1
    Q=200
                                                                      4x
||----------------|----------------|---------------|------------------||
||o---------------|----------------|---------------|-----------------o||
||o---------------|----------------|---------------|-----------------o||
||--0--0-0-0--0-0-|-0--0-0-0-3-3-3-|-0--0-0-0--0-0-|-0--0-0-0-3-3-3---||

   Interlude
    Q=160
||------------------|-----------------|-----------------|----------------|
||o-7-7-7-7-7-7-7-7-|-7-7-7-7-7-7-7-7-|-7-7-7-7-7-7-7-7-|-7-7-7-7-7-7-7-7|
||o-----------------|-----------------|-----------------|----------------|
||------------------|-----------------|-----------------|----------------|


|-----------------|-----------------|-----------------|-----------------|
|-7-7-7-7-7-7-7-7-|-7-7-7-7-7-7-7-7-|-7-7-7-7-7-7-7-7-|-7-7-7-7-7-5-5-5-|
|-----------------|-----------------|-----------------|-----------------|
|-----------------|-----------------|-----------------|-----------------|


|-----------------|-----------------|-----------------|-----------------|
|-----------------|-----------------|-----------------|-----------------|
|-8-8-8-8-8-8-8-8-|-8-8-8-8-8-8-7-7-|-5-5-5-5-5-5-5-5-|-5-5-5-5-5-5-5-5-|
|-----------------|-----------------|-----------------|-----------------|


|-----------------|-----------------|-----------------|------------------||
|-----------------|-----------------|-----------------|-----------------o||
|-8-8-8-8-8-8-8-8-|-8-8-8-8-8-8-7-7-|-5-5-5-5-5-5-5-5-|-5-5-5-5-5-5-5-5-o||
|-----------------|-----------------|-----------------|------------------||

   Harmony Interlude
    Q=170
||------------------|-----------------|-----------------|------------------|
||o-----------------|-----------------|-----------------|------------------|
||o-----------------|-----------------|-----------------|------------------|
||--0-0-0-0-0-0-0-0-|-0-0-0-0-0-0-0-0-|-3-3-3-3-3-3-3-3-|-3-3-3-3-3-3-3-3--|

                                                                         4x
|-----------------|-----------------|-----------------|------------------||
|-----------------|-----------------|-----------------|-----------------o||
|-3-3-3-3-3-3-3-3-|-3-3-3-3-3-3-3-3-|-5-5-5-5-5-5-5-5-|-5-5-5-5-5-5-5-5-o||
|-----------------|-----------------|-----------------|------------------||

   Chorus
    Q=180
                                                                8x
||---------------|--------------|--------------|----------------||
||o--------------|--------------|--------------|---------------o||
||o-7-7-7-7-7----|-3-3-3-3-3----|--------------|-5-5-5-5-5-----o||
||---------------|--------------|-3-3-3-3-3----|----------------||

  Q=140          Q=120          Q=110          Q=100
|--------------|--------------|--------------|------|
|--------------|--------------|--------------|------|
|-7-7-7-7-7----|-3-3-3-3-3----|--------------|-5----|
|--------------|--------------|-3-3-3-3-3----|------|

              2/4
|------------|--------|
|------------|--------|
|-(5)--------|-(5)----|
|------------|--------|

 Outro
 4/4
|-----------------|-----------------|-----------------|--------------|
|-----4---4---4---|-----5---5---5---|-----4---4---4---|-----5------7-|
|---2---2---2---2-|---3---3---3---3-|---2---2---2---2-|---3------5---|
|-0---------------|-0---------------|-0---------------|-0------0-----|

                    H.=H
|-----------------|-----------------|-----------------|---------------|
|-----4---4---4---|-----5---5---5---|-----4---4---4---|-----5------7--|
|---2---2---2---2-|---3---3---3---3-|---2---2---2---2-|---3------5----|
|-0---------------|-0---------------|-0---------------|-0------0------|


|----------|------------|--------*|
|----------|------------|--------*|
|-5--------|-(5)--------|-(5)----*|
|----------|------------|--------*|

3. Brighter Than A Thousand Suns
NTRO

(Bass enters at : 0:30)

G-------------------|
D-------------------|
A--7-7-7-7-7-7-7-7--|
E-------------------|

MAIN RIFF :
G-------------------------------------|
D-------------------------------------|
A-------------------------------0--2--|
E--0--0----0--0--0-----0--2--3--------| 


-----------------------------------------|
-----------------------------------------|
---------------------5-------------0--2--|
--0--0----0--0--0---------0--2--3--------|

VERSE :
G--------------------------|
D--------------------------|
A--------------------------|
E--0--0----0--0--0-----0---|

REP. MAIN RIFF

REP. VERSE

REP. MAIN RIFF


BRIDGE :
G----------5-----------------------|
D------3-5---5--3-----------7------|
A--3--------------------5-7---7-5--|
E-------------------5--------------|


-----------------------------------|
---------5-------------------------|
-----3-5---5-3---------------------|
--3--------------1-1-1-1-1-1-1-1---|


REP. MAIN RIFF

REP. VERSE

REP. MAIN RIFF

REP. BRIDGE


CHORUS SLOW :
G----------9-----------------------|
D------7-9---9--7-----------5------|
A--7----------------3---3-5---5-3--|
E----------------------------------|


----------------------------------|
---------7------------------------|
-----5-7---7-5--------------------| X 4
--5-------------1-1-1-1-1-1-1-1---|

CHORUS FAST :
|--9----------------5----------------|
|--9----------------5----------------|
|--7-7-7-7-7-7-7-7--3-3-3-3-3-3-3-3--|
|------------------------------------|

--2-----------------------------------|
--2------------------3----------------|
--0-0-0-0-0-0-0-0-0--3----------------| X 2
---------------------1-1-1-1-1-1-1-1--|

RIFF 1 :
G-----------------------|
D-----------------------|
A-----7--9-10--9--7--3--|
E--0--------------------|


---------------------------------------------------------------|
------------------------------------------------------5-5-4-4--|
--0--2--3--2------0--0--0--0--2--2--2--2--3--3--3--3-----------| X 4
--------------3------------------------------------------------|


VERSE 2 :
|--------9----------9------------9----------9----|
|--------9----------9------------9----------9----|
|--7--7--7----7--7--7------7--7--7----7--7--7----|
|------------------------------------------------|

--------5----------5------------5----------5--------------------------|
--------5----------5------------5----------5------------7----------7--|
--3--3--3----3--3--3------3--3--3----3--3--3------------7----------7--|
--------------------------------------------------5--5--5----5--5--5--|


--------------------------------------------------------------------|
--------7--------7----------3----------3------------3----------3----|
--------7--------7----------3----------3------------3----------3----| X4
--5--5--5--5--5--5----1--1--1----1--1--1------1--1--1----1--1--1----| 

REP. RIFF 1

REP. VERSE 2

then :

RIFF 2 :

G--------------------------------------|
D--------------------------------------|
A-----7--9--10--9--7--3--0--2--3--2----| x 4
E--0-----------------------------------|


RIFF 3 :

|-------------------------------------|
|--7-7-7-7-7-7-7-7--3-3-3-3-3-3-3-5---|
|-------------------------------------|
|-------------------------------------|


GUITAR SOLO 2 :

G--4------4------4------4--------4------4------4------4------|
D--4------4------4------4--------4------4------4------4------|
A--2--2-2-2--2-2-2--2-2-2--2-2---2--2-2-2--2-2-2--2-2-2--3-3-|
E------------------------------------------------------------|

--5------2------4------------------|
--5------2------4------5--------3--|
--3--0-0-0--2-2-2------5--------3--| X 4
-------------------3-3-3--1-1---1--|


G-------------------|
D-------------------|
A--7-7-7-7-7-7-7-7--|
E-------------------|

MAIN RIFF :
G-------------------------------------|
D-------------------------------------|
A-------------------------------0--2--|
E--0--0----0--0--0-----0--2--3--------| 


-----------------------------------------|
-----------------------------------------|
---------------------5-------------0--2--|
--0--0----0--0--0---------0--2--3--------|

VERSE :
G--------------------------|
D--------------------------|
A--------------------------|
E--0--0----0--0--0-----0---|

MAIN RIFF :
G-------------------------------------|
D-------------------------------------|
A-------------------------------0--2--|
E--0--0----0--0--0-----0--2--3--------| 


-----------------------------------------|
-----------------------------------------|
---------------------5-------------0--2--|
--0--0----0--0--0---------0--2--3--------|

VERSE :
G--------------------------|
D--------------------------|
A--------------------------|
E--0--0----0--0--0-----0---|

MAIN RIFF :
G-------------------------------------|
D-------------------------------------|
A-------------------------------0--2--|
E--0--0----0--0--0-----0--2--3--------| 


-----------------------------------------|
-----------------------------------------|
---------------------5-------------0--2--|
--0--0----0--0--0---------0--2--3--------|

BRIDGE :
G----------5-----------------------|
D------3-5---5--3-----------7------|
A--3--------------------5-7---7-5--|
E-------------------5--------------|


-----------------------------------|
---------5-------------------------|
-----3-5---5-3---------------------|
--3--------------1-1-1-1-1-1-1-1---|

CHORUS SLOW :
G----------9-----------------------|
D------7-9---9--7-----------5------|
A--7----------------3---3-5---5-3--|
E----------------------------------|


----------------------------------|
---------7------------------------|
-----5-7---7-5--------------------| X 4
--5-------------1-1-1-1-1-1-1-1---|

RIFF 1 :
G-----------------------|
D-----------------------|
A-----7--9-10--9--7--3--|
E--0--------------------|


---------------------------------------------------------------|
------------------------------------------------------5-5-4-4--|
--0--2--3--2------0--0--0--0--2--2--2--2--3--3--3--3-----------| X 4
--------------3------------------------------------------------|


LAST NOTE

G-----
D-----
A-----
E--0--.

4. The Pilgrim
            0:02
G|--9-9-9----5-5-5----7-7-7----9-9------|
D|--9-9-9----5-5-5----7-7-7----9-9------|
A|--7-7-7----3-3-3----5-5-5----7-7-7-5--|
E|--------------------------------------|

G|--9-9-9----5-5-5----7-7-7-------------|
D|--9-9-9----5-5-5----7-7-7----7-7------|
A|--7-7-7----3-3-3----5-5-5----7-7------|
E|-----------------------------5-5-5-3--|

G|--9-9-9----5-5-5----7-7-7----9-9------|
D|--9-9-9----5-5-5----7-7-7----9-9------|
A|--7-7-7----3-3-3----5-5-5----7-7-7s5--|
E|--------------------------------------|

G|--9-9-9----5-5-5----7-7-7-------------|
D|--9-9-9----5-5-5----7-7-7----7--------|
A|--7-7-7----3-3-3----5-5-5----7--------|
E|-----------------------------5--------|
             0:23
G|--------------------------------------|
D|--------------------------------------|
A|--7-7-7-7-7-7-7-7-7-7-7-7-7-7-7-7-7---|
E|--------------------------------------|
             0:28
G|--------------------------------------|
D|--------------------------------------|
A|7-7-7-7-7-7-7--3-3-3-3-3-3-3----------|
E|--------------------------------------|

G|--------------------------------------|
D|--------------------------------------|
A|5-5-5-5-5-----------7-7-7-7-7-7-7-----|
E|----------5-5-5-5-5-------------------|

G|--------------------------------------|
D|--------------------------------------|
A|7-7-7-7-7-7-7--3-3-3-3-3-3-3----------|
E|--------------------------------------|

G|--------------------------------------|
D|--------------------------------------|
A|-------------------5-5-7-7-7-7-7-7-7--|
E|5-5-5-5-5-3-3-7-7---------------------|




Pre Chorus
             0:47
G|--------------------------------------------------|
D|--------------------------------------------------|
A|7-7-7-7-7-7-7--3-3-3-3-3-3-3--5-5-5-5-5-----------|
E|----------------------------------------7-7-7-7-7-|

G|----------------------------------------|
D|----------------------------------------|
A|3-3-3-3-3--5-5-5-5-5--7-7-7-7-7-7-7-7-7-|
E|----------------------------------------|

G|--------------------------------------------------|
D|--------------------------------------------------|
A|7-7-7-7-7-7-7--3-3-3-3-3-3-3--5-5-5-5-5-----------|
E|----------------------------------------7-7-7-7-7-|

G|--------------------------------------------------|
D|--------------------------------------------------|
A|0-0-0-0-0-0-0-0-0--3-3-3--5-5-5--7-7-7-7-7-7-7-7-7|
E|--------------------------------------------------|

Chorus
             1:06
G|---------------------------------------------------|
D|-7-7-7-77-77-7-7-7---------------------------------|
A|-------------------8-8-8-88-8-8--------------------|X2
E|--------------------------------10-10-10-10-10-10--|
Interlude
             1:26
G|----------------------------------|
D|----------------------------------|
A|-7-777-77-7777-77-7777-77-7888-7--|X2
E|----------------------------------|
             1:36
G|----------------------------------|
D|----------------------------------|
A|-3-333-33-3333-33-3333-33-3444-3--|X2
E|----------------------------------|

Verse 2
             1:46
G|--------------------------------------|
D|--------------------------------------|
A|7-7-7-7-7-7-7--3-3-3-3-3-3-3----------|
E|--------------------------------------|

G|--------------------------------------|
D|--------------------------------------|
A|5-5-5-5-5-----------7-7-7-7-7-7-7-----|
E|----------5-5-5-5-5-------------------|

G|--------------------------------------|
D|--------------------------------------|
A|7-7-7-7-7-7-7--3-3-3-3-3-3-3----------|
E|--------------------------------------|

G|--------------------------------------|
D|--------------------------------------|
A|-------------------5-5-7-7-7-7-7-7-7--|
E|5-5-5-5-5-3-3-7-7---------------------|
          
         Pre Chorus
             2:05
G|--------------------------------------------------|
D|--------------------------------------------------|
A|7-7-7-7-7-7-7--3-3-3-3-3-3-3--5-5-5-5-5-----------|
E|----------------------------------------7-7-7-7-7-|



G|----------------------------------------|
D|----------------------------------------|
A|3-3-3-3-3--5-5-5-5-5--7-7-7-7-7-7-7-7-7-|X2
E|----------------------------------------|

             Chorus
              2:26
G|---------------------------------------------------|
D|-7-7-7-77-77-7-7-7---------------------------------|
A|-------------------8-8-8-88-8-8--------------------|X2
E|--------------------------------10-10-10-10-10-10--|
              2:44
G|----------------------------------|
D|----------------------------------|
A|-7-777-77-7777-77-7777-77-7888-7--|X2
E|----------------------------------|
                 
G|----------------------------------|
D|----------------------------------|
A|-3-333-33-3333-33-3333-33-3444-3--|X2
E|----------------------------------|
              3:04
G|----------------------------------|
D|----------------------------------|
A|-3-333-33-3333-33-3333-03-3444----|X4
E|----------------------------------|
              3:24
G|--------------------------------------------------|
D|--------------------------------------------------|
A|7-7-7-7-7-7-7--3-3-3-3-3-3-3--5-5-5-5-5-----------|
E|----------------------------------------7-7-7-7-7-|

G|----------------------------------------|
D|----------------------------------------|
A|3-3-3-3-3--5-5-5-5-5--7-7-7-7-7-7-7-7-7-|X2
E|----------------------------------------|
               3:42
G|---------------------------------------------------|
D|-7-7-7-77-77-7-7-7---------------------------------|
A|-------------------8-8-8-88-8-8--------------------|X4
E|--------------------------------10-10-10-10-10-10--|

               4:20
G|----------------------------------|
D|----------------------------------|
A|-7-777-77-7777-77-7777-77-7888-7--|X2
E|----------------------------------|

G|----------------------------------|
D|----------------------------------|
A|-3-333-33-3333-33-3333-33-3444-3--|X2
E|----------------------------------|


               4:37
G|--9---9----5-5-5----7---7----9-9------|
D|--9---9----5-5-5----7---7----9-9------|
A|--7-777----3-3-3----5-555----7-7-7-7--|
E|--------------------------------------|

G|--9-9-9----5-5-5----7-7-7-------------|
D|--9-9-9----5-5-5----7-7-7----7-7------|
A|--7-7-7----3-3-3----5-5-5----7-7------|
E|-----------------------------5-5-5-5--|

G|--9-9-9----5-5-5----7-7-7----9-9------|
D|--9-9-9----5-5-5----7-7-7----9-9------|
A|--7-7-7----3-3-3----5-5-5----7-7-777--|
E|--------------------------------------|

G|--9-9-9----5-5-5----7-7-7-------------|
D|--9-9-9----5-5-5----7-7-7----7--------|
A|--7-7-7----3-3-3----5-5-5----7--------|
E|-----------------------------5--------|

5. The Longest Day ( not full tab)

INTRO/Verse 1
G|------------------------|
D|-2-222-222-222-222-222--|
A|------------------------|
E|------------------------|

Verse 2
G|----------------------------|
D|----------------------------|
A|-2-222-222-222-222-222-222--|
E|----------------------------|

Verse 3
G|-----------------------------|
D|-222-222-222-222-222-222-222-|
A|-----------------------------|
E|-----------------------------|

Verse 4
G|---------------------------------|
D|---------------------------------|
A|-222-222-222-222-222-222-222-222-|
E|---------------------------------|

Pre-Chorus
G|------------------------------------------------------|
D|------------------------------------------------------|
A|--7-777-777-77---------------------------5-555-555-55-|X4
E|---------------8-888-888-88-3-333-333-33--------------|

Chorus

Verse 5
G|---------------------------------|
D|---------------------------------|
A|-222-222-222-222-222-222-222-222-|
E|---------------------------------|

Verse 6
G|---------------------------------|
D|-222-222-222-222-222-222-222-222-|
A|---------------------------------|
E|---------------------------------|

6. Out of The Shadows (in progress)

7. The Reincarnation Of Benjamin Breeg

INTRO 
|-9-----------|-5-------------|-9-------------|-7--------------|
|-9-----------|-5-------------|-9-------------|-7--------------|
|-7-----------|-3-------------|-7-------------|-5--------------|
|-------------|---------------|---------------|----------------|
                                               

|-9-----------|-5-------------|-9-------------|----------------|
|-9-----------|-5-------------|-9-------------|----------------|
|-7-----------|-3-------------|-7-------------|----------------|(x2)
|-------------|---------------|---------------|----------------|   


                                      
							x 6
|---------9---|---------9---|---------9---||------------------|
|-----9-----9-|-----9-----9-|-----9-----9-||-----9---10---7---|
|---7---7-----|---7---7-----|---7---7-----||---7---7----7---7-|
|-0-----------|-0-----------|-0-----------||-0----------------|

|---6-6---6-6-6---|---7-7---7-7-7---|---5-5---5-5-5---|
|-4-----4-------4-|-5-----5-------5-|-3-----3-------3-|
|-----------------|-----------------|-----------------|
|-----------------|-----------------|-----------------|


|------------------|
|-----9---10---7---|
|---7---7----7---7-|x4
|-0----------------|


|---6-6---6-6-6---|---7-7---7-7-7---|---5-5---5-5-5---|
|-4-----4-------4-|-5-----5-------5-|-3-----3-------3-|
|-----------------|-----------------|-----------------|
|-----------------|-----------------|-----------------|


|------------------|
|-----9---10---7---|
|---7---7----7---7-| x10
|-0----------------|



Main Riff
|------------------------|
|------------------------|
|-\11/------2-3----------| x4
|-------0-0------2/3\2-0-|


Verse x 2
											
|-----------------|-----------------|-----------------|
|-2---------------|-4---------------|-5---------------|
|-2---------------|-4---------------|-5---------------|
|-0-0-0-0-0-0-0-0-|-2-2-2-2-2-2-2-2-|-3-3-3-3-3-3-3-3-|
                                                       
                                                           (x2)
|-2---------------|-------------------||
|-2---------------|-------------------||
|-0-0-0-0-0-0-0-0-|------2-3----------|| 
|-----------------|-0-0-------2/3/2-0-||

Chorus (x 2)
|------------------|---------------------|
|-2----------------|-2-------------------|
|-2-----------3----|-2----2-0-2--3-------|
|-0----0-2-3-----2-|-0---------------2---|

|------------------|--------------------|
|-2----------------|-2------------------|
|-2-----------3----|-2---2-0-2--3---5---|
|-0----0-2-3-----2-|-0------------------|

Main riff (x4
|--------------------|
|--------------------|
|-------2-3----------|
|---0-0------2/3\2-0-|



Verse
|-----------------|-----------------|-----------------|
|-2---------------|-4---------------|-5---------------|
|-2---------------|-4---------------|-5---------------|
|-0-0-0-0-0-0-0-0-|-2-2-2-2-2-2-2-2-|-3-3-3-3-3-3-3-3-|
                                                       
                                                           (x2)
|-2---------------|-------------------||
|-2---------------|-------------------||
|-0-0-0-0-0-0-0-0-|------2-3----------|| 
|-----------------|-0-0-------2/3/2-0-||

Chorus (x 2)
|------------------|---------------------|
|-2----------------|-2-------------------|
|-2-----------3----|-2----2-0-2--3-------|
|-0----0-2-3-----2-|-0---------------2---|

|------------------|--------------------|
|-2----------------|-2------------------|
|-2-----------3----|-2---2-0-2--3---5---|
|-0----0-2-3-----2-|-0------------------|

Bridge (x 4)
|--------------------------|---------------------------------|
|--------------------------|---------------------------------|
|--------------------------|-3/2---3-5---3/2-------------3/2-|
|-0--0-0-0-0-0-0-0-0-0-0-0-|-----0-----------0-0-3/2-0-0-----|

|--------------------------|
|--------------------------|
|--------------------------|
|-0--0-0-0-0-0-0-0-0-0-0-0-|

Riff under duet
                                         (x 8)
|----------------------|----------------------|
|----------------------|----------------------|
|------------3-3-3-3-3-|-0-0-0-0-0------------|
|-0-0-0-0-0------------|------------1-1-1-1-1-|

Riff 1 : (x2)
|--------------------------|---------------------------|
|----------3-2---------7-6-|---------10--9---------7-6-|
|--------------------------|---------------------------|
|-0-0-0-0------0-0-0-0-----|-0-0-0-0-------0-0-0-0-----|

Riff under solo:
|---------------------------------|------------------------|
|---------------------------------|------------------------|
|-----------------------------2-3-|-3-3-3-3-3-3-3-3--------|
|-0-0-0-0-0-0-0-0-0-0-0-0-0-0-----|------------------2--3--|

|---------------------------------|--------------------------|
|---------------------------------|--------------------------|
|-----------------------------2-3-|-3-3-3-3-3-3-3-3-3-----5--|
|-0-0-0-0-0-0-0-0-0-0-0-0-0-0-----|--------------------2-----|


Main riff (x4)
|--------------------|
|--------------------|
|-------2-3----------|
|---0-0------2/3\2-0-|


Chorus (x 2)
|------------------|---------------------|
|-2----------------|-2-------------------|
|-2-----------3----|-2----2-0-2--3-------|
|-0----0-2-3-----2-|-0---------------2---|

|------------------|--------------------|
|-2----------------|-2------------------|
|-2-----------3----|-2---2-0-2--3---5---|
|-0----0-2-3-----2-|-0------------------|

Main riff (x4)
|--------------------|
|--------------------|
|-------2-3----------|
|---0-0------2/3\2-0-|


Riff 1 : (x2)
|--------------------------|---------------------------|
|----------3-2---------7-6-|---------10--9---------7-6-|
|--------------------------|---------------------------|
|-0-0-0-0------0-0-0-0-----|-0-0-0-0-------0-0-0-0-----|

Outro x 4
|------------------|
|-----9---10---7---|
|---7---7----7---7-|
|-0----------------|

8. For The Greater Good Of God
Intro; Part 1
G|----------------------7/9-------------------------3/5-|
D|------------------------------------------------------|
A|-------------7-------5/7------------------7-------5/7-|
E|0-----5h7--------------------0-----5h7----------------|


G|-----------------------7/9------------------------12/14-|
D|--------------------------------------------------------|
A|--------------7-------5/7----------------7--------10/12-|
E|0-----5/7------------------0-----5h7--------------------|


Intro; Part 2 0:18
G|--------------------------------------------------------|
D|-----5-4------------5-4--------------5-4--------7---4-5-|
A|-----------7---------------7----------------7-----------|
E|0--------------0----------------0-----------------------|


G|-----------------------------------------------------|
D|---5-4------------5-4--------------5-4--------5------| X2
A|---------7---------------7----------------7------5-7-|
E|0-------------0----------------0---------------------|

 Verse 1  0:44
G|------9---9----------5---5----------------------7---7--|
D|----9---9----------5---5---------5---5--------7---7----| X8
A|7-------------3----------------5---5------5------------|
E|---------------------------3---------------------------|

Distortion Enters 1:31
G|-----------------------------------------------------------------------|
D|-----------------------------------------------------------------------| X4
A|--7-7-7-7-7-7-7-7---3-3-3-3-3-3-3-3---------------------5-5-5-5-5-5-5--|
E|--------------------------------------3-3-3-3-3-3-3-3------------------|

1:52
G|--------------------------------------------------------------------------|
D|--------------------------------------------------------------------------|
A| 0-0-0-0-0-0-0-0-0-0-0-0-0-0-0-0--3-3-3-3-3-3-3-3--5-5-5-5-5-5-5----------|
E|--------------------------------------------------------------------------|

Pre chorus 1:57
G|--------------------------------------------------------------------------|
D|--------------------------------------------------------------------------|
A|7--777--777--777--777--777--777--777--333--333--333-------------------5-55|
E|-----------------------------------------------------3--333--333--33------|


G|--------------------------------------------------------------------------|
D|--------------------------------------------------------------------------|
A|7--777--777--777--777--777--777—777--000--000--000--003-333--335--555--55 |
E|--------------------------------------------------------------------------|


Verse 2
2:15
G|-----------------------------------------------------------------------|
D|-----------------------------------------------------------------------| X4
A|7-7-7-7-7-7-7-7---3-3-3-3-3-3-3-3---------------------5-5-5-5-5-5-5----|
E|------------------------------------3-3-3-3-3-3-3-3--------------------|

Pre Chorus 2:38
G|--------------------------------------------------------------------------|
D|--------------------------------------------------------------------------|
A|7--777--777--777--777--777--777--777--333--333--333-------------------5-55|
E|-----------------------------------------------------3--333--333--33------|


G|--------------------------------------------------------------------------|
D|--------------------------------------------------------------------------|
A|7--777--777--777--777--777--777—777--000--000--000--003-333--335--555--55 |
E|--------------------------------------------------------------------------|

Verse 3 2:55
G|------------------------------------------------------------------------------|
D|------------------------------------------------------------------------------| X8
A|--7-7-7-7-7-7-7-7---3-3-3-3-3-3-3-3---------------------5-5-5-5-5-5-5---------|
E|--------------------------------------3-3-3-3-3-3-3-3-------------------------|

3:38
G|-----------------------------------------------------------------------------|
D|-----------------------------------------------------------------------------|
A|0-0-0-0-0-0-0-0-0-0-0-0-0-0-0-0--3-3-3-3-3-3-3-3--5-5-5-5-5-5-5--------------|
E|-----------------------------------------------------------------------------|

Pre Chorus 3:43
G|---------------------------------------------------------------------------|
D|---------------------------------------------------------------------------|
A|7--777--777--777--777--777--777--777--333--333--333-------------------5-55-|
E|-----------------------------------------------------3--333--333--33-------|


G|---------------------------------------------------------------------------|
D|---------------------------------------------------------------------------|
A|7--777--777--777--777--777--777—777--000--000--000--003--333--335--555--55-|
E|---------------------------------------------------------------------------|

Chorus 4:18
G|9------------------------------------5----------------------------------|
D|9------------------------------------5----------------------------------|
A|7--777--777--777--777--777--777—777--3--333--333--333-------------------|
E|-------------------------------------------------------3--333--333--333-|


G|9------------------------------------2-------------------5---------7------|
D|9------------------------------------2-------------------5---------7------|
A|7--777--777--777--777--777--777—777--0--000--000--000--003--333--335--555-|
E|--------------------------------------------------------------------------|


G|9------------------------------------5----------------------------------|
D|9------------------------------------5----------------------------------|
A|7--777--777--777--777--777--777—777--3--333--333--333-------------------|
E|-------------------------------------------------------3--333--333--333-|


G|9------------------------------------2-------------------5---------7------|
D|9------------------------------------2-------------------5---------7------|
A|7--777--777--777--777--777--777—777--0--000--000--000--003--333--335--555-|
E|--------------------------------------------------------------------------|

Interlude 4:52
G|--------------------------------------------------------|
D|-----5-4------------5-4--------------5-4--------7---4-5-|
A|-----------7---------------7----------------7-----------|
E|0--------------0----------------0-----------------------|

G|-----------------------------------------------------------|
D|--------5-4------------5-4--------------5-4--------5-------| X2
A|-------------7---------------7----------------7-------5-7--|
E|0-----------------0----------------0-----------------------|

5:07
G|-----------------------------------------------------------------------|
D|-----------------------------------------------------------------------|
A|--7--777--7--777--7--777----7-7-7----3--333--3--333--5--555--5-5-5-----|
E|-----------------------------------------------------------------------|

G|---------------------------------------------------------------------------|
D|---------------------------------------------------------------------------|
A|7--777--7--777--7--777----7-7-7------0--000--0--000--3--333--5-5-5---------| X2
E|---------------------------------------------------------------------------|


 5:35
G|--------------------------------------------------------------------------|
D|--------------------------------------------------------------------------|
A|77-7--777-7--777-7--777-7--777-7--777-7--733-3--333-3--355-5--555-5--5----|
E|--------------------------------------------------------------------------|

G|-----------------------------------------------------------------------|
D|-----------------------------------------------------------------------|
A|----------------------------33-3--333-355--5-5--00--0-0----------------| X2
E|55-5--555-5--555-5--555-5--5-------------------------------------------|

6:08
G|-----------------------------------------------------------------------|
D|-----------------------------------------------------------------------|
A|-----------------------------------------------------------------------| X4
E|----7h8h7-000--7-0-5-0-3-0---5-3-000-5-0-3-0-2-0-----------------------|


6:19
G|----------------------------------------------------------------------|
D|----------------------------------------------------------------------|
A|---22-2--233-3--3--------------------22-2--233-3--3-------------------| X2
E|---------------------33-3--355--5----------------------33-3--35--5----|

6:33
G|----------------------------------------------------------------------|
D|----------------------------------------------------------------------|
A|----------------------------------------------------------------------| X4
E|----7h8h7-000--7-0-5-0-3-0---5-3-000-5-0-3-0-2-0----------------------|

                                                                                         
6:47
G|-------------------------------------------------------------------|
D|-------------------------------------------------------------------|
A|---22-2--233-3--3--------------------22-2--233-3--3----------------| X2
E|---------------------33-3--355--5----------------------33-3--35--5-|

7:00
G|--------------------------------------------------------|
D|--------------------------------------------------------|
A|----77-7--77---33-3--33--------------55-5--55-----------|
E|---------------------------33-3--33---------------------|

G|---------------------------------------------------------|
D|--------------------------------------55-5--55-----------|X2
A|-77-7--77---33-3--33---55-5--55--------------------------|
E|--------------------------------------3--3--3------------|

Pre Chorus 7:28
G|---------------------------------------------------------------------------|
D|---------------------------------------------------------------------------|
A|7--777--777--777--777--777--777--777--333--333--333-------------------5-55-|
E|-----------------------------------------------------3--333--333--33-------|


G|---------------------------------------------------------------------------|
D|---------------------------------------------------------------------------|
A|7--777--777--777--777--777--777—777--000--000--000--003--333--335--555--55-|
E|---------------------------------------------------------------------------|

Chorus 8:04
G|9------------------------------------5----------------------------------|
D|9------------------------------------5----------------------------------|
A|7--777--777--777--777--777--777—777--3--333--333--333-------------------|
E|-------------------------------------------------------3--333--333--333-|


G|9------------------------------------2-------------------5---------7------|
D|9------------------------------------2-------------------5---------7------|
A|7--777--777--777--777--777--777—777--0--000--000--000--003--333--335--555-|
E|--------------------------------------------------------------------------|


G|9------------------------------------5----------------------------------|
D|9------------------------------------5----------------------------------|
A|7--777--777--777--777--777--777—777--3--333--333--333-------------------|
E|-------------------------------------------------------3--333--333--333-|

                                   Ritard
G|9------------------------------------2-------------------5---------7------|
D|9------------------------------------2-------------------5---------7------|
A|7--777--777--777--777--777--777—777--0--000--000--000--003--333--335--555-|
E|--------------------------------------------------------------------------|

Outro 8:43
G|-------------9---9-----------5--5-----------------------------7--7---|
D| ----------9---9------------5---5------------5--5-----------7---7----| X3
A|-----7-----------------3-------------------5---5--------5------------|
E|----------------------------------------3----------------------------|

9:02
G|--------2---2----------2---2-----------5---5---------7---7-|
D|------2---2----------2---2-----------5---5--------7---7----|
A|--0--------------0---------------3------------5------------|
E|-----------------------------------------------------------|

G|-----------------------------------------------------------|
D|--------5p4------------5-4--------------5-4--------5-------|
A|-------------7---------------7----------------7--------5/7-|
E|0-----------------0----------------0-----------------------|

9. Lord of The Night
G|------9------9------------9------9-------------9------9------------9----9|
D|---9----(9)-----9------9----(9)-----9-------9----(9)-----9------9-----9--|
A|7-------------------7--------------------7-------------------7-----------|
E|-------------------------------------------------------------------------|
There Are Secrets That You Keep    Verse 1
G|------9------9------------9------9-------------9------9-|
D|.---9----(9)-----9------9----(9)-----9-------9-----9----|
A|.7-------------------7--------------------7-------------|
E|--------------------------------------------------------|

G|------7-----7-------------7-----7--------------7-----7--|
D|---7-----7-----7-------7-----7-----7--------7-----7----.|
A|5-------------------5--------------------5-------------.|X2
E|--------------------------------------------------------|

G|------5-----5-------------5-----5--------------5-----5--|
D|---5-----5-----5-------5-----5-----5--------5-----5-----|
A|3-------------------3--------------------3--------------|
E|--------------------------------------------------------|
Tell To Me Alone
G|------2-----2-------------7-----7--------------7-----7--|
D|---2-----2-----2-------7-----7-----7--------7-----7-----|
A|0-------------------5--------------------5--------------|
E|--------------------------------------------------------|

G|------9------9------------9------9-------------9------9-|
D|.---9----(9)-----9------9----(9)-----9-------9-----9----|
A|.7-------------------7--------------------7-------------|
E|--------------------------------------------------------|

G|------7-----7-------------7-----7--------------7-----7--|
D|---7-----7-----7-------7-----7-----7--------7-----7-----|
A|5-------------------5--------------------5--------------|
E|--------------------------------------------------------|

G|------5-----5-------------5-----5--------------5-----5--|
D|---5-----5-----5-------5-----5-----5--------5-----5-----|
A|3-------------------3--------------------3--------------|
E|--------------------------------------------------------|

G|------2-----2-------------7-----7--------------7-----7--|
D|---2-----2-----2-------7-----7-----7--------7-----7----.|
A|0-------------------5--------------------5-------------.|X2
E|--------------------------------------------------------|


G|-------9------9------------9------9-------------9-----9--|
D|.---9----(9)-----9------9----(9)-----9-------9-----9----.|
A|.7-------------------7--------------------7-------------.|X9
E|---------------------------------------------------------|
 
G|----------------9----------------------------------------|
D|----------------9----------------------------------------|
A|----------------7----------------------------------------|
E|----------------0----------------------------------------|
1:44     Verse 2
G|---------------------------------------------|
D|.--------------------------------------------|
A|.---7--777--7--777--7--777--7-7-7-7-7-7-7----|
E|---------------------------------------------|

G|---------------------------------------------|
D|--------------------------------------------.|
A|----5--555--5--555--5--555--5-5-5-5-5-5-5---.|X2
E|---------------------------------------------|
 
G|--------------------------------------------|
D|--------------------------------------------|
A|---3--333--3--333--3--333--3-3-3-3-3-3-3----|
E|--------------------------------------------|

G|--------------------------------------------|
D|--------------------------------------------|
A|-----0--000--0--000--5---5-5-5-5-5-5-5------|
E|--------------------------------------------|

G|---------------------------------------------|
D|.--------------------------------------------|
A|.---7--777--7--777--7--777--7-7-7-7-7-7-7----|
E|---------------------------------------------|

G|---------------------------------------------|
D|---------------------------------------------|
A|----5--555--5--555--5--555--5-5-5-5-5-5-5----|
E|---------------------------------------------|

G|---------------------------------------------|
D|---------------------------------------------|
A|---3--333--3--333--3--333--3-3-3-3-3-3-3-----|
E|---------------------------------------------|

G|---------------------------------------------|
D|--------------------------------------------.|
A|-----0--000--0--000--5---5-5-5-5-5-5-5------.|X2
E|---------------------------------------------|


Interlude
G|--------------------------------------------|
D|--------------------------------------------|
A|--7--777--777--777--777--777--777--777—775--|
E|--------------------------------------------|

G|-------------------------------------------|
D|-------------------------------------------|
A|--555--555--555--555--555--555--555--557---|
E|-------------------------------------------|

G|--------------------------------------------|
D|--------------------------------------------|
A|----777--777--777--777--777--777--777—773---|
E|--------------------------------------------|

G|---------------------------------------------|
D|---------------------------------------------|
A|---333--333--333--335--555--555--555--557----|
E|---------------------------------------------|
Verse 3
G|---------------------------------------------|
D|.--------------------------------------------|
A|.---7--777--7--777--7--777--7-7-7-7-7-7-7----|
E|---------------------------------------------|

G|---------------------------------------------|
D|---------------------------------------------|
A|----5--555--5--555--5--555--5-5-5-5-5-5-5----|
E|---------------------------------------------|

G|---------------------------------------------|
D|---------------------------------------------|
A|---3--333--3--333--3--333--3-3-3-3-3-3-3-----|
E|---------------------------------------------|

G|---------------------------------------------|
D|--------------------------------------------.|
A|-----0--000--0--000--5---5-5-5-5-5-5-5------.|X2
E|---------------------------------------------|
Chorus
G|--------------------------------------------------------------------|
D|.------------------------------------------------------------------.|
A|.-----------------------3---/7-5--5-5--2---/5--3--3-3--3--5--7--5--.|X4
E|-0--2-3--3-3-3-3-2-0------------------------------------------------|

G|-------------------------------------|
D|-------------------------------------|
A|-------------------------------------|
E|------------------0------------------|

 

At X3 Verse 4 Begins
G|-------9------------9---9---9--------5-----------5---5---5---|
D|.----9----9-------9---9---9--------5----5------5---5---5----.|
A|.-7---------7--7----------------3---------3--3--------------.|X4
E|-------------------------------------------------------------|

G|--------2-----------2---2---2-------------------------------|
D|.-----2----2------2---2---2----------3-----------3---3-----.|
A|.--0---------0-0------------------3----3------3---3---3----.|X2
E|------------------------------1----------1-1----------------|

G|-------9------------9---9---9--------5-----------5---5---5---|
D|.----9----9-------9---9---9--------5----5------5---5---5----.|
A|.-7---------7--7----------------3---------3--3--------------.|X2
E|-------------------------------------------------------------|

G|--------2-----------2---2---2------------------------------|
D|.-----2----2------2---2---2----------3----------3---3-----.|
A|.--0---------0-0------------------3----3-----3---3---3----.|X2
E|------------------------------1----------1-1---------------|
Pre-solo (The Rhythm Changes Here So It’s Up To Your Own Interpretation) 
G|------------------------------------------------------|
D|------------------------------------------------------|
A|-777--7-7-7--7-7-7--7--10-9--777--7-7-7--7--3-3--3-6--|X2
E|------------------------------------------------------|
Solo (The Rhythm Changes Here So It’s Up To Your Own Interpretation)
G|--------------------------------------------------------|
D|.------------------------------------------------------.|
A|.------------------------------------------------------.|X8
E|--777--7-7-7--7-7-7--7--10-9--777--7-7-7--7--3-3--3-6---|
More Solo
G|-----------------------------------------------------------------|
D|.---------------------------------------------------------------.|
A|.-7--7-7-7-7-7--3--3-3-3-3-3--2--2-2-2-2-2---0--0-0-0--5--5-5-5-.|X5
E|-----------------------------------------------------------------|

Chorus
G|--------------------------------------------------------------------|
D|.------------------------------------------------------------------.|
A|.-----------------------3---/7-5--5-5--2---/5--3--3-3--3--5--7--5--.|X4
E|-0--2-3--3-3-3-3-2-0------------------------------------------------|
Outro
G|-----------------------------|
D|-----------------------------|
A|----------7-7-7-7--7--5-7\---|
E|---0-------------------------|

10. The Legacy
G|------7----------7-----------7-----------7------|
D|----7---7------7---7-------7---7-------7---7----|
A|-5----------5-----------5-----------5-----------|X2
E|------------------------------------------------|

G|------7---------(9)----------7-----------9------|
D|----7---7------7---7-------7---7-------7---7----|
A|-5----------5-----------5-----------5-----------|
E|------------------------------------------------|

G|------7----------7-----------7-----------9------|
D|----7---7------7---7-------7---7-------7---7----|
A|-5----------5-----------5-----------5-----------|
E|------------------------------------------------|


G|------7----------7-----------7-----------7------|
D|----7---7------7---7-------7---7-------7---7----|
A|-5----------5-----------5-----------5-----------|X10
E|------------------------------------------------|
                  1:10
G|------7----------7-----------7-----------9------|
D|----7---7------7---7-------7---7-------7---7----|
A|-5----------5-----------5-----------5-----------|X3
E|------------------------------------------------|

G|------7----------7-----------7----------7-------|
D|----7---7------7---7-------7---7--------7-------|
A|-5----------5-----------5---------------5-------|
E|------------------------------------------------|
               1:34
G|--12--10--12--10--12-10--10--9--------------|
D|--------------------------------------------|
A|--------------------------------------------|X2
E|--------------------------------------------|
               1:49 
G|14-14-14-14-14-14-14-14-14-15-15-15-15-14-12-14-|
D|------------------------------------------------|
A|------------------------------------------------|X2
E|------------------------------------------------|

G|12-12-12-12-12-12-12-12-12-14-14-14-14-12-10-10-|
D|------------------------------------------------|
A|------------------------------------------------|
E|------------------------------------------------|

G|14-14-14-14-14-14-14-14-14-15-15-15-15-14-12-12-|
D|------------------------------------------------|
A|------------------------------------------------|X3
E|------------------------------------------------|

G|12-12-12-12-12-12-12-12-12-14-14-14-14-12-10-10-|
D|------------------------------------------------|
A|------------------------------------------------|
E|------------------------------------------------|

G|14-14-14-14-14-14-14-14-14-15-15-15-15-14-12-14-|
D|------------------------------------------------|
A|------------------------------------------------|
E|------------------------------------------------|
                  2:15
G|--12--10--12--10--12-10--10--9--9---------|
D|------------------------------------------|
A|------------------------------------------|X2
E|------------------------------------------|
                  2:29
G|14-14-14-14-14-14-14-14-14-15-15-15-15-14-12-14-|
D|------------------------------------------------|
A|------------------------------------------------|X2
E|------------------------------------------------|
                 2:36
G|12-12-12-12-12-12-12-12-12-14-14-14-14-12-10-10-|
D|------------------------------------------------|
A|------------------------------------------------|
E|------------------------------------------------|

G|14-14-14-14-14-14-14-14-14-15-15-15-15-14-12-12-|
D|------------------------------------------------|
A|------------------------------------------------|
E|------------------------------------------------| 
                      2:42
G|12-12-12-12-12-12-12-12-12-12-12-12-12-12-12-12-12/10-10-10-10-10-10-|
D|---------------------------------------------------------------------|
A|---------------------------------------------------------------------|X2
E|---------------------------------------------------------------------|
                      2:55
G|--12--10--12--10--12-10--10-----(14)--------|
D|-----------------------------14-------------|
A|--------------------------------------------|X2
E|--------------------------------------------|
                      3:10
G|--------------------------------------------|
D|--------------------------------------------|
A|-5-555-555-555-555-558--887h8p7-------------|X6
E|-------------------------------8------------|
                      3:42
G|-------------------------------7------------|
D|-----------------------------57---750-------|
A|-5-555-555-555-555-555-555--5---------------|
E|--------------------------------------------|

G|------------------------7-------------------|
D|----------------------57---750--------------|
A|------------5-555-555-----------------------|X4
E|--------------------------------------------|
                      3:59
G|--------------------------------------------|
D|-------------5-555-555-555555---------------|
A|--------------------------------------------|
E|--------------------------------------------|
                      4:02 
G|-------------7-777-777-777777---------------|
D|--------------------------------------------|
A|--------------------------------------------|
E|--------------------------------------------|
                      4:04
G|--------------------------------------------|
D|--------------------------------------------|
A|-5-555-555-555-555-558--887h8p7-------------|X4
E|-------------------------------8------------|
                      4:26              
G|------------------------7-------------------|
D|----------------------57---750--------------|
A|------------5-555-555-----------------------|X4
E|--------------------------------------------|
                     4:42
 G|-------------------------------------------|
D|-------------5-555-555-555555---------------|
A|--------------------------------------------|
E|--------------------------------------------|
                     4:45
G|-------------7-777-777-777777---------------|
D|--------------------------------------------|
A|--------------------------------------------|
E|--------------------------------------------|
                    Chorus
                     4:47
G|----------------------------------------------|
D|----------------555----5-7-5------------------|
A|-555-0-5-7-----------8-------8-7-5------------|X4
E|------------8---------------------------------|
                     5:11 
G|--12--10--12--10--12-10--10--9--14--------|
D|------------------------------------------|
A|------------------------------------------|X2
E|------------------------------------------|
                    5:35
G|--------------------------------------------------------|
D|--------------------------------------------------------|
A|-5-7-8-10-8-10-12-10-8-10-8-7-5-7-8-10-8-10-12-10-8-10--|
E|--------------------------------------------------------|

G|----------------------------------------------------|
D|------------------------------8-7-5-7-5-3-5-3-2-3---|
5|-5-7-8-10-8-10-12-10-8-10-8-7-----------------------|X2
E|----------------------------------------------------|
                       5:49
G|---------------------------------------------------------|
D|---------------------------------------------------------|
A|--7-7---3-3---5-5---------7-7---3-3---5-5----------------|X4
E|--------------------5-5-----------------------3-3-3-2-0--|
                      6:16
G|--------------------------------------------------------------|
D|--------------------------------------------------------------|
A|-7-9-10-12-10-12-14-12-10-12-10-9-7-9-10-12-10-12-14-12-10-12-|
E|--------------------------------------------------------------|

G|---------------------------------------------------------|
D|-----------------------------------10-8-7-8-7-5-7-5-3-5--|
5|-7-9-10-12-10-12-14-12-10-12-10-9------------------------|X2
E|---------------------------------------------------------|
                       6:29
G|------------------------------------------------|
D|------------------------------------------------|
A|-7-7777777---3-3333333---0-0000000--------------|
E|-------------------------------------1-1111111--|X4
                       6:55
G|------------------------------------------------|
D|-------------------------------------5-555553---|
A|-7-7777777---3-3333333---5-5555555-----------5--|X4
E|------------------------------------------------|
                     7:21

G|------------------------------------------------|
D|------------------------------------------------|
A|-7-7777777---3-3333333---0-0000000--------------|
E|-------------------------------------1-1111111--|X2
                      7:34
G|------------------------------------------------|
D|-------------------------------------5-555553---|
A|-7-7777777---3-3333333---5-5555555-----------5--|X4
E|------------------------------------------------|
                      7:59
G|------------------------------------------------|
D|------------------------------------------------|
A|-7-7777777---3-3333333---0-0000000--------------|
E|-------------------------------------1-1111111--|X4
                      8:25
G|--------------------------------------------------------|
D|--------------------------------------------------------|
A|-5-7-8-10-8-10-12-10-8-10-8-7-5-7-8-10-8-10-12-10-8-10--|
E|--------------------------------------------------------|

G|----------------------------------------------------|
D|------------------------------8-7-5-7-5-3-5-3-2-3---|
5|-5-7-8-10-8-10-12-10-8-10-8-7-----------------------|
E|----------------------------------------------------|

G|--------------------------------------------------------|
D|--------------------------------------------------------|
A|-5-7-8-10-8-10-12-10-8-10-8-7-5-7-8-10-8-10-12-10-8-10--|
E|--------------------------------------------------------|

G|--------------------------------------------------------|
D|------------------------------8-7-5-7-5-3-5-3-2-3-2-----|
5|-5-7-8-10-8-10-12-10-8-10-8-7-----------------------3-5-|
E|--------------------------------------------------------|
                      8:50
G|--12--10--12--10--12-10--10--9--------------|
D|--------------------------------------------|
A|--------------------------------------------|
E|--------------------------------------------|

G|--12--10--12--10--12-10--10--9-----7--------|
D|-----------------------------------7--------|
A|-----------------------------------5--------|
E|--------------------------------------------|

Thanks for reading, my first compilation. Email me changes at the_bear_bassist@hotmail.com


comments
We did not receive enough feedback on this tab! Please rate:
print report bad tab
1 2 3 4 5
I want to post or [tab]
guest
You may want to rate the tab now too:
select rating
Please do not post tabs as comments. Select "correction" instead!