Oops, an error
Loading. Please wait.

Aces High Tab

28,993 views 15 this week
15 commentsread comments
1 2 3 4 5
accurate
x 16
Autoscroll
+/-
esc
set tempo
stop
Contributor
Hey! There's an official Ultimate Guitar app which is ideal
for learning songs when you're away from computer. Get the app
WARNING: You are trying to view
                                    content from Ultimate-Guitar.com
                                    in an unauthorized application,
                                    which is prohibited.

                                    Please use an official Ultimate
                                    Guitar Tabs application for iPhone,
                                    iPad or Android to access legitimate
                                    chords, guitar, bass, and drum tabs
                                    from Ultimate-Guitar.com database.

                                    Type "ultimate guitar tabs" in Apple
                                    App Store's or Android Market's
                                    search to find the application.
Band- Iron Maiden
Song- Aces High

E5
x 7 9 x x x
F#5
x 9 11 x x x
G5
x 10 12 x x x
A5
x 12 14 x x x
D5
x 5 7 x x x
A5V
5 7 x x x x
B5
7 9 x x x x
C5
8 10 x x x x
D5X
10 12 x x x x
G5III
3 5 x x x x
E5(type 2)
x 7 9 9 x x
C5(type 2)
x 3 5 5 x x
D5(type 2)
x 5 7 7 x x
G5(type 2)
x 10 12 12 x x
Eb5
x 6 8 8 x x
F5
x 8 10 10 x x
A5(type 2)
5 7 7 x x x
F
1 3 3 2 1 x
G
3 5 5 4 3 3
G5III(type 2)
3 x 0 0 3 x
B5VII
7 9 9 x x x
G5(type 3)
3 5 5 x x x

Gtr I (E A D G B E) - 'Dave Murray - Rhythm/Lead w/dist'
Gtr II (E A D G B E) - 'Adrian Smith - Rhythm/Lead w/dist'

Intro
  Q=160
 4/4
  Gtr I
    PM--------------------------------------|
  E E     E E E E E E  E  E   E E E E E E E E
|-----||--------------------|-----------------|
|-----||o-------------------|-----------------|
|-----||--------6-----------|-------6---------|
|---6-||--7-9-7-----9-(7)-6-|-7-9-7-----9---6-|
|-----||o-------------------|-----------------|
|-----||--------------------|-----------------|
|
| Gtr II
|   PM--------------------------------------|
| E E     E E E E E E  E  E   E E E E E E E E
|-----||--------------------|-----------------|
|-----||o-------------------|-----------------|
|-----||--------------------|-----------------|
|-----||----6---7---6-------|---6---7---6-----|
|---7-||o-9---9-------(9)-7-|-9---9-----------|
|-----||--------------------|---------------9-|


                     1.,2.,3.
   PM-------------------------------|
   E E  E E E E E E   E E E E E E E E
|-------------------|------------------||
|-------------------|-----------------o||
|---------6---------|-------6----------||
|--7-9--7-----9---6-|-7-9-7-----9---6--||
|-------------------|-----------------o||
|-------------------|------------------||
|
|  PM-------------------------------|
|  E E  E E E E E E   E E E E E E E E
|-------------------|------------------||
|-------------------|-----------------o||
|-------------------|------------------||
|---------7---6-----|---6---7---6------||
|----7------------7-|-9---9---------7-o||
|-10---10-----------|------------------||


  4.H.=H                  Faster Q=252
                  2/4        4/4
                    >
           ~~~~~~~~~~~~
  E E E E +H       +H         Q.  E E E E E
|----------------|--------||----------------|
|----------------|--------||o---------------|
|----------------|--------||--5p==4-5p4-5p4-|
|-7-9-7-6-(6)----|-(6)----||----------------|
|----------------|--------||o---------------|
|----------------|--------||----------------|
|
|                   >
|          ~~~~~~~~~~~~
| E E E E +H       +H         Q.  E E E E E
|----------------|--------||----------------|
|----------------|--------||o---------------|
|----------------|--------||----------------|
|---6------------|--------||--7p==5-7p5-7p5-|
|-9---9-7-(7)----|-(7)----||o---------------|
|----------------|--------||----------------|


        ~
  Q  Q  H      Q.  E E E E E   E +E  E E E E E E  4x
|------------|---------------|--------------------||
|-5--5-------|---------------|-----------5-------o||
|-------5----|-5p==4-5p4-5p4-|-4-(4)-7-7---7-5-4--||
|------------|---------------|--------------------||
|------------|---------------|-------------------o||
|------------|---------------|--------------------||
|
|       ~
| Q  Q  H      Q.  E E E E E   E +E  E E E E E E  4x
|------------|---------------|--------------------||
|------------|---------------|-------------------o||
|-5--5-------|---------------|-------4-4-5p4------||
|-------7----|-7p==5-7p5-7p5-|-5-(5)---------7-5--||
|------------|---------------|-------------------o||
|------------|---------------|--------------------||


   Verse
    $
    Gtrs I, II
|-Rhy Fig 1
    E5   F#5   G5   A5   G5    F#5  E5   G5    F#5  D5   F#5   D5
    Q.   E +Q  Q    Q.   E +Q  Q    Q.   E +Q  Q    Q.   E +Q  Q
    |    |  |  |    |    |  |  |    |    |  |  |    |    |  |  |
    /    /  /  /    /    /  /  /    /    /  /  /    /    /  /  /
|----------------|---------------|---------------|----------------|


                                           end Rhy Fig 1-|
  E5   F#5   G5   A5   G5    F#5  E5   G5    F#5  D5
  Q.   E +Q  Q    Q.   E +Q  Q    Q.   E +Q  Q    W
  |    |  |  |    |    |  |  |    |    |  |  |    |
  /    /  /  /    /    /  /  /    /    /  /  /    /
|---------------|---------------|---------------|-------||

Rhy Fig 1

|-Rhy Fig 2
    A5V  B5    C5   D5X  C5    B5   A5V  C5    B5   G5IIIB5    G5III
    Q.   E +Q  Q    Q.   E +Q  Q    Q.   E +Q  Q    Q.   E +Q  Q
    |    |  |  |    |    |  |  |    |    |  |  |    |    |  |  |
    /    /  /  /    /    /  /  /    /    /  /  /    /    /  /  /
|----------------|---------------|---------------|----------------|


                                          end Rhy Fig 2-|
  A5V  B5    C5   D5X  C5    B5   A5V  C5    B5   G5III
  Q.   E +Q  Q    Q.   E +Q  Q    Q.   E +Q  Q    W
  |    |  |  |    |    |  |  |    |    |  |  |    |
  /    /  /  /    /    /  /  /    /    /  /  /    /
|---------------|---------------|---------------|-------||


Rhy Fig 2


   Pre-Chorus
    Gtrs I, II
    E E E E E E Q    E Q  E E E Q    E Q  E E E Q    E E E E E E E E
||-----------------|---------------|---------------|------------------|
||o----------------|---------------|---------------|------------------|
||-----------------|---------------|---------------|-5-4-----4--------|
||-----------------|-5-------------|-7-------------|-----7-5---7-5----|
||o-5h7---7---7-7--|---7--7---7-7--|---7--7---7-7--|---------------5--|
||-----------------|---------------|---------------|------------------|


  Gtr I
                                                           ~
  E E E E E E Q    E Q  E E E Q    E Q  E E E Q    E E E E H
|----------------|---------------|---------------|---------------||
|----------------|---------------|---------------|--------------o||
|----------------|---------------|---------------|-5-4-----------||
|----------------|-5-------------|-7-------------|-----7-5-7-----||
|-5h7---7---7-7--|---7--7---7-7--|---7--7---7-7--|--------------o||
|----------------|---------------|---------------|---------------||
|
| Gtr II
|                                                          ~
| E E E E E E Q    E Q  E E E Q    E Q  E E E Q    E E E E H
|----------------|---------------|---------------|---------------||
|----------------|---------------|---------------|-5------------o||
|----------------|---------------|---------------|---7-5-4-5-----||
|----------------|-5-------------|-7-------------|---------------||
|-5h7---7---7-7--|---7--7---7-7--|---7--7---7-7--|--------------o||
|----------------|---------------|---------------|---------------||


   Chorus
    Gtrs I, II
|-Rhy Fig 3                  end Rhy Fig 3-|
    E5(type 2)             C5(type 2) D5(type 2)
    W          +W          W          W
    |           |          |          |
    /           /          /          /
|-----------|-----------|----------|-------||

Rhy Fig 3 x3

  Gtr I
|-Rhy Fig 4                  end Rhy Fig 4-|
  G5(type 2)              Eb5        F5
  W          +W           W           W
  |           |           |           |
  /           /           /           /

  Gtr II
  W          +W           W           W
|----------|------------|----------|-------|
|-3--------|-(3)--------|----------|-------|
|-0--------|-(0)--------|-8--------|-10----|
|-0--------|-(0)--------|-8--------|-10----|
|----------|------------|-6--------|--8----|
|-3--------|-(3)--------|----------|-------|
|-Rhy Fig 4A                end Rhy Fig 4A-|



w/Rhy Fig 4
                                 \2.5/   \2.5/
           |-3-|
  H    Q   Q   E     +H.        +E.     +S
|-----------------|----------------------------|
|-----------------|----------------------------|
|-------------<5>-|-(<5>)------(<5>)---(<5>)---|
|---------<5>-----|----------------------------|
|-----------------|----------------------------|
|-----------------|----------------------------|



           \2.5/   \2.5/          \3.5____/
   +Q     +E.     +S      +Q     +E.     +S      +E.   +S    +H.
|---------------------------------------------|----------------------|
|---------------------------------------------|----------------------|
|-(<5>)--(<5>)---(<5>)---(<5>)--(<5>)---(<5>)-|-(<5>)-(<5>)-(<5>)----|
|---------------------------------------------|----------------------|
|---------------------------------------------|----------------------|
|---------------------------------------------|----------------------|


Rhy Fig 4 + 4A

Rhy Fig 4 + 4A -> To Coda

 Bridge
  Gtrs I, II
  Q  E E E E Q    E E Q  Q  Q     Q  E E E E Q    E E E E Q  Q
|---------------|---------------|---------------|---------------|
|---------------|---------------|---------------|---------------|
|---------------|---------------|---------------|---------------|
|---------------|--------7--7\--|---------------|---------2--2--|
|-0--3-3---0-0--|-3-2-0--5--5\--|-0--3-3---0-0--|-3-2-0---0--0--|
|---------------|---------------|---------------|-------3-------|


    Q  E E E E Q    E E Q  H       Q  E E E E Q    E E E E Q  Q    3x
||----------------|--------------|---------------|-----------------||
||o---------------|--------------|---------------|----------------o||
||----------------|--------------|---------------|-----------------||
||--2-------------|--------7\----|-2-------------|---------2-------||
||o-0--3-3---0-0--|-3-2-0--5\----|-0--3-3---0-0--|-3-2-0---0------o||
||----------------|--------------|---------------|-------3---------||


 Dave Murray - Guitar Solo
  A5(type 2)                                 F
  Gtr II
  W                   +W                     W
  |                    |                     |
  /                    /                     /

  Gtr I
                       |-3-|                 |---5---| |---5----|
  Q.     E +E  E Q     E E E E E S E S E E   E E E E E E E E E  E
|-------------------|----------------------|-----------------------|
|-5------5-(5)-5-5--|----5---5---5---5---5-|---5---5---5---5----5--|

|-7b9====7-(7)-7-7--|--7---7---7---7---7---|-7---7---7---7---7-(7)-|
|-------------------|----------------------|-----------------------|
|-------------------|----------------------|-----------------------|
|-------------------|----------------------|-----------------------|


  G5                    A5(type 2)
   W                     W               +W
   |                     |                |
   /                     /                /

          |-3--|
  +H     +Q  Q Q        +Q   H    +Q     +Q   E E E E E E
|---------------------|----------------|------------------|
|------------5-8b10===|=(8)--8----(8)r=|=(8)--8p5---5-----|
|-(7)r===(7)----------|----------------|----------7---7p5-|
|---------------------|----------------|------------------|
|---------------------|----------------|------------------|
|---------------------|----------------|------------------|


  C5(type 2)         D5(type 2)   A5(type 2)
  W                  W            W
  |                  |            |
  /                  /            /

                     ~~
                                  |-3-| |-3-| |-3-| |-3-|
  E E S E. E E E E   H.      Q    E E E E E E E E E E E E
|------------------|---------0--|-8p5p0-7p5p0-8p5p0-7p5p0-|
|------------------|------------|-------------------------|
|-7p5---5----------|------------|-------------------------|
|-----7----7p5-7p5-|------------|-------------------------|
|------------------|-7----------|-------------------------|
|------------------|------------|-------------------------|


  +W                         +W
   |                          |
   /                          /

   |-3-| |-3-| |-3-| |-3-|    |-3-| |-3-| |-3-| |-3-|
   E E E E E E E E E E E E    E E E E E E E E E E E E
|--8p5p0-7p5p0-7p5p0-7p5p0-|--8p5p0-7p5p0-8p5p0-7p5p0-|
|--------------------------|--------------------------|
|--------------------------|--------------------------|
|--------------------------|--------------------------|
|--------------------------|--------------------------|
|--------------------------|--------------------------|


    G                          A5(type 2)
     W                          W
     |                          |
     /                          /

                                |--3--|  |--3--| |--3--|
  a  H     +E   +E     E.  S    E  E  E  E  E  E E  E  E  S  E  T  T
|----------------------------|----------------------------------------|
|-8s10----(10)-(10)b13-------|---------------------12h13p12----12h13h=|
|-------------------------14-|-12h14p12----12h14------------14--------|
|----------------------------|----------14----------------------------|
|----------------------------|----------------------------------------|
|----------------------------|----------------------------------------|


                                C5(type 2)    D5(type 2)
  +W                              W             W
   |                              |             |
   /                              /             /

                                                ~~~~~
   E.  S  S  E  S      +H        +W            +H.       +Q
|-----12h13p12-15b17==(15)----|-(15)--------|-(15)r=====(15)\--||
|-15--------------------------|-------------|------------------||
|-----------------------------|-------------|------------------||
|-----------------------------|-------------|------------------||
|-----------------------------|-------------|------------------||
|-----------------------------|-------------|------------------||


 Adrian Smith - Guitar Solo
  B5VII                                      G5(type 2)
  Gtr I
   W                   +W                    W
   |                    |                    |
   /                    /                    /

  Gtr II
   E E E  E E E  E E    E  E E E  E E E  E   E E  E E E  E E E
|-10p7---10p9---10p7-|----10p9---10p7---10p|=9---10p7---10p9---|
|------0------0------|--0------0------0----|---0------0------0-|
|--------------------|---------------------|-------------------|
|--------------------|---------------------|-------------------|
|--------------------|---------------------|-------------------|
|--------------------|---------------------|-------------------|


  A5(type 2)          B5VII
   W                    W                      +W
   |                    |                       |
   /                    /                       /

   E E E  E E E E E     E  E   E  E E E  E E    E E E E E E E E
|-10p7---10p9-------|------------------------|------------------|
|------0------0-0-0-|-[12]p0-[10]p0-8p0-10p0-|--8p0-7p0-8p0-7p0-|
|-------------------|------------------------|------------------|
|-------------------|------------------------|------------------|
|-------------------|------------------------|------------------|
|-------------------|------------------------|------------------|


  D5(type 2)        E5(type 2)                             B5VII
  W                 W                                      W
  |                 |                                      |
  /                 /                                      /

                                                           ~~
                                                                   |-3--|
  E E E E E E E E   E    +E  +E     +E  +E     +Q.       a H.      E E  E
|-----------------|------------------------------------|-------------------|
|-5p0-7p0-8p0-7p0-|------------------------------------|-------------7-10--|
|-----------------|-6b8==(6)r(6)b8==(6)r(6)b8==(6)r\---|-----------7-------|
|-----------------|------------------------------------|-7s9---------------|
|-----------------|------------------------------------|-------------------|
|-----------------|------------------------------------|-------------------|


                                  G5(type 3)
  +W                              W
   |                              |
   /                              /

   |-3-|                  |-3-|
   E E E E E +S  S E     +Q   E   E E E E E E E E
|-------------------------------|------------------|
|-10p9p7---9-(9)p7--------------|------------------|
|--------9---------9b11==(9)r-8h|=9p7---9p7--------|
|-------------------------------|-----9-----9p7----|
|-------------------------------|---------------9\-|
|-------------------------------|------------------|


  A5(type 2)                    B5VII
  W                             W
  |                             |
  /                             /

                                |-3--|
  E    +E  +E     +E  +Q   Q    Q  Q Q  Q   E E
|-----------------------------|-----------------|
|-----------------------------|-7---------------|
|-----------------------------|---10-7-[9]------|
|-----------------------------|-------------9-8-|
|-5b7==(5)r(5)b7==(5)r(5)s=0--|-----------------|
|-----------------------------|-----------------|


                         D5(type 2)                    E5(type 2)
  +W                      W                             W
   |                      |                             |
   /                      /                             /

                                                        ~~~~~
                                      |-----3-----|
   Q  E E Q    +Q      a  E E  E  E   Q      +Q   Q     W
|-------------------|--------------------------------|-17b19----||
|-------------------|---------15-17-[17]b19r(17)-15--|----------||
|-------------------|-14s16--------------------------|----------||
|--7----------------|--------------------------------|----------||
|-----9-8-7b9r=(7)--|--------------------------------|----------||
|-------------------|--------------------------------|----------||


 Bridge
  Gtrs I, II
  Q  E E E E Q    E E Q  Q  Q     Q  E E E E Q    E E E E Q  Q
|---------------|---------------|---------------|---------------|
|---------------|---------------|---------------|---------------|
|---------------|---------------|---------------|---------------|
|---------------|--------7--7\--|---------------|---------2--2--|
|-0--3-3---0-0--|-3-2-0--5--5\--|-0--3-3---0-0--|-3-2-0---0--0--|
|---------------|---------------|---------------|-------3-------|


                                                     D.S. al Coda
    Q  E E E E Q    E E Q  H       Q  E E E E Q    E E E E Q  Q    3x
||----------------|--------------|---------------|-----------------||
||o---------------|--------------|---------------|----------------o||
||----------------|--------------|---------------|-----------------||
||--2-------------|--------7\----|-2-------------|---------2--2----||
||o-0--3-3---0-0--|-3-2-0--5\----|-0--3-3---0-0--|-3-2-0---0--0---o||
||----------------|--------------|---------------|-------3---------||


   Outro
    &
    Gtr I
                          ~
    Q.  E E E E E   Q  Q  H      Q.  E E E E E
||----------------|------------|---------------|
||o---------------|-5--5-------|---------------|
||--5p==4-5p4-5p4-|-------5----|-5p==4-5p4-5p4-|
||----------------|------------|---------------|
||o---------------|------------|---------------|
||----------------|------------|---------------|
|
|   Gtr II
|                         ~
|   Q.  E E E E E   Q  Q  H      Q.  E E E E E
||----------------|------------|---------------|
||o---------------|------------|---------------|
||----------------|-5--5-------|---------------|
||--7p==5-7p5-7p5-|-------7----|-7---5-7p5-7p5-|
||o---------------|------------|---------------|
||----------------|------------|---------------|


 1.,2.               3.
  Q  E E E E E E     E E E E E E E E
|-----------------||-------------------|
|--------5-------o||---------5---------|
|-4--7-7---7-5-4--||-7-7-7-7---7-5-4---|
|-----------------||-------------------|
|----------------o||-------------------|
|-----------------||-------------------|
|
| Q  E E E E E E     E E E E E E E E
|-----------------||-------------------|
|----------------o||-------------------|
|----4-4-5p4------||-4-4-4-4-5p4-------|
|-5----------7-5--||-------------7-5---|
|----------------o||-------------------|
|-----------------||-------------------|


                             Slower Q=108                 H.=H
                        ~
                                                             |-3--|
  Q.  E E E E E   Q  Q  H      Q.   E E E E E   E a E E E  E S  S S E E
|---------------|------------|----------------|--------------------------|
|---------------|-5--5-------|----------------|--------------------------|
|-5p==4-5p4-5p4-|-------5----|-5----4-5-4-5-4-|-4-5s7-7-7--9-7h=9p7s5-4--|
|---------------|------------|----------------|--------------------------|
|---------------|------------|----------------|--------------------------|
|---------------|------------|----------------|--------------------------|
|
|                       ~
|                                                            |-3--|
| Q.  E E E E E   Q  Q  H      Q.   E E E E E   E a E E E  E S  S S E E
|---------------|------------|----------------|--------------------------|
|---------------|------------|----------------|--------------------------|
|---------------|-5--5-------|----------------|--------------------------|
|-7p==5-7p5-7p5-|-------7----|-7----5-7-5-7-5-|-5-7s9-9-9-10-9h10p9-7-5--|
|---------------|------------|----------------|--------------------------|
|---------------|------------|----------------|--------------------------|


  Q=90
                                   ~
       |-3-|
  Q.   S S S Q  Q    Q  Q  Q  Q    H    Q  Q
|------------------|-------------|-------------*|
|-8----6h8p6-5--3--|-5--6--5S=3--|-------------*|
|------------------|-------------|-5-----------*|
|------------------|-------------|------7------*|
|------------------|-------------|------7------*|
|------------------|-------------|------5------*|
|
|                                  ~
|      |-3-|
| Q.   S S S Q  Q    Q  Q  Q  Q    H    Q  Q
|------------------|-------------|-------------*|
|------------------|-------------|-------------*|
|-9----7h9p7-5--4--|-5--7--5S=4--|-2----2------*|
|------------------|-------------|------2------*|
|------------------|-------------|------0------*|
|------------------|-------------|-------------*|
comments
print report bad tab
15 comments total. Showing first comments.
0 reply
the big stink wrote on April 18 2005, 12:00 am

awesome

+1 reply
the big stink wrote on April 18 2005, 12:00 am

nevermind

0 reply
SdKfz wrote on June 20 2005, 12:00 am

Hey, I have a question.

This tab is taken from the album version, right ?

I want to post or [tab]
guest
You may want to rate the tab now too:
select rating
Please do not post tabs as comments. Select "correction" instead!