Oops, an error
Loading. Please wait.

Brave New World Bass Tab

ver1
ver1

Album

Whole song

More versions @911Tabs.com
9,720 views 6 this week
7 commentsread comments
1 2 3 4 5
accurate
x 10
Autoscroll
+/-
esc
set tempo
stop
Contributor
Difficulty
intermediate
WARNING: You are trying to view
                                    content from Ultimate-Guitar.com
                                    in an unauthorized application,
                                    which is prohibited.

                                    Please use an official Ultimate
                                    Guitar Tabs application for iPhone,
                                    iPad or Android to access legitimate
                                    chords, guitar, bass, and drum tabs
                                    from Ultimate-Guitar.com database.

                                    Type "ultimate guitar tabs" in Apple
                                    App Store's or Android Market's
                                    search to find the application.
Band: Iron Maiden
Album: Brave New World
Instrument Bass
Regular tuning (EADG)

1: Wickerman
[Intro]
G|------------|--------------------|-----------------|
D|----REST----|--------------------|-----------------|
A|------------|-7-7----7-7----7-7--|-------10-10--7--|
E|------------|--------------------|--8-8------------|
   Guitar riff


[Continuation]
G|----------------------|------------------------------|
D|----------------------|------------------------------|
A|--7-7t-7-7-7-7-7-7-7--|-7t-7-7-7-7-------10-10-10--7-|
E|----------------------|------------8-8-8-------------|
 * t=triplets (3 fingers fast play)

G|----------------------|------------------------------|
D|----------------------|------------------------------|
A|--7-7t-7-7-7-7-7-7-7--|-7t-7-7-7-7-------10-10-10--7-|
E|----------------------|------------8-8-8-------------|
Hand of fate is moving and the finger points to you...
(Keep playing that until the pre-chorus bridge)


[Pre-chorus Bridge] (0:40)
G|-----------------------|---------------------|---------|
D|-----------------------|---------------------|-5-5-4-2-|
A|-5-5-5-5-5-5-5-5-5-5-5-|-3-3-3-3-3-3-3-3-3-3-|---------|
E|-----------------------|---------------------|---------|
You watch the world exploding every single night

G|-----------------------|---------------------|---------|
D|-----------------------|---------------------|---------|
A|-5-5-5-5-5-5-5-5-5-5-5-|-3-3-3-3-3-3-3-3-3-3-|-----3-3-|
E|-----------------------|---------------------|-3-3-----|
Dancing in the sun a new born in the night

Say good bye to gravity and say good bye to death
(repeat the "You watch the world" part)
Hello to eternity and pray for every breath
(repeat the "Dancing in the sun" part)


[Chorus] (0:59)
G|-----------|-----------|-----------|-----------|
D|-----------|-----------|-----------|-----------|
A|-7-7-7-7-7-|-3-3-3-3-3-|-----------|-5-5-5-5-5-|
E|-----------|-----------|-3-3-3-3-3-|-----------|
Your time will come...

G|-----------|-----------|-----------|---------|---------|
D|-----------|-----------|-----------|---------|---------|
A|-7-7-7-7-7-|-----------|-3-3-3-3-3-|---------|-5-5-5-5-|
E|-----------|-3-3-3-3-3-|-----------|-3-3-3-3-|---------|
Your time will co-o-o-ome...


[Guitar solo 1] (2:15)
G|----------------------|------------------------------|
D|----------------------|------------------------------|
A|--7-7t-7-7-7-7-7-7-7--|-7t-7-7-7-7-------10-10-10--7-|
E|----------------------|------------8-8-8-------------|
(repeat this until solo 2)


[Guitar solo 2] (2:33)
G|-----------|-----------|-----------|-----------|
D|-----------|-----------|-----------|-----------|
A|-2-2-2-2-2-|-----------|-----------|-3-3-3-3-3-|
E|-----------|-3-3-3-3-3-|-5-5-5-5-5-|-----------|
(repeat this until solo 3,
which the bass riff is the same as solo 1's)


[Guitar solo 3] (2:52)
G|----------------------|------------------------------|
D|----------------------|------------------------------|
A|--7-7t-7-7-7-7-7-7-7--|-7t-7-7-7-7-------10-10-10--7-|
E|----------------------|------------8-8-8-------------|

(Then there is the chorus again)


[Last part] (3:48)
G|------9-------9--|------5-------5--|
D|------9-------9--|------5-------5--|
A|--7-7-7-7-7-7-7--|--3-3-3-3-3-3-3--|
E|-----------------|-----------------|
Oh-oh, oh-oh...

G|-----------------|------7-------7--|         |-7-|
D|------5-------5--|------7-------7--|  Last   |-7-|
A|------5-------5--|--5-5-5-5-5-5-5--|  time ->|-5-|
E|--3-3-3-3-3-3-3--|-----------------| (4:23)  |---|
Oh-oh, oh-oh, oh-oh-oh-oh...               Oh, oh, ooh...

2: Ghost of the Navigator
(Intro)
G:-----------|-----------|-----------|-----------|
D:----7------|-----5-----|-----7-----|-----5-----|
A:----5------|-----3-----|-----5-----|-----3-----|
E:-----------|-----------|-----------|-----------|

G:-----------|-----------|-----------|-----------|
D:-----------|-----------|-----7-----|-----5-----|
A:-----8-----|-----8-----|-----5-----|-----3-----|
E:-----6-----|-----6-----|-----------|-----------|

G:-----------|-----------|-----------|-----------|
D:7----------|-----------|5-5-5-5-5-5|7----------|  x2
A:5-5-5-5-5-5|8-8-8-8-8-8|3----------|5-5-5-5-5-5|
E:-----------|6----------|-----------|-----------|

G:-----------|-----------|-----------|-----------|
D:-----------|-----------|-----------|-----------|  x4
A:5--5--5--5-|-5--5--5--5|-5--5--5--5|-5--5--5--5|
E:-----------|-----------|-----------|-----------|

(Verse)
G:-----------|-----------|-----------|-----------|
D:-----------|-----------|-----------|7----------|  x6
A:5--55555555|5--55555555|5--55555555|----5--5--5|
E:-----------|-----------|-----------|-----------|

G:-----------|-----------|-----------|-----------|
D:-----------|-----------|-----------|-----------|  x4
A:0-0-0-0-0-0|3-3-3-3-3-3|2-2-2-2-2-2|5----3----2|
E:-----------|-----------|-----------|-----------|

(Chorus)
G:-----------|-----------|-----------|-----------|
D:-----2-----|-----5-----|-----------|-----------|  x4
A:-----------|-----------|-----3-----|-----------|
E:-----------|-----------|-----------|-----5-----|

G:-----------|-----------|-----------|----------------|
D:-----------|-----------|-----------|----------------|_
A:5----5----5|3----3----3|5----5----5|3----3----3| ---|
E:-----------|-----------|-----------|-----------| ---|
                                                    |__x2
G:-----------|-----------|-----------|-----------| ---|
D:-----------|-----------|-----------|-----------| ---|
A:-----------|-----------|5----5----5|3----3----3|_---|
E:6----6----6|6----6----6|-----------|----------------|


(Verse II)
G:-----------|-----------|-----------|-----------|
D:-----------|-----------|-----------|7----------|  x4
A:5--55555555|5--55555555|5--55555555|----5--5--5|
E:-----------|-----------|-----------|-----------|

G:-----------|-----------|-----------|-----------|
D:-----------|-----------|-----------|-----------|
A:0-0-0-0-0-0|3-3-3-3-3-3|2-2-2-2-2-2|5----3----2|
E:-----------|-----------|-----------|-----------|

G:-----------|-----------|-----------|-----------|
D:-----------|-----------|-----------|0----2----3|
A:0-0-0-0-0-0|3-3-3-3-3-3|2-2-2-2-2-2|-----------|
E:-----------|-----------|-----------|-----------|

G:-----------|-----------|-----------|-----------|
D:-----------|-----------|-----------|-----------|  x2
A:0-0-0-0-0-0|3-3-3-3-3-3|2-2-2-2-2-2|5----3----2|
E:-----------|-----------|-----------|-----------|

G:-----4-----|-----7-----|-----------|-----------|
D:-----2-----|-----5-----|-----5-----|-----------|  x4
A:-----------|-----------|-----3-----|-----7-----|
E:-----------|-----------|-----------|-----5-----|


G:-----------|-----------|-----------|----------------|
D:-----------|-----------|-----------|----------------|_
A:5----5----5|3----3----3|5----5----5|3----3----3| ---|
E:-----------|-----------|-----------|-----------| ---|
                                                    |__x2
G:-----------|-----------|-----------|-----------| ---|
D:-----------|-----------|-----------|-----------| ---|
A:-----------|-----------|5----5----5|3----3----3|_---|
E:6----6----6|6----6----6|-----------|----------------|

G:-----------|-----------|-----------|-----------|
D:-----------|-----------|-----------|7----------|  x4
A:5--55555555|5--55555555|5--55555555|----5--5--5|
E:-----------|-----------|-----------|-----------|

(Bridge)
G:-----------|-----------|-----------|-----------|
D:2-2-2-2-2-2|2-2-2-2-2-2|2-2-2-2-2-2|-----0-----|  x2
A:-----------|-----------|-----------|3---------2|
E:-----------|-----------|-----------|-----------|

G:-----------|-----------|-----------|-----------|
D:0-0-0-0-0-0|0-0-0-0-0-0|0-0-0-0-0-0|----------0|  x2
A:-----------|-----------|-----------|1----3-----|
E:-----------|-----------|-----------|-----------|

G:-----------|-----------|-----------|-----------|
D:4-4-4-4-4-4|4-4-4-4-4-4|4-4-4-4-4-4|-----2----4|  x2
A:-----------|-----------|-----------|5----------|
E:-----------|-----------|-----------|-----------|

G:-----------|-----------|-----------|-----------|
D:2-2-2-2-2-2|2-2-2-2-2-2|2-2-2-2-2-2|-----0-----|  x2
A:-----------|-----------|-----------|3---------2|
E:-----------|-----------|-----------|-----------|

G:-----4-----|-----7-----|-----------|-----------|
D:-----2-----|-----5-----|-----5-----|-----------|  x4
A:-----------|-----------|-----3-----|-----7-----|
E:-----------|-----------|-----------|-----5-----|

G:-----------|-----------|-----------|----------------|
D:-----------|-----------|-----------|----------------|_
A:5----5----5|3----3----3|5----5----5|3----3----3| ---|
E:-----------|-----------|-----------|-----------| ---|
                                                    |__x2
G:-----------|-----------|-----------|-----------| ---|
D:-----------|-----------|-----------|-----------| ---|
A:-----------|-----------|5----5----5|3----3----3|_---|
E:6----6----6|6----6----6|-----------|----------------|

(Outro)
G:-----------|-----------|-----------|-----------|
D:-----7----5|3----2----3|-----------|-----------|
A:5----------|-----------|5-5-5-5-5-5|5-5-5-5-5-5|
E:-----------|-----------|-----------|-----------|

3: Brave New World

G:-7--10----|----------|--7--10-5-|-3--5--7--|
D:-7--7--10-|-8--10--10|--7--7--5-|-0--5--7--|  x6
A:-5--8--10-|-5--10--10|--5--8--3-|-1--3--5--|
E:--------8-|-6--8---8-|----------|----------|

G:----------|----------|----------|----------|
D:----------|----------|----------|----------|  x2
A:---5(12)--|----------|---3(12)--|---5(12)--|
E:----------|---6(12)--|----------|----------|

G:----------|----------|----------|----------|
D:----------|----------|----------|----------|  x2
A:----------|---3(12)--|----------|---5(12)--|
E:---6(12)--|----------|---6(12)--|----------|

(Chorus)
G:----------|----------|----------|----------|
D:----------|----------|----------|----------|
A:5-----3--5|5--------5|5-----3--5|5--------5|
E:---6------|---6--3---|---6------|---6--3---|

G:----------|----------|----------|----------|
D:----------|----------|----------|----------|  x2
A:-5---5---5|----------|-3---3---3|-5---5---5|
E:----------|-6---6---6|----------|----------|

G:----------|----------|----------|----------|
D:----------|----------|----------|----------|  x2
A:----------|-3---3---3|----------|-5---5---5|
E:-6---6---6|----------|-6---6---6|----------|

G:----------|----------|----------|----------|
D:----------|----------|----------|----------|
A:5-----3--5|5--------5|5-----3--5|5--------5|
E:---6------|---6--3---|---6------|---6--3---|

G:----------|----------|----------|----------|
D:----------|----------|----------|----------|  x2
A:-5---5---5|----------|-3---3---3|-5---5---5|
E:----------|-6---6---6|----------|----------|

G:----------|----------|----------|----------|
D:----------|----------|----------|----------|  x2
A:----------|-3---3---3|----------|-5---5---5|
E:-6---6---6|----------|-6---6---6|----------|

(During Solo)
G:---------7|----------|---------7|----------|
D:---------5|---------5|---------5|----------|  x6
A:7--7--7---|3--3--3--3|5--5--5---|-7---7---7|
E:----------|----------|----------|----------|

G:----------|----------|----------|----------|
D:----------|----------|----------|----------|
A:5-----3--5|5--------5|5-----3--5|5--------5|
E:---6------|---6--3---|---6------|---6--3---|

(Outro)
G:-7--10----|----------|--7--10-5-|-3--5--7--|
D:-7--7--10-|-8--10--10|--7--7--5-|-0--5--7--|
A:-5--8--10-|-5--10--10|--5--8--3-|-1--3--5--|
E:--------8-|-6--8---8-|----------|----------|

4: Blood Brothers
Intro                                                     Play x4
|------------7---------12---12----14-----------------7------------------------|
|---9---9--5---5--5/10---10----12---12-----2---2--5---5-----5---5------7------|
|-----7---------------------------------------2-----------3----3-----5----7---|
|0---------------------------------------0------------------------------------|

  (0:34)Verse1 (0:35)          Play x4 (0:34 to 0:50)
|---9---9------7---7------5---5------7---7-----|----|
|------------5---5---5-------------------------|-X4-|
|-7---7---7-------------3---3---3--5---5---5---|----|
|----------------------------------------------|----|
(0:51)Verse2 (0:53)    (0:54)
|--------77-77------------------77-77--|
|-99-999-55-55-55-55-777-99-999-55-55--|
|-77-777-------33-33-555-77-777--------|
|--------------------------------------|

 (0:57)     (0:59)
|-----------------77-77------------------77-77------------|
|-55-55-777-9-999-55-55-55-55-777-99-999-55-55-55-55-777--|
|-33-33-555-7-777-------33-33-555-77-777-------33-33-555--|
|---------------------------------------------------------|

 (1:06)Chorus                   (1:18)Cont.Chorus
|-99-99955-555-------7-|----|-99-99955-555-------77--|
|-99-99955-55555-555-7-|-X3-|-99-99955-55555-555-77--|
|-77-77733-33355-555-5-|----|-77-77733-33355-555-55--|
|-------------33-333---|----|-------------33-333-----|

 (1:22)Verse3    (1:22 to 1:36)
|-99-999-77-77-55-55-777-|----|--|
|-99-999-55-55-55-55-777-|-X4-|--|
|-77-777-------33-33-555-|----|--|
|------------------------|----|--|
  (1:37)Chorus                (1:48)Cont.Chorus
|-99-99955-55-------7-|----|----99955-55-------77--|
|-99-99955-5555-555-7-|-X3-|----99955-5555-555-77--|
|-77-77733-3355-555-5-|----|-77-77733-3355-555-55--|
|------------33-333---|----|------------33-333-----|

   (1:52)Interlude1(Like Intro)                       Play x2 (1:52 to 2:09)
|------------7---------12---12----14-----------------7------------------------|
|---9---9--5---5--5/10---10----12---12-----2---2--5---5-----5---5------7------|
|-----7---------------------------------------2-----------3----3-----5----7---|
|0---------------------------------------0------------------------------------|

  (2:09)Verse4"There are times...       Play x2 (2:09 to 2:24)
|-99-999-77-77-55-55-777-99-999-77-77-55-55-7-|----|-------|
|-99-999-55-55-55-55-777-99-999-55-55-55-55-7-|-X2-|-------|
|-77-777-------33-33-555-77-777-------33-33-5-|----|-------|
|---------------------------------------------|----|-------|

  (2:25)Verse5             (2:29)       (2:31)   Play x2 (2:25 to 2:39)
 G-|-99-999-77-77-55-55-777-99-999-77-77-55-55-7-|----|----------------|
 D-|-99-999-55-55-55-55-777-99-999-55-55-55-55-7-|-X2-|----------------|
 A-|-77-777-------33-33-555-77-777-------33-33-5-|----|----------------|
 E-|---------------------------------------------|----|----------------|

  (2:40)Chorus                   (2:52)Cont.Chorus
 G-|-99-99955-555-------7-|----|-99-99955-555-------77--|
 D-|-99-99955-55555-555-7-|-X3-|-99-99955-55555-555-77--|
 A-|-77-77733-33355-555-5-|----|-77-77733-33355-555-55--|
 E-|-------------33-333---|----|-------------33-333-----|

   (2:55)Riff     (2:57)    (2:58)  (2:59) Play x4 (2:55 to 3:10)
|-99-999-77-77------12-------14----99-999-77-77-55-55-7-|----|--|
|-99-999-55-55-5/10---10--12---12--99-999-55-55-55-55-7-|-X4-|--|
|-77-777---------------------------77-777-------33-33-5-|----|--|
|-------------------------------------------------------|----|--|
   (3:10)Solo     Play x4 (3:10 to 3:25)
|-99-999-77-77-55-55-777-|-----|
|-99-999-55-55-55-55-777-|-X4--|
|-77-777-------33-33-555-|-----|
|------------------------|-----|

 (3:25)Riff2           Play x 4 (3:25 to 3:55)
|-9------------7----5--------7--------|----|
|-9------------5-55-5--------7--------|-X4-|
|-7-777-777-77------3-333-33-5-555-55-|----|
|-------------------------------------|----|
(3:56)Interlude2                       (4:03)     (4:04)
|-------9--9-----9--9-----9--9------9--9-----14--14----12--12--|
|-----9--9-----9--9-----9--9--9---9--9---------14--------12----|
|-7-7--------7--------7---------7---------12--------10---------|
|--------------------------------------------------------------|

  (4:05)               (4:06)
|-----9--9-------9--9-----14--14----12--12-|
|---9--9--9----9--9---------14--------12---|
|-7----------7---------12--------10--------|
|------------------------------------------|
(4:09)               (4:11)               (4:13)  (4:14)
|-----9--9-------9--9-----14--14----12--12-|
|---9--9--9----9--9---------14--------12---|
|-7----------7---------12--------10--------|
|------------------------------------------|

 (4:13)  (4:14)  (4:15)   (4:17)   (4:17)
|--5---5----7---7----5---5----7---7------9--9------9--9------9--9------9--9--|
|----5--------7--------5--------7------9--9--9---9--9--9---9--9--9---9--9--9-|
|3--------5--------3--------5--------7---------7---------7---------7---------|
|----------------------------------------------------------------------------|

   (4:21)               (4:23)
|-----9--9------9--9----5---5-----------|
|---9--9--9---9--9--------5-----7---7---|
|-7---------7---------3-----------7-----|
|-----------------------------5---------|

 (4:25)              (4:27)           (4:29)              (4:31)  Play x2
|----9--9------9--9----5---5--------------7--7------7--7----5---5---------|
|--9--9--9---9--9--------5-----7---7----7--7--7---7--7--------5-----7---7-|
|7---------7---------3-----------7----5---------5---------3-----------7---|
|----------------------------5------------------------------------5-------|

  (4:45)
|-----9--9------9--9------9--9------9--9---|
|---9--9--9---9--9--9---9--9--9---9--9--9--|
|-7---------7---------7---------7----------|
|------------------------------------------|

   (4:50)"When you think that...
|-----9--9------9--9----5---5----------|
|---9--9--9---9--9--------5-----7---7—-|
|-7---------7---------3-----------7----|
|-----------------------------5--------|
Play x2 (4:50 to 5:13)
|----9--9------9--9----5---5--------------7--7------7--7----5---5---------|
|--9--9--9---9--9--------5-----7---7----7--7--7---7--7--------5-----7---7-|
|7---------7---------3-----------7----5---------5---------3-----------7---|
|----------------------------5------------------------------------5-------|

  (5:14)
|-----9--9------9--9------9--9------9--9---|
|---9--9--9---9--9--9---9--9--9---9--9--9--|
|-7---------7---------7---------7----------|
|------------------------------------------|

   (5:17)       (5:19)     (5:21)       (5:23)    (5:25)  Play x2
|-9------------5----------9-----------5----------7-----------5---------|-9-|
|-9------------5----7-----9-----------5----7-----7-----------5----7----|-9-|
|-7-7-7-7--77--3-33-7-----7-7-7-7-77--3-33-7-----5-5-5-5-55--3-33-7----|-7-|
|-------------------5-55-------------------5-55-------------------5-55-|---|

   (5:45)Solo2  (5:47)    (5:49)      (5:50)     (5:52) Play x2
|-9-----------5----------9-----------5----------7-----------5---------|-9-|
|-9-----------5----7-----9-----------5----7-----7-----------5----7----|-9-|
|-7-7777-777--3-33-7-----7-7777-777--3-33-7-----5-5555-555--3-33-7----|-7-|
|------------------5-55-------------------5-55-------------------5-55-|---|

   (6:11)Chorus x7            (6:37)Cont.Chorus
|-99-99955-55-------7-|----|-99-99955-55-------77--|
|-99-99955-5555-555-7-|-X7-|-99-99955-5555-555-77--|
|-77-77733-3355-555-5-|----|-77-77733-3355-555-55--|
|------------33-333---|----|------------33-333-----|

 (6:41)Outro                              (6:45)
|------------7---------12---12----14-----------------7-----------------------|
|---9---9--5---5--5/10---10----12---12-----2---2--5---5-----5---5------7-----|
|-----7---------------------------------------2-----------3----3-----5----7--|
|0---------------------------------------------------------------------------|

                       (6:54)
|------------7---------12---12----14-----------------7-----------------------|
|---9---9--5---5--5/10---10----12---12-----2---2--5---5-----5---5------7-----|
|-----7---------------------------------------2-----------3----3-----5----7--|
|0---------------------------------------0-----------------------------------|

5: The Mercenary

[Intro/Verse]
G|--------------------------------------------------------------------|
D|--------------------------------------------------------------------|
A|-7-7-7-7-7-7-7-7-7-7-7-7-7-7-7-7-7-7-7-7-7-7-7-7-7-7-7-7-7-7-7-7----|
E|--------------------------------------------------------------------|

[Pre-Chorus] ('Nowhere to run...')
G|---------------------------------------------------------------------|
D|---------------------------------------------------------------------|
A|-7-777-777-777-77-5-555-555-555-55-3-333-333-333-33-5-555-555-555-55-|
E|---------------------------------------------------------------------|

[Chorus] ('Show them no fear...')
G|---------------------------------------------------------------------|
D|---------------------------------------------------------------------|
A|-3-333-333-333-33-5-555-555-555-55-7-777-777-777-777-777-777-777-777-|
E|---------------------------------------------------------------------|

[Guitar Solo]							     --
G|-------------------------------------------------------------------------|
D|--------------------------------------------------------------------  ---|
A|-2-2-2-2-2-2-2-2-2-2-2-2-2-2-2-2-0-0-0-0-0-0-0-0-0-0-0-0-0-0-0-0----  ---|
E|--------------------------------------------------------------------  ---|
   									 |- x2
G|--------------------------------------------------------------------  ---|
D|--------------------------------------------------------------------  ---|
A|-2-2-2-2-2-2-2-2-2-2-2-2-2-2-2-2-5-5-5-5-5-5-5-5-3-3-3-3-3-3-3-3----  ---|
E|-------------------------------------------------------------------------|  /
								     --/
			THEN
								     --
G|------------------------------------------------------------------------|
D|-------------------------------------------------------------------- ---|
A|-7-7-7-7-7-7-7-7-7-7-7-7-10-10-10-10-5-5-5-5-5-5-5-5-5-5-5-5-5-5-5-5 ---|
E|-------------------------------------------------------------------- ---|
									|- 2x
G|-------------------------------------------------------------------- ---|
D|-------------------------------------------------------------------- ---|
A|-7-7-7-7-7-7-7-7-7-7-7-7-10-10-10-10-5-5-5-5-5-5-5-5-0-0-0-0-0-0-0-0 ---|
E|------------------------------------------------------------------------|  /
								     --/
[Interlude]
G|--------------------------------------------------------------------|
D|--------------------------------------------------------------------|
A|-7-7-7-7-7-7-7-7-5-5-5-5-5-5-5-5-3-3-3-3-3-3-3-3-5-5-5-5-5-5-5-5----|
E|--------------------------------------------------------------------|

6: Dream of Mirrors
[Intro] ('Have you ever felt...')
G|-----4-5-4-----------4-5-4---7-----4-5-4-------------------5-4-|
D|-----------5---------------5-------------5-------------3-2-----|
A|-0-0---------5---0-0-----------0-0---------5---3-2-3-2---------|
E|---------------------------------------------------------------|

G|-----4-5-4-----------4-5-4---7-----4-5-4-------------------5-4-|
D|-----------5---------------5-------------5-------------3-2-----|
A|-0-0---------5---0-0-----------0-0---------5---3-2-3-2---------|
E|---------------------------------------------------------------|

G|---------------------------------------------------------------|
D|---------------------------------------------------------------|
A|-0-000-000-000-000-000-000-000-000-000-000-000-000-000-000-000-|
E|---------------------------------------------------------------|

G|---------------------------------------------------------------|
D|---------------------------------------------------------------|
A|-----------------------------------000-000-000-000-000-000-000-|
E|-3-333-333-333-333-333-333-333-333-----------------------------|

[Verse Part 1] ('Don't know why I feel this way...')
G|---------------------------------------------------------------|
D|---------------------------------------------------------------|
A|-0-000-000-000-000-000-000-000-000-000-000-000-000-000-000-000-|
E|---------------------------------------------------------------|

[Verse Part 2] ('All my hopes and expectations...')
G|--------------------7---7---7-----------------------7---7---7---|
D|----3---3---3-----7---7---7---7-----3---3---3-----7---7---7---7-|
A|--3---3---3---3-5-----------------3---3---3---3-5---------------|
E|1-------------------------------1-------------------------------|

G|--------------------7---7---7-----------------------------------|
D|----3---3---3-----7---7---7---7-----3---3---3-------5---5---5---|
A|--3---3---3---3-5-----------------3---3---3---3---5---5---5---5-|
E|1-------------------------------1---------------3---------------|

[Bridge] ('The Dream is true...')
G|-----2---5---4-------5-----------2---5---4-------5-------------|
D|---2---2---2---2---5-------5---2---2---2---2---5-------5-------|
A|-0---------------3-------5---0---------------3-------5---------|
E|-----------------------3---------------------------3-----------|

G|-----2---5---4-------5-----------2---5---4---------------------|
D|---2---2---2---2---5-------5---2---2---2---2-----3-----5-------|
A|-0---------------3-------5---0-----------------3-----5---------|
E|-----------------------3---------------------1-----3-----------|

[Verse Part 3] ('All my hopes and expectations...')
G|----------------------------------------------------------------|
D|----------------------------------------------------------------|
A|----------------5-5-5-5-5-5-5-5-----------------5-5-5-5-5-5-5-5-|
E|1-1-1-1-1-1-1-1-----------------1-1-1-1-1-1-1-1-----------------|

G|----------------------------------------------------------------|
D|----------------------------------------------------------------|
A|----------------5-5-5-5-5-5-5-5---------------------------------|
E|1-1-1-1-1-1-1-1-----------------1-1-1-1-1-1-1-1-3-3-3-3-3-3-3-3-|

[Chorus] ('I only dream in black and white...')
G|----------------------------------------------------------------|
D|----------------------------------------------------------------|
A|----------------------------------------------------------------|
E|5-5-5-5-5-5-5-5-1-1-1-3-3-3-3-3-5-5-5-5-5-5-5-5-1-1-1-3-3-3-3-3-|

G|----------------------------------------------------------------|
D|----------------------------------------------------------------|
A|----------------------------------------------------------------|
E|5-5-5-5-5-5-5-5-1-1-1-3-3-3-3-3-1-1-1-1-1-1-1-1-3-3-3-3-3-3-3-3-|

[Interlude 1] ('Lost, in a dream of mirrors...')
G|-------------------------------------------------------------------|
D|-------------------------------------------------------------------|
A|-------------------------------------------------------------------|
E|-5-555-555-555-555-555-555-555-55-3-333-333-333-333-333-333-333-33-|

G|--------------------------------------------------------------------|
D|--------------------------------------------------------------------|
A|--------------------------------------------------------------------|
E|-5-555-555-555-555-555-555-555-55-1-111-111-111-111-333-333-333-33--|

[Solo]
G|-------------------------------------------------------------------|
D|-------------------------------------------------------------------|
A|-------------------------------------------------------------------|
E|-5-555-555-555-555-555-555-555-55-1-111-111-111-111-111-111-111-11-|

G|-------------------------------------------------------------------|
D|-------------------------------------------------------------------|
A|-3-333-333-333-333-333-333-333-33----------------------------------|
E|----------------------------------1-111-111-111-111-333-333-333-33-|

7 Fallen Angel:
[Intro Part 1]
G|-------------0-----------5-5-5-4-4-4-2-5-4-2-0------------------|
D|-0-2-2-2-2-2---2-2-2-2-2-----------------------0----------------|
A|----------------------------------------------------------------|
E|----------------------------------------------------------------|

G|-------------0-----------7-7-7-5-5-5-4-7-5-4-2-0----------------|
D|-0-2-2-2-2-2---2-2-2-2-2----------------------------------------|
A|----------------------------------------------------------------|
E|----------------------------------------------------------------|

G|-------------0-----------5-5-5-4-4-4-2-5-4-2-0------------------|
D|-0-2-2-2-2-2---2-2-2-2-2-----------------------4----------------|
A|----------------------------------------------------------------|
E|----------------------------------------------------------------|

G|----------------------------------------------------------------|
D|----------------------------------------------------------------|
A|-2-2-2-2-2-2-2-2-2-2-2-2-5-5-5-5-5-5-5-5-5-5-5-5----------------|
E|----------------------------------------------------------------|

[Intro Part 2]
G|-----------------------------------------------------------------|
D|-----------------------------------------------------------------|
A|-0-0-0-0-2-3-0-0-0-0-2-3-5---5-5---0-0-0-0-2-3-0-0-0-0-2-3-5---5-|
E|---------------------------3---------------------------------3---|

[Verse] ('Azazel is beside you...')
G|-----------------------------------------------------------------|
D|-----------------------------------------------------------------|
A|-------------------------3-------------------------------5-------|
E|-0-0-0-0-0-0-0-0-0-0-0-0---0-2-3-0-0-0-0-0-0-0-0-0-0-0-0---0-2-3-|

[Pre-Chorus] ('You and only god would know...')
G|----------------------------------------------------------------|
D|----------------------------------------------------------------|
A|-2-2-3-3-5-5-7-7-2-2-2-2---2-2-3-3-5-5-7-7-2-2-2-2-2-2----------|
E|----------------------------------------------------------------|

G|----------------------------------------------------------------|
D|----------------------------------------------------------------|
A|-2-2-3-3-5-5-7-7-2-2-2-2---2-2-3-3-5-5-7-7-2-2-2-2-2-2-3-5------|
E|----------------------------------------------------------------|

[Chorus] ('Could it be...')
G|----------------------------------------------------------------|
D|----------------------5-7----------------------5-7--------------|
A|-7-7777-3-3333-5-5555-----7-7777-3-3333-5-5555------------------|
E|----------------------------------------------------------------|

G|----------------------------------------------------------------|
D|----------------------------------------------------------------|
A|-7-7777-3-3333-5-5555-----22222222-22222222-55555555-55555555---|
E|----------------------3-5---------------------------------------|

[Guitar Solo]
G|-----------------------------------------------------------------|
D|-----------------------------------------------------------------|
A|-4-4-4-4-4-4-4-4-2-2-2-2---------4-4-4-4-4-4-4-4-2-2-2-2---------|
E|-------------------------0-0-2-2-------------------------0-0-2-2-|

G|-----------------------------------------------------------------|
D|-----------------------------------------------------------------|
A|-4-4-4-4-4-4-4-4-2-2-2-2---------4-4-4-4-4-4-4-4-2-2-2-2---------|
E|-------------------------0-0-2-2-------------------------0-0-2-2-|

G|-----------------------------------------------------------------|
D|-----------------------------------------------------------------|
A|-------------------------2-2-2-2-------------------------2-2-2-2-|
E|-4-4-4-4-4-4-4-4-2-2-2-2---------4-4-4-4-4-4-4-4-2-2-2-2---------|

G|-----------------------------------------------------------------|
D|-----------------------------------------------------------------|
A|-------------------------2-2-2-2-------------------------2-2-2-2-|
E|-4-4-4-4-4-4-4-4-2-2-2-2---------4-4-4-4-4-4-4-4-2-2-2-2---------|

G|-----------------------------------------------------------------|
D|-----------------------------------------------------------------|
A|-2-2-2-2-2-2-3-5-----------------2-2-2-2-2-2-3-2-0---------------|
E|-----------------------------------------------------------------|

G|----------------------------------------------------------------|
D|----------------------------------------------------------------|
A|-2-2-2-2-2-2-3-5-----------------2-2-2-2-2-2-3-2-0-2------------|
E|----------------------------------------------------------------|


Structure:
==================
Intro Part 1	x1
Intro Part 2	x2
Verse		x4
Pre-Chorus	x1
Chorus		x2
Intro Part 2	x1
Verse		x4
Pre-Chorus	x1
Chorus		x2
Guitar Solo	x1
Chorus		x2

End on a lot of E's a mix of 7th fret E and open E
8: The Nomad
[Intro Part 1]
G|----------------------------------------------------------------|
D|----------------------------------------------------------------|
A|-7-8-7---7-7---7-8-7---5-5---7-8-7---7-7---7-8-7---3-0----------|
E|----------------------------------------------------------------|

[Intro Part 2]
G|-----------------------------------------------------------------|
D|-----------------------------------------------------------------|
A|-2-2-2-2-2-2-2-2-2-2-2-2-2-2-2-2-2-2-2-2-2-2-2-2-2-2-2-2-2-2-2-2-|
E|-----------------------------------------------------------------|

[Intro Part 3] ('Ah... ah ah ah...')
G|-----------------------------------------------------------------|
D|-----------------------------------------------------------------|
A|-2-2-2-2-2-2-2-2-----------------2-2-2-2-2-2-2-2-----------------|
E|-----------------2-2-2-3-3-3-2-2-----------------2-2-2-3-3-3-2-2-|

[Verse] ('Like a mirage...')
G|-----------------------------------------------------------------|
D|-----------------------------------------------------------------|
A|-2-2-2-2-2-2-2-2-----------------2-2-2-2-2-2-2-2---------5-5-5-5-|
E|-----------------2-2-2-2-5-5-5-5-----------------2-2-2-2---------|

[Chorus] ('Nomad, you're the rider...')
G|-----------------------------------------------------------------|
D|-----------------------------------------------------------------|
A|-7-777-777-77-2-3-5-555-555-555-7-777-777-77-2---0-000-000-000-0-|
E|-----------------------------------------------3-----------------|

[Interlude]
(A)
G|-----9---9---9-------9---9---9-------5---5---5-------5---5---5---|
D|---9---9---9---9---9---9---9---9---5---5---5---5---5---5---5---5-|
A|-7---------------7---------------3---------------3---------------|
E|-----------------------------------------------------------------|

G|-----2---2---2-------2---2---2-------9---9---9-------9---9---9---|
D|---2---2---2---2---2---2---2---2---9---9---9---9---9---9---9---9-|
A|-0---------------0---------------7---------------7---------------|
E|-----------------------------------------------------------------|

(B)
G|-------------------------------------------------------------------------|
D|-------------------------------------------------------------------------|
A|-77777777-77777777-33333333-33333333-00000000-00000000-77777777-77777777-|
E|-------------------------------------------------------------------------|

Structure
==================
Intro Part 1	x4
Intro Part 2	x1
Intro Part 1	x1
Intro Part 3	x1
Intro Part 1	x2
Verse 		x2
Intro Part 1	x2
Verse 		x2
Intro Part 1	x2
Verse		x2
Chorus		x2
Intro Part 1	x2
Intro Part 3	x2
Intro Part 1	x4
Verse		x2
Chorus		x2
Interlude (A)	x4
Interlude (B)   x8
Verse		x2
Chorus		x2
Intro Part 1	x2

9: Out of the Silent Planet

[Intro]
G|----------------------------------------------------------------|
D|----------------------------------------------------------------|
A|-----------------------------------------------------------3--0-|
E|-0-------5-3-----0-------5-3-----0-------5-3-----0-------5------|

G|---------------------------------------------------------------|
D|---------------------------------------------------------------|
A|-------3-333-------5-555-------3-333-------5-555---------------|
E|-0-000-------3-333-------0-000-------3-333---------------------|

G|---------------------------------------------------------------|
D|---------------------------------------------------------------|
A|-------3-333-------5-555-------3-333-------5-555---------------|
E|-0-000-------3-333-------0-000-------3-333---------------------|

G|---------------------------------------------------------------|
D|---------------------------------------------------------------|
A|---------------------------------------------------------------|
E|-00000-00000-00000-00000-00000-00000-00000-00000---------------|


[Verse] ('Withered hands, withered bodies...')
G|----------------------------------------------------------------|
D|----------------------------------------------------------------|
A|--------------------------------3-3-3-3-3-3-3-3-5-5-5-5-5-------|
E|0-0-0-0-0-0-0-0-0-0-0-0-0-0-0-0---------------------------0-3-2-|

G|----------------------------------------------------------------|
D|----------------------------------------------------------------|
A|--------------------------------3-3-3-3-3-3-3-3-0-0-0-0-0-------|
E|0-0-0-0-0-0-0-0-0-0-0-0-0-0-0-0---------------------------0-3-2-|

G|----------------------------------------------------------------|
D|----------------------------------------------------------------|
A|--------------------------------3-3-3-3-3-3-3-3-5-5-5-5-5-------|
E|0-0-0-0-0-0-0-0-0-0-0-0-0-0-0-0---------------------------0-3-2-|

G|----------------------------------------------------------------|
D|----------------------------------------------------------------|
A|--------------------------------3-3-3-3-3-3-3-3-5-5-5-5-5-5-5-5-|
E|0-0-0-0-0-0-0-0-0-0-0-0-0-0-0-0---------------------------------|

G|----------------------------------------------------------------|
D|----------------------------------------------------------------|
A|0-0-0-0-0-0-0-0-3-3-3-3-3-3-3-3---------------------------------|
E|--------------------------------0-0-0-0-0-0-0-0-0-0-0-0-0-0-0-0-|

G|----------------------------------------------------------------|
D|----------------------------------------------------------------|
A|0-0-0-0-0-0-0-0-3-3-3-3-3-3-3-3-5-5-5-5-5-5-5-5-5-5-5-5-5-5-5-5-|
E|----------------------------------------------------------------|


[Chorus] ('Out of the silent planet...')
G|----------------------------------------------------------------|
D|----------------------------------------------------------------|
A|----------------3-3-3-3-3-3-3-3-----------------5-5-5-5-5-5-5-5-|
E|0-0-0-0-0-0-0-0-----------------3-3-3-3-3-3-3-3-----------------|

[Interlude]
G|-------------------------------------------------------------------|
D|-------------------------------------------------------------------|
A|-------------------------------------------------------------------|
E|0-0-0-0-0-0-0-0-0-0-0-0-0-0-0-0-0-0-0-0-0-0-0-0-0-0-0-0-0-0-0-0----|   x1

G|-------------------------------------------------------------------|
D|-------------------------------------------------------------------|
A|3-3-3-3-3-3-3-3-5-5-5-5-5-5-5-5------------------------------------|
E|--------------------------------0-0-0-0-0-0-0-0-0-0-0-0-0-0-0-0----|   x8

G|-------------------------------------------------------------------|
D|-------------------------------------------------------------------|
A|3-3-3-3-3-3-3-3-5-5-5-5-5-5-5-5-2-2-2-2-2-2-2-2-3-3-3-3-5-5-5-5----|
E|-------------------------------------------------------------------|   x1

10: The Thin Line Between Love and Hate (Don't know)
This should be right, any suggestions on Thin Line Between Love and Hate are welcome, post a comment
comments
print report bad tab
7 comments total. Showing first comments.
0 reply
_TheBassist01_ wrote on May 5 2006, 09:35 pm

Sweet job. Theres some awesome tabs done by _TheBassist01_ in there. he kicks ass

0 reply
METSOAD wrote on May 6 2006, 03:21 am

im glad you like your work, well done

0 reply
virtussilex wrote on August 15 2007, 02:19 am

This is great practice if u wanna turn into a good bassplayer.. it surely helped me xD

I want to post or [tab]
guest
You may want to rate the tab now too:
select rating
Please do not post tabs as comments. Select "correction" instead!