Oops, an error
Loading. Please wait.

Brave New World Tab

ver1
ver1

Intro

Album

Solo

Whole song

More versions @911Tabs.com
43,029 views 32 this week
4 commentsread comments
1 2 3 4 5
worth learning
x 9
Autoscroll
+/-
esc
set tempo
stop
Contributor
Hey! There's an official Ultimate Guitar app which is ideal
for learning songs when you're away from computer. Get the app
WARNING: You are trying to view
                                    content from Ultimate-Guitar.com
                                    in an unauthorized application,
                                    which is prohibited.

                                    Please use an official Ultimate
                                    Guitar Tabs application for iPhone,
                                    iPad or Android to access legitimate
                                    chords, guitar, bass, and drum tabs
                                    from Ultimate-Guitar.com database.

                                    Type "ultimate guitar tabs" in Apple
                                    App Store's or Android Market's
                                    search to find the application.
Band- Iron Maiden
Album- Brave New World

1.THE WICKER MAN

e --------------------------------------------------------------------------------------------|
b --------------------------------------------------------------------------------------------|
g ---9--9---------------------9--9--------------------9--9----------------------5--5-/-12--12-|
d ---9--9---------------------9--9--------------------9--9----------------------5--5-/-12--12-|
a ---7--7---------------------7--7--------------------7--7----------------------3--3-/-10--10-|
e 0---------0--0--0--0--0---------0--0--0--0--0----------0--0--0--0--0------------------------|
  m    u   m m m m m    u  m m m m m     u  m m m m m      u          u

Intro Gtrs. 2 and 3
e ---------------------------------------------------------------------------------------------|
b ---------------------------------------------------------------------------------------------|
g ---9--9---------------------9--9--------------------9--9----------------------5--5-/-12--12--|
d ---9--9---------------------9--9--------------------9--9----------------------5--5-/-12--12--|
a ---7--7---------------------7--7--------------------7--7----------------------3--3-/-10--10--|
e ---------------------------------------------------------------------------------------------|

Bridge All Gtrs.
e ---------------------------------------------------------------------------------------------------------|
b ---------------------------------------------------------------------------------------------------------|
g --7------5-----/-12--12--12-/11/-9----7------5----------------5--5----7-------5---/-12-/-12-/-12-/11/-9--|
d --7------5-----/-12--12--12-/11/-9----7------5-------5--5----5--5----7-------5----/-12-/-12-/-12-/11/-9--|
a --5------3-----/-10--10--10-/-9-/-7----5------3-------5--5----3--3----5-------3---/-10-/-10-/-10-/-9/-7--|
e ---------------------------------------------------------------3--3--------------------------------------|

e ---------------------------|
b ---------------------------|
g ---7------5----------5-----|
d ---7------5-----5----5-----|
a ---5------3-----5----3-----|
e ------------------------3--|

Chorus Gtrs. 1 and 3
e ---------------------------------------------------------------------------------------|
b ---------------------------------------------------------------------------------------|
g --9--9--9--9--9----5--5--5--5--5-----------------------------------------------9--9--9-|
d --9--9--9--9--9----5--5--5--5--5----5--5--5--5--5----7--7--7--7--7------9--9--9--9--9--|
a --7--7--7--7--7----3--3--3--3--3----5--5--5--5--5----7--7--7--7--7------7--7--7--7--7--|
e --------------------------------------------3--3--3--3--3----5--5--5--5--5-------------|

e --------------------------------------------------------------------------------|
b --------------------------------------------------------------------------------|
g -9--9----12--12--12--12--12----5--5--5--5--5------------------------------------|
d --12--12--12--12--12----5--5--5--5--5------5--5----7--7-------------------------|
a --10--10--10--10--10----3--3--3--3--3------5--5----7--7-------------------------|
e ------------------------------------------------------------------3--3----5--5--|
                                                                    u       u

Chorus Gtr. 2  Some people tab this as played on the G string.  It's not.
e ----------------------------------------------------------------------------------------|
b -12p10h12p10h12------12p10h12p10h12------12p10h12p10h12------12p10h12h13p12-------------|
g ---------------------------12---------------------------12-------------------12-----12--|
d ----------------------------------------------------------------------------------------|
a ----------------------------------------------------------------------------------------|
e ----------------------------------------------------------------------------------------|

Break Down Gtr. 1
This is played using overdrive.
e ------------------------------------------------------------------------------------------|
b ------------------------------------------------------------------------------------------|
g -----------------------------------------------------------------7------------------------|
d -------------------------------9p7-7h9--7/9h10p9h10-----10p9p7----------------------------|
a -7b--7h9h10--7b----10-----------------------------------------------------7b--7h9h10--7b--|
e  -----------------------------------------------------------------------------------------|
(Gtr.3 Plays in unison the second time the above riff is played)

e --12-14p12h14p12h15p14h15p14h17p15h17p15h19p17p15p14/15~~~--|
b ------------------------------------------------------------|
g ------------------------------------------------------------|
d ------------------------------------------------------------|
a ------------------------------------------------------------|
e ------------------------------------------------------------|

Break Down Gtrs. 2 and 3,  played 4x
Pretty quiet in the background, it may be hard to hear.
e ----------------------------------------------------------------------------------------------|
b ----------------------------------------------------------------------------------------------|
g --9--9-------------------9--9--------------------5--5-----------------------------------7--7--|
d --9--9-------------------9--9--------------------5--5------------------------5--5-------7--7--|
a --7--7-------------------7--7--------------------3--3------------------------5--5-------5--5--|
e --------0--0--0--0--0--------0--0--0--0--0---------0--0--0--0--0------3--3--------------------|

***GUITAR SOLO***

Solo Gtr. 1
e ---------------------------10---7------7------7----------------7b---------------------------|
b -12b-12b-12b----10-----------8------8-------8-----------------8p7h8p7h8p7----5p4h5p4--------|
g ----------------------------------------------------------9b--------------------------------|
d --------------------------------------------------------------------------------------------|
a --------------------------------------------------------------------------------------------|
e --------------------------------------------------------------------------------------------|

e ----------------------------------------------------------------------------------------------|
b ----------------------------------------------------------------------------------------------|
g -7p5h7p5--------------------------------------------------------------------------------------|
d ---------------7p5h7p5----------------------------------------7h9p7h9p7h9p7-------------------|
a ------------------------------7b~-------7h9p7h9p7h9p7--------------------------7h9p7h9p7h9p7--|
e ----------------------------------------------------------------------------------------------|

e -------------------|
b -------------------|
g ---7h9p7h9p7h9p7---|
d -------------------|
a -------------------|
e -------------------|

e -12-12-12h14-14-14h15-15-15h17-17-17h19-19-19p17-17-17p15-15-15p14-14-14--12-12-12h14-14-14h15-|
b -----------------------------------------------------------------------------------------------|
g -----------------------------------------------------------------------------------------------|
d -----------------------------------------------------------------------------------------------|
a -----------------------------------------------------------------------------------------------|
e -----------------------------------------------------------------------------------------------|

e 15-15h17-17p15-15p14p12p13-13~~--|
b ---------------------------------|
g ---------------------------------|
d ---------------------------------|
a ---------------------------------|
e ---------------------------------|

Solo Gtrs. 2 and 3,  played  4x
e --------------------------------------------------------------------------------------|
b --------------------------------------------------------------------------------------|
g --------------------------------------------------------------------------------------|
d --9--9--9--9--9----7--7--7--7--7----5--5--5--5--5----7--7--7--7--7--------------------|
a --9--9--9--9--9----7--7--7--7--7----5--5--5--5--5----7--7--7--7--7--------------------|
e --7--7--7--7--7----5--5--5--5--5----3--3--3--3--3----5--5--5--5--5--------------------|

Outro Gtrs. 1, 2 and 3
e --------------------------------------------|
b --------------------------------------------|
g -9--------5-------------------7-------------|
d -9--------5--------5---------7--------------|
a -7--------3--------5---------5--------------|
e ---------------------3----------------------|
After above is played twice, Gtrs. 1 and 2 switch to this :
e ------------------------------------------------------------------------------------|
b ------------------------------------------------------------------------------------|
g -9-------------------------5-----------------------------------------------------7--|
d -9-------------------------5------------------------5----------------------------7--|
a -7--10--9--10-/-12----3--10--9--10-/12----5----10--9--10-/-12----5--10--9--7-/-5~---|
e ------------------------------------------------------3-----------------------------|

2.GHOST OF THE NAVIGATOR

Intro(Clean):

  Dm          C    Dm         C
e:-5----------3----5----------3---|
B:-6----------5----6----------5---|
G:-7----------5----7----------5---|
D:-7----------5----7----------5---|
A:-5----------3----5----------3---|
E:--------------------------------|

e:--5--------------5--------------|
B:---8-6--5-6--------8-6--5-6-5---|
G:------------5-------------------|
D:--------------------------------|
A:--------------------------------|
E:--------------------------------|

   A#        A#         C Dm               C
e:-1---------1----------3-5----------------3-|
B:-3---------3----------5-6----------------5-|
G:-3---------3----------5-7----------------5-|
D:-3---------3----------5-7----------------5-|
A:-1---------1----------3-5----------------3-|
E:-------------------------------------------|

e:---------------------------5---------------|
B:--8-6-5-------8-6-5-----------8-6-5-6------|
G:-------7-5-3--------7-5-7----------------5-|
D:-------------------------------------------|
A:-------------------------------------------|
E:-------------------------------------------|

   Dm         A#           C           Dm
e:-5----------1------------3-----------5----------------|
B:-6----------3------------5-----------6----------------|
G:-7----------3------------5-----------7----------------|
D:-7----------3------------5-----------7----------------|
A:-5----------1------------3-----------5----------------|
E:------------------------------------------------------|

e:------------------------------------------------------|
B:--8-6-5--------8-6-5-------8-7-5-------5-7-8-7-5------|
G:--------7-5-3--------7-5-5-------7-5-7----------------|
D:------------------------------------------------------|
A:------------------------------------------------------|
E:------------------------------------------------------|

   Dm           A#           C           Dm
e:-5------------1------------3-----------5--------------|
B:-6------------3------------5-----------6--------------|
G:-7------------3------------5-----------7--------------|
D:-7------------3------------5-----------7--------------|
A:-5------------1------------3-----------5--------------|
E:------------------------------------------------------|

e:-------------------------------------------------------|
B:----8-6-5--------8-6-5-------8-6-5-------5-6-8-6-5-----|
G:--7-------7-5-3--------7-5-5-------7-5-7---------------|
D:-------------------------------------------------------|
A:-------------------------------------------------------|
E:-------------------------------------------------------|
End of intro

Enter Distortion

e:-------------------------------|
B:-------------------------------|
G:-2-----3-----5-----5---7-5-----|
D:-0-----0-----0-----0---0-0-----|
A:-------------------------------|
E:-------------------------------| (2x)

Part 1
e:------------------------------------------------------------------------------------|
B:-3----------------------------------------------------------------------------------|
G:-2---------------------------3---------------------------5--------------------------|
D:-0--0-0-0-0-0-0-0-0-0-0-0-0--0--0-0-0-0-0-0-0-0-0-0-0-0--0--0-0-0-0-0-0-0-0-0-0-0-0-|

A:------------------------------------------------------------------------------------|
E:------------------------------------------------------------------------------------|

e:-----------|
B:-----------|
G:-5---7-5---|
D:-5---7-5---|
A:-3---5-3---|      (2x)
E:-----------|

Part 1 with the follow verses:

"I have sailed to many lands...
On the bow I stand,...
Through the night I plough...
As the compass swings..."

Part 2:

e:-----------------------------------------------------------------------|
B:-----------------------------------------------------------------------|
G:-2-----2-----2-----5-----5-----5-----4-----4-----4-----7-7-7-5-5-5-4---|
D:-2-----2-----2-----5-----5-----5-----4-----4-----4-----7-7-7-5-5-5-4---|
A:-0-0-0-0-0-0-0-0---3-3-3-3-3-3-3-3---2-2-2-2-2-2-2-2---5-5-5-3-3-3-2---|
E:-----------------------------------------------------------------------|
  "...astray                                             mysteries of

e:-----------------------------------------------------------------------|
B:-----------------------------------------------------------------------|
G:-2-----2-----2-----5-----5-----5-----4-----4-----4-----7-7-7-5-5-5-4---|
D:-2-----2-----2-----5-----5-----5-----4-----4-----4-----7-7-7-5-5-5-4---|
A:-0-0-0-0-0-0-0-0---3-3-3-3-3-3-3-3---2-2-2-2-2-2-2-2---5-5-5-3-3-3-2---|
E:-----------------------------------------------------------------------|
 ...time                                                 clouds that hide the...

Chorus:

e:--------------------------------------------------|
B:--------------------------------------------------|
G:-9-9-9-9---12-12-12-12---5-5-5-5---2-2-2-2--------|
D:-9-9-9-9---12-12-12-12---5-5-5-5---2-2-2-2--------|
A:-7-7-7-7---10-10-10-10---3-3-3-3---0-0-0-0--------|
E:--------------------------------------------------|
      "I see the Ghosts of Navigator but they are lost
       As they sail into the sunset they'll count the cost
       As their skeletons accusing emerge from the sea
       The sirens of the rocks, they becon me"

e:------------------------------------------------------------------------|
B:------------------------------------------------------------------------|
G:-7-7-7-7-7---------------5-5-5-5-5---7-7-7-7-7---------------5-5-5-5-5--|
D:-7-7-7-7-7---------------5-5-5-5-5---7-7-7-7-7---------------5-5-5-5-5--|
A:-5-5-5-5-5---------------3-3-3-3-3---5-5-5-5-5---------------3-3-3-3-3--|
E:------------------------------------------------------------------------|

e:-----5-----------------------------------5------------------------------|
B:--------8-----6---5---6----------------------8---6---5---6---5----------|
G:-7------------------------5----------7----------------------------------|
D:------------------------------------------------------------------------|
A:------------------------------------------------------------------------|
E:------------------------------------------------------------------------|
 "Take my heart and set it free        Carried forward by the waves

e:--------------------------------------------------------------------------|
B:--------------------------------------------------------------------------|
G:-3-3-3-3-3--------------3-3-3-3-3---------7-7-7-7-7-------------5-5-5-5-5-|

D:-3-3-3-3-3--------------3-3-3-3-3---------7-7-7-7-7-------------5-5-5-5-5-|
A:-1-1-1-1-1--------------1-1-1-1-1---------5-5-5-5-5-------------3-3-3-3-3-|
E:--------------------------------------------------------------------------|

e:---------------------------------------------5------------------------|
B:----8----6----5----------8-6-5--------------------8---6----5---6------|
G:-3--------------7-5---3-----------7-5-----7-----------------------7---|
D:----------------------------------------------------------------------|
A:----------------------------------------------------------------------|
E:----------------------------------------------------------------------|
  "Nowhere left to run, Navigator's son     Chasing rainbows all my days"

Rhythm for the solo:

e:------------------------------------------------------------------------------------|
B:-3----------------------------------------------------------------------------------|
G:-2---------------------------3---------------------------5--------------------------|
D:-0--0-0-0-0-0-0-0-0-0-0-0-0--0--0-0-0-0-0-0-0-0-0-0-0-0--0--0-0-0-0-0-0-0-0-0-0-0-0-|
A:------------------------------------------------------------------------------------|
E:------------------------------------------------------------------------------------|

e:-----------|
B:-----------|
G:-5---7-5---|
D:-5---7-5---|
A:-3---5-3---|
E:-----------|   (4x)

After the solo:

e:--------------------------------------------------------------|
B:--------------------------------------------------------------|
G:--------------------------------------------------------------|
D:-9-9--10-7-9-7----9-9--10-7-9-7----9-9--10-7-9-7----5---7-----|
A:-7-7----------10--7-7----------10--7-7----------10--3---5-----|
E:--------------------------------------------------------------| (2x)

e:--------------------------------------------------------|
B:--------------------------------------------------------|
G:--------------------------------------------------------|
D:-7-7--8-5-7-5---7-7--8-5-7-5---7-7--8-5-7-5---3---5-----|
A:-5-5---------8--5-5---------8--5-5---------8--1---3-----|
E:--------------------------------------------------------| (2x)

e:---------------------------------------------------------------------|
B:---------------------------------------------------------------------|
G:---------------------------------------------------------------------|
D:-11-11--12-9-11-9----11-11--12-9-11-9-----11-11--12-9-11-9-----7---9-|
A:-9--9------------12--9--9-------------12--9--9-------------12--5---7-|
E:---------------------------------------------------------------------| (2x)

e:--------------------------------------------------------------|
B:--------------------------------------------------------------|
G:--------------------------------------------------------------|
D:-9-9--10-7-9-7----9-9--10-7-9-7----9-9--10-7-9-7----5---7-----|
A:-7-7----------10--7-7----------10--7-7----------10--3---5-----|
E:--------------------------------------------------------------| (2x)

3.BRAVE NEW WORLD

-----------------------------------|----------------------------------|-------|
------6-----5-----8-----6-----5----|-----6-----5-----8-----6-----5----|-------|
-----------------------------------|----------------------------------|-------|
----7-----7-----7-----7-----7------|---7-----7-----7-----7-----7------|-------|
--5-----5-----5-----5-----5--------|-5-----5-----5-----5-----5--------|-------|
-----------------------------------|----------------------------------|-------|

 Intro: Guitar 1 [muted and clean]

-----------------------------------|----------------------------------|-------|
--10--------13---------8-----------|--6-----------8---------8---------|-------|
--9---------12---------7-----------|--5-----------7---------7---------|-------|
--7---------10---------5-----------|--3-----------5---------5---------|-------|
-----------------------------------|----------------------------------|-------|
-----------------------------------|----------------------------------|-------|

 Intro: Guitar 2 [clean]

-----------------------------------|----------------------------------|-------|
------6-----5-----8-----6-----5----|-----6-----5-----8-----6-----5----|-------|
-----------------------------------|----------------------------------|-------|
----7-----7-----7-----7-----7------|---7-----7-----7-----7-----7------|-------|
--5-----5-----5-----5-----5--------|-5-----5-----5-----5-----5--------|-------|
-----------------------------------|----------------------------------|-------|

-----------------------------------|----------------------------------|-------|
--10---------13-----8--6--8--8/10--|----------------------------------|-------|
--9----------12-----7--5--7--7/9---|----------------------------------|-------|
--7----------10-----5--3--5--5/7---|----------------------------------|-------|
-----------------------------------|----------------------------------|-------|
-----------------------------------|----------------------------------|-------|

-----------------------------------|------------------------------------------|
-----------------------------------|------------------------------------------|
-5--------5--------5--------5------|------------------------------------------|
-5--5--5--5--5--5--5--5--5--5------|------------------------------------------|
-3--3--3--3--3--3--3--3--3--3------|------------------------------------------|
-----------------------------------|------------------------------------------|

 Guitar 3 at the end of intro [distorted]

-----------------------------------|----------------------------------|-------|
-----------------------------------|----------------------------------|-------|
-7-----------------7----7----7-----|--3-----------------3----3----3---|-------|
-7----7----7-------7----7----7-----|--3----3----3-------3----3----3---|-------|
-5----5----5-------5----5----5-----|--1----1----1-------1----1----1---|-------|
-----------------------------------|----------------------------------|-------|

 Verse Part 1: Guitar 1 [2x]  ['Wilderness...']

-----------------------------------|----------------------------------|-------|
-10---------13---------------------|----------------------------------|-------|
----------------------12v----------|---10--------12--------12v--------|-------|
-----------------------------------|----------------------------------|-------|
-----------------------------------|----------------------------------|-------|
-----------------------------------|----------------------------------|-------|

 Verse Melody Part 1: Guitar 2 [2x]

-----------------------------------|----------------------------------|-------|
-----------------------------------|----------------------------------|-------|
--5----------------5----5----5-----|--7----------------7----7----7----|-------|
--5----5----5------5----5----5-----|--7----7---7-------7----7----7----|-------|
--3----3----3------3----3----3-----|--5----5---5-------5----5----5----|-------|
-----------------------------------|----------------------------------|-------|

-----------------------------------|----------------------------------|-------|
-10----13--------------------------|-13-----10v-----------------------|-------|
---------------12------10----------|----------------------------------|-------|
-----------------------------------|----------------------------------|-------|
-----------------------------------|----------------------------------|-------|
-----------------------------------|----------------------------------|-------|

-----------------------------------|----------------------------------|-------|
-----------------------------------|----------------------------------|-------|
--3---3---3--------3-------3-------|---5---5---5--------5-------5-----|-------|
--3---3---3--------3-------3-------|---5---5---5--------5-------5-----|-------|
--1---1---1--------1-------1-------|---3---3---3--------3-------3-----|-------|
-----------------------------------|----------------------------------|-------|

 Verse Part 2: Guitar 1 [2x]  ['What you see...']

-----------------------------------|----------------------------------|-------|
-10---------13---------------------|----------------------------------|-------|
----------------------12v----------|---10--------12--------12v--------|-------|
-----------------------------------|----------------------------------|-------|
-----------------------------------|----------------------------------|-------|
-----------------------------------|----------------------------------|-------|

 Verse Melody Part 2: Guitar 2 [2x]

-----------------------------------|----------------------------------|-------|
-----------------------------------|----------------------------------|-------|
--3---3---3--------3-------3-------|--5--------------7----------------|-------|
--3---3---3--------3-------3-------|--5--------------7----------------|-------|
--1---1---1--------1-------1-------|--3--------------5----------------|-------|
-----------------------------------|----------------------------------|-------|

-----------------------------------|----------------------------------|-------|
-10----13--------------------------|--------10v-----------------------|-------|
---------------12------10----------|-12-------------------------------|-------|
-----------------------------------|----------------------------------|-------|
-----------------------------------|----------------------------------|-------|
-----------------------------------|----------------------------------|-------|

----------------------------------------------------------------------|-------|
----------------------------------------------------------------------|-------|
-7--------7-----3--------3-----5--------5----7--------7---------------|-------|
-7--7--7--7-----3--3--3--3-----5--5--5--5----7--7--7--7---------------|-------|
-5--5--5--5-----1--1--1--1-----3--3--3--3----5--5--5--5---------------|-------|
----------------------------------------------------------------------|-------|

 Chorus: Guitar 1 [4x]

----------------------------------------------------------------------|-------|
----------------------------------------------------------------------|-------|
-7--------7-----3--------3-------------------7--------7---------------|-------|
-7--7--7--7-----3--3--3--3-----5--------5----7--7--7--7---------------|-------|
-5--5--5--5-----1--1--1--1-----5--5--5--5----5--5--5--5---------------|-------|
-------------------------------3--3--3--3-----------------------------|-------|

----------------------------------------------------------------------|-------|
----------------------------------------------------------------------|-------|
----------------------------------------------------------------------|-------|
--10--10--10/12--12--12\---10---10------------------------------------|-------|
--8---8---8-/10--10--10\---8----8-------------------------------------|-------|
----------------------------------------------------------------------|-------|

 Chorus Guitar 2&3: Fill 1 [on 2nd time]

----------------------------------------------------------------------|-------|
----------------------------------------------------------------------|-------|
----------------------------------------------------------------------|-------|
--10--10--10--10--10---12---10----------------------------------------|-------|
--8---8---8---8---8----10---8-----------------------------------------|-------|
----------------------------------------------------------------------|-------|

 Chorus: Guitar 2: Fill 2 [on 4th time]

----------------------------------------------------------------------|-------|
----------------------------------------------------------------------|-------|
--7---7---7-------3---3---3-------5---5---5------7---7---7------------|-------|
--7---7---7-------3---3---3-------5---5---5------7---7---7------------|-------|
--5---5---5-------1---1---1-------3---3---3------5---5---5------------|-------|
----------------------------------------------------------------------|-------|

 Rythm for Solo 1 [2x]

----------------------------------------------------------------------|-------|
----------------------------------------------------------------------|-------|
--3---3---3-------5---5---5-------3---3---3------7--------------------|-------|
--3---3---3-------5---5---5-------3---3---3------7--------------------|-------|
--1---1---1-------3---3---3-------1---1---1------5--------------------|-------|
----------------------------------------------------------------------|-------|

 Rythm for Solo Interlude [2x]

-15b17-15-13-12-13-15-15b17-15-13-12-----15b17-15-13-12---------------|-------|
-------------------------------------13-----------------13----15------|-------|
-----------------------------------------------------------14---------|-------|
----------------------------------------------------------------------|-------|
----------------------------------------------------------------------|-------|
----------------------------------------------------------------------|-------|

 Solo Interlude

-15b17-15-13-12-13-15-15b17-15-13-12-13-15-15b17-15-13-12-13-15b17----|-------|
----------------------------------------------------------------------|-------|
----------------------------------------------------------------------|-------|
----------------------------------------------------------------------|-------|
----------------------------------------------------------------------|-------|
----------------------------------------------------------------------|-------|

----------------------------------------------------------------------|-------|
----------------------------------------------------------------------|-------|
--9---9---9-------5---5---5-------7---7---7------9---9---9------------|-------|
--9---9---9-------5---5---5-------7---7---7------9---9---9------------|-------|
--7---7---7-------3---3---3-------5---5---5------7---7---7------------|-------|
----------------------------------------------------------------------|-------|

 Rythm for Solo 2 [2x]

---------------------|----------------------|-------------------------|-------|
---------------------|----------------------|-------------------------|-------|
--4v--5---7v---------|--4v--5---7v----------|------4--5--4v-----------|-------|
---------------------|----------------------|--7v---------------------|-------|
---------------------|----------------------|-------------------------|-------|
---------------------|----------------------|-------------------------|-------|

 Interlude: Guitar 1

---------------------|----------------------|-------------------------|-------|
---------------------|----------------------|-------------------------|-------|
---------------------|----------------------|-------------------------|-------|
---------------------|----------------------|-------------------------|-------|
--7v--9---10v--------|--7v--9---10v---------|------7--9--7v-----------|-------|
---------------------|----------------------|--10v--------------------|-------|

 Interlude: Guitar 2

---------------------|----------------------|-------------------------|-------|
---------------------|----------------------|-------------------------|-------|
---9v--11--12v-------|--9v--11--12v---------|------9--11--9v----------|-------|
---------------------|----------------------|--12v--------------------|-------|
---------------------|----------------------|-------------------------|-------|
---------------------|----------------------|-------------------------|-------|

 Interlude: Guitar 3 [enters on 2nd time]

--------------------------------------------|---------------------------------|
-------------------------------5------------|---------------------------------|
------4-----4-5---4-5-7--4-5-7--------------|---------------------------------|
--5-7---5-7-----7---------------------------|---------------------------------|
--------------------------------------------|---------------------------------|
--------------------------------------------|---------------------------------|

 Interlude ending 1: Guitar 1 [on 3nd time]

--------------------------------------------|---------------------------------|
--------------------------------------------|---------------------------------|
--------------------------------------------|---------------------------------|
-----------------7------7-9-----7-9-10------|---------------------------------|
--7-9-10--7-9-10---9-10-----10--------------|---------------------------------|
--------------------------------------------|---------------------------------|

 Interlude ending 1: Guitar 2

--------------------------------------------|---------------------------------|
--------------------------------------------|---------------------------------|
--4-----------------------------------------|---------------------------------|
----7-5--4-7-5-4---5-4----------------------|---------------------------------|
-----------------7-----7-5-7----------------|---------------------------------|
--------------------------------------------|---------------------------------|

 Interlude ending 2: Guitar 1 [on 4th time]

--------------------------------------------|---------------------------------|
--------------------------------------------|---------------------------------|
--------------------------------------------|---------------------------------|
--9-7------7--------------------------------|---------------------------------|
------10-9---10-9-7--10-9-7-----------------|---------------------------------|
----------------------------10--------------|---------------------------------|

 Interlude ending 2: Guitar 2

--------------------------------------------|---------------------------------|
-12-10-------10-----------------------------|---------------------------------|
-------12-11----12-11-9--12-11-10-----------|---------------------------------|
----------------------------------12--------|---------------------------------|
--------------------------------------------|---------------------------------|
--------------------------------------------|---------------------------------|

 Interlude ending 2: Guitar 3

-----------------------------------|----------------------------------|-------|
------6-----5-----8-----6-----5----|-----6-----5-----8-----6-----5----|-------|
-----------------------------------|----------------------------------|-------|
----7-----7-----7-----7-----7------|---7-----7-----7-----7-----7------|-------|
--5-----5-----5-----5-----5--------|-5-----5-----5-----5-----5--------|-------|
-----------------------------------|----------------------------------|-------|

 Outro: Guitar 1 [muted and clean]

-----------------------------------|----------------------------------|-------|
-----------------------------------|----------------------------------|-------|
--10---------13----------8---------|--6-----------8---------8---------|-------|
--9----------12----------7---------|--5-----------7---------7---------|-------|
--7----------10----------5---------|--3-----------5---------5---------|-------|
-----------------------------------|----------------------------------|-------|

 Outro: Guitar 2 [clean]

---------------------------------|------------------------------------|-------|
-----6-----5-----8-----6-----5---|-----6-----5-----8-----6-----6------|-------|
---------------------------------|-----------------------------7------|-------|
---7-----7-----7-----7-----7-----|---7-----7-----7-----7-------7------|-------|
-5-----5-----5-----5-----5-------|-5-----5-----5-----5---------5------|-------|
---------------------------------|------------------------------------|-------|

                                                            (let ring)

---------------------------------|------------------------------------|-------|
-10---13------8------6-----------|--7-------10------------------------|-------|
-9----12------7------5-----------|--7-------9-------------------------|-------|
-7----10------5------3-----------|--5-------7-------------------------|-------|
---------------------------------|------------------------------------|-------|
---------------------------------|------------------------------------|-------|

4.BLOOD BROTHERS

 Gtr.1 (clean)
  'Fig. 1'
 e|---------------------------------------|
 B|---------------------------------------|
 G|---------------------------------------|
 D|-----------------------5---5-----7-----|
 A|----2---2-----5-----3----3----5-----5\-|
 E|-0----0----3-----3---------------------|


 e|--------------------------------------|
 B|--------------------------------------|
 G|--------------------------------------|
 D|-----------------------5---5-----7----|
 A|----2---2-----5-----3----3----5-------|
 E|-0----0----3-----3------------------3-|


 e|---------------------------------------|
 B|---------------------------------------|
 G|---------------------------------------|
 D|-----------------------5---5-----7-----|
 A|----2---2-----5-----3----3----5-----5\-|
 E|-0----0----3-----3---------------------|


                              (end Fig. 1)
 e|--------------------------------------|
 B|--------------------------------------|
 G|--------------------------------------|
 D|-----------------------7---7-----5----|
 A|----2---2-----5-----5----5----3-------|
 E|-0----0----3-----3------------------3-|


   Gtr.1 - w/Fig. 1 (clean)
   Gtr.2 (clean)
  'Fig. 2'
 e|----------8----7----7------------------|
 B|-----------------10------10-8-10--8--7-|
 G|-9----7-9------------------------------|
 D|---------------------------------------|
 A|---------------------------------------|
 E|---------------------------------------|


 e|----------8----7----7-----------------|
 B|-----------------10------10-8-7--8--7-|
 G|-9----7-9-----------------------------|
 D|--------------------------------------|
 A|--------------------------------------|
 E|--------------------------------------|


 e|----------8----7----7------------------|
 B|-----------------10------10-8-10--8--7-|
 G|-9----7-9------------------------------|
 D|---------------------------------------|
 A|---------------------------------------|
 E|---------------------------------------|


                              (end Fig. 2)
 e|----------8----7----7-----------------|
 B|-----------------10------10-8-7--8--7-|
 G|-9----7-9-----------------------------|
 D|--------------------------------------|
 A|--------------------------------------|
 E|--------------------------------------|

=======
Verse 1
=======


   Gtr.2 - w/Fill 1 (clean)[x4]
   Gtr.1 (clean)
 e|-------------------------------------------|
 B|-------------------------------------------|
 G|-------------------------------------------|
 D|---9---9-----------------5---5-------------|
 A|-7---7---7----5---5----3---3---3---5--5--5-|
 E|------------3---3---3----------------------|


 e|---------------------------------------------|
 B|---------------------------------------------|
 G|---------------------------------------------|
 D|---9---9-----------------5---5-------7---7---|
 A|-7---7---7----5---5----3---3---3---5---5---5-|
 E|------------3---3---3------------------------|


 e|-------------------------------------------|
 B|-------------------------------------------|
 G|-------------------------------------------|
 D|---9---9-----------------5---5-------------|
 A|-7---7---7----5---5----3---3---3---5--5--5-|
 E|------------3---3---3----------------------|


 e|---------------------------------------------|
 B|---------------------------------------------|
 G|---------------------------------------------|
 D|---9---9-----------------5---5-------7---7---|
 A|-7---7---7----5---5----3---3---3---5---5---5-|
 E|------------3---3---3------------------------|

=======
Verse 2
=======


   Gtr.2 - w/Fill 1 (clean)[x4]
   Gtr.1 (dist.)
 e|------------------------------------------|
 B|------------------------------------------|
 G|------------------------------------------|
 D|----------------------5-5--5-5-5-7-7-7--7-|
 A|-2-2--2-2-2-5-5-5--5--3-3--3-3-3-5-5-5--5-|
 E|-0-0--0-0-0-3-3-3--3----------------------|
    pm......................................


 e|------------------------------------------|
 B|------------------------------------------|
 G|------------------------------------------|
 D|----------------------5-5--5-5-5-7-7-7--7-|
 A|-2-2--2-2-2-5-5-5--5--3-3--3-3-3-5-5-5--5-|
 E|-0-0--0-0-0-3-3-3--3----------------------|
    pm......................................


 e|------------------------------------------|
 B|------------------------------------------|
 G|------------------------------------------|
 D|----------------------5-5--5-5-5-7-7-7--7-|
 A|-2-2--2-2-2-5-5-5--5--3-3--3-3-3-5-5-5--5-|
 E|-0-0--0-0-0-3-3-3--3----------------------|
    pm......................................


 e|-----------------------------------|
 B|-----------------------------------|
 G|---------------------------------7-|
 D|----------------------5-5--5-5-5-7-|
 A|-2-2--2-2-2-5-5-5--5--3-3--3-3-3-5-|
 E|-0-0--0-0-0-3-3-3--3---------------|
    pm.............................

======
Chorus
======


   Gtrs.1+2 (dist.)
 e|------------|------------|------------|--------------|
 B|------------|------------|------------|--------------|
 G|----5-----7-|----5-----7-|----5-----7-|----5-----7-7-|
 D|-2--5--5--7-|-2--5--5--7-|-2--5--5--7-|-2--5--5--7-7-|
 A|-2--3--5--5-|-2--3--5--5-|-2--3--5--5-|-2--3--5--5-5-|
 E|-0-----3----|-0-----3----|-0-----3----|-0-----3------|

=======
Verse 3
=======


   Gtr.2 - w/Fill 2 (clean)[x4]
   Gtr.1 (dist.)
 e|------------------------------------------|
 B|------------------------------------------|
 G|------------------------------------------|
 D|----------------------5-5--5-5-5-7-7-7--7-|
 A|-2-2--2-2-2-5-5-5--5--3-3--3-3-3-5-5-5--5-|
 E|-0-0--0-0-0-3-3-3--3----------------------|
    pm......................................


 e|------------------------------------------|
 B|------------------------------------------|
 G|------------------------------------------|
 D|----------------------5-5--5-5-5-7-7-7--7-|
 A|-2-2--2-2-2-5-5-5--5--3-3--3-3-3-5-5-5--5-|
 E|-0-0--0-0-0-3-3-3--3----------------------|
    pm......................................


 e|------------------------------------------|
 B|------------------------------------------|
 G|------------------------------------------|
 D|----------------------5-5--5-5-5-7-7-7--7-|
 A|-2-2--2-2-2-5-5-5--5--3-3--3-3-3-5-5-5--5-|
 E|-0-0--0-0-0-3-3-3--3----------------------|
    pm......................................


 e|-----------------------------------|
 B|-----------------------------------|
 G|---------------------------------7-|
 D|----------------------5-5--5-5-5-7-|
 A|-2-2--2-2-2-5-5-5--5--3-3--3-3-3-5-|
 E|-0-0--0-0-0-3-3-3--3---------------|
    pm.............................

======
Chorus
======


   Gtrs.1+2 (dist.)
 e|------------|------------|------------|--------------|
 B|------------|------------|------------|--------------|
 G|----5-----7-|----5-----7-|----5-----7-|----5-----7-7-|
 D|-2--5--5--7-|-2--5--5--7-|-2--5--5--7-|-2--5--5--7-7-|
 A|-2--3--5--5-|-2--3--5--5-|-2--3--5--5-|-2--3--5--5-5-|
 E|-0-----3----|-0-----3----|-0-----3----|-0-----3------|


   Gtr.2 - w/Fig. 2 (dist.)
   Gtr.1 (clean)
  'Fig. 3'
 e|----------------------------------------|
 B|----------------------------------------|
 G|----------------------------------------|
 D|----------------------------------------|
 A|-----------5--------10--10------12------|
 E|-0------3-----3-/8----------10------10\-|


 e|-----------------------------------|
 B|-----------------------------------|
 G|-----------------------------------|
 D|--------------------5---5-----7----|
 A|-----------5-----3----3----5-------|
 E|-0------3-----3------------------3-|


 e|-------------------------------------------|
 B|-------------------------------------------|
 G|-------------------------------------------|
 D|-------------------------------------------|
 A|----2---2-----5--------10---10------12-----|
 E|-0----0----3-----3--8-----8-----10------10-|


                               (end Fig.3)
 e|--------------------------------------|
 B|--------------------------------------|
 G|--------------------------------------|
 D|-----------------------7---7-----5----|
 A|----2---2-----5-----5----5----3-------|
 E|-0----0----3-----3------------------3-|

=======
Verse 4
=======


   Gtr.2 - w/Fill 3 (clean)[x2]
   Gtr.1 (dist.)
 e|---------------------------------------------|
 B|---------------------------------------------|
 G|---------------------------------------------|
 D|-----------------------5-5--5-5-5-7-7--7-7-7-|
 A|-2-2--2-2-2-5-5--5-5-5-3-3--3-3-3-5-5--5-5-5-|
 E|-0-0--0-0-0-3-3--3-3-3-----------------------|
    pm.........................................


 e|-------------------------------------|
 B|-------------------------------------|
 G|-----------------------------------7-|
 D|------------------------7-7--7-7-7-7-|
 A|-2-2--2-2-2-5-5--5-5-5--5-5--5-5-5-5-|
 E|-0-0--0-0-0-3-3--3-3-3---------------|
    pm........................


 e|---------------------------------------------|
 B|---------------------------------------------|
 G|---------------------------------------------|
 D|-----------------------5-5--5-5-5-7-7--7-7-7-|
 A|-2-2--2-2-2-5-5--5-5-5-3-3--3-3-3-5-5--5-5-5-|
 E|-0-0--0-0-0-3-3--3-3-3-----------------------|
    pm.........................................


 e|-------------------------------------|
 B|-------------------------------------|
 G|-----------------------------------7-|
 D|------------------------7-7--7-7-7-7-|
 A|-2-2--2-2-2-5-5--5-5-5--5-5--5-5-5-5-|
 E|-0-0--0-0-0-3-3--3-3-3---------------|
    pm........................

=======
Verse 5
=======


   Gtr.2 - w/Fill 3 (clean)[x2]
   Gtr.1 (dist.)
 e|---------------------------------------------|
 B|---------------------------------------------|
 G|---------------------------------------------|
 D|-----------------------5-5--5-5-5-7-7--7-7-7-|
 A|-2-2--2-2-2-5-5--5-5-5-3-3--3-3-3-5-5--5-5-5-|
 E|-0-0--0-0-0-3-3--3-3-3-----------------------|
    pm.........................................


 e|-------------------------------------|
 B|-------------------------------------|
 G|-----------------------------------7-|
 D|------------------------7-7--7-7-7-7-|
 A|-2-2--2-2-2-5-5--5-5-5--5-5--5-5-5-5-|
 E|-0-0--0-0-0-3-3--3-3-3---------------|
    pm........................


 e|---------------------------------------------|
 B|---------------------------------------------|
 G|---------------------------------------------|
 D|-----------------------5-5--5-5-5-7-7--7-7-7-|
 A|-2-2--2-2-2-5-5--5-5-5-3-3--3-3-3-5-5--5-5-5-|
 E|-0-0--0-0-0-3-3--3-3-3-----------------------|
    pm.........................................


 e|-------------------------------------------|
 B|-------------------------------------------|
 G|------------------------7-7--7-7-7-7--7--7-|
 D|------------------------7-7--7-7-7-7--7--7-|
 A|-2-2--2-2-2-5-5--5-5-5--5-5--5-5-5-5--5--5-|
 E|-0-0--0-0-0-3-3--3-3-3---------------------|
    pm...................

======
Chorus
======


   Gtrs.1+2 (dist.)
 e|------------|------------|------------|--------------|
 B|------------|------------|------------|--------------|
 G|----5-----7-|----5-----7-|----5-----7-|----5-----7-7-|
 D|-2--5--5--7-|-2--5--5--7-|-2--5--5--7-|-2--5--5--7-7-|
 A|-2--3--5--5-|-2--3--5--5-|-2--3--5--5-|-2--3--5--5-5-|
 E|-0-----3----|-0-----3----|-0-----3----|-0-----3------|


   Gtr.1 - w/Fig. 2 (dist.)
   Gtr.3 (dist.)
 e|-------------15------15------15----15------17-----|
 B|----12---12------15------13-----13-----15------15-|
 G|-9-----9------------------------------------------|
 D|--------------------------------------------------|
 A|--------------------------------------------------|
 E|--------------------------------------------------|


 e|-------------15------15------15----15------17-----|
 B|----12---12------15------13-----13-----15------15-|
 G|-9-----9------------------------------------------|
 D|--------------------------------------------------|
 A|--------------------------------------------------|
 E|--------------------------------------------------|

 e|-------------15------15------15----15------17-----|
 B|----12---12------15------13-----13-----15------15-|
 G|-9-----9------------------------------------------|
 D|--------------------------------------------------|
 A|--------------------------------------------------|
 E|--------------------------------------------------|


 e|-------------15------15------------------------|
 B|----12---12------15------------------13\----12-|
 G|-9-----9---------------------14----------------|
 D|-------------------------12------12------------|
 A|-----------------------------------------------|
 E|-----------------------------------------------|

=============
GUITAR SOLO 1
=============


   Gtrs.1+2 w/Fill 4 (dist.)[x4]
   Gtr.3 (dist.)
                            F                  F
 e|-------------------12------------12-14-15-15b-|
 B|-12----10s12h14h15-----15bv-------------------|
 G|----------------------------------------------|
 D|----------------------------------------------|
 A|----------------------------------------------|
 E|----------------------------------------------|


                                 F
 e|-15-14-12-14-12h14p12----15---------------------------|
 B|----------------------15----15b--r(15)p13h15p13p12h13-|
 G|------------------------------------------------------|
 D|------------------------------------------------------|
 A|------------------------------------------------------|
 E|------------------------------------------------------|


 e|--------------------------------------------------------|
 B|--------15v----(12)-(15)p12-----------------------------|
 G|-14--12---------------------14-12h14p12-----------------|
 D|----------------------------------------14p12h14--12s14-|
 A|--------------------------------------------------------|
 E|--------------------------------------------------------|
                  w/bar....


            F         F
 e|------------------------------------------------------|
 B|---------------------12-12h15p12-12-12----------------|
 G|-12-14-14b-r(14)-14b-------------------15-14p12----12-|
 D|------------------------------------------------14----|
 A|------------------------------------------------------|
 E|------------------------------------------------------|


      H
 e|--------------------------------------------------|
 B|--------------------------------------------------|
 G|-14b-r(14)p12----12v---------------------11-12-14-|
 D|--------------14----------------11-12-14----------|
 A|--------------------------12-14-------------------|
 E|--------------------------------------------------|
                             pm.........


                                    F
 e|----------------------12-14-15-15b\-------|
 B|-12h13p12----12-13-15---------------------|
 G|----------14------------------------------|
 D|------------------------------------------|
 A|------------------------------------------|
 E|------------------------------------------|

=========
Interlude
=========


   Gtr.1 (dist.)
 e|------------------------------------------------|
 B|----12--10--12v-----------------13--12---10-----|
 G|-9------------------------------------------12--|
 D|------------------------------------------------|
 A|------------------------------------------------|
 E|------------------------------------------------|
 -|
 -|Gtr.3 (dist.)
 e|------------------------------------------------|
 B|------------------------------------------------|
 G|-----4---2---4v-------------------5--4----2-----|
 D|-2-------------------------------------------5--|
 A|------------------------------------------------|
 E|------------------------------------------------|
 -|
 -|Gtr.2 (dist.)
 e|------------------------------------------------|
 B|------------------------------------------------|
 G|------------------------------------------------|
 D|-2-----------2-----------2-----------5----------|
 A|-2-----------2-----------2-----------5----------|
 E|-0-----------0-----------0-----------3----------|

 e|------------------------------------------------|
 B|----12--10--12v-----------------13--12---10-----|
 G|-9------------------------------------------12--|
 D|------------------------------------------------|
 A|------------------------------------------------|
 E|------------------------------------------------|
 -|
 e|------------------------------------------------|
 B|------------------------------------------------|
 G|-----4---2---4v-------------------5--4----2-----|
 D|-2-------------------------------------------5--|
 A|------------------------------------------------|
 E|------------------------------------------------|
 -|
 e|------------------------------------------------|
 B|------------------------------------------------|
 G|-5-----------5-----------7-----------7----------|
 D|-5-----------5-----------7-----------7----------|
 A|-3-----------3-----------5-----------5----------|
 E|------------------------------------------------|

 e|------------------------------------------------|
 B|----12--10--12v-----------------13--12---10-----|
 G|-9------------------------------------------12--|
 D|------------------------------------------------|
 A|------------------------------------------------|
 E|------------------------------------------------|
 -|
 e|------------------------------------------------|
 B|------------------------------------------------|
 G|-----4---2---4v-------------------5--4----2-----|
 D|-2-------------------------------------------5--|
 A|------------------------------------------------|
 E|------------------------------------------------|
 -|
 e|------------------------------------------------|
 B|------------------------------------------------|
 G|------------------------------------------------|
 D|-2-----------2-----------2-----------5----------|
 A|-2-----------2-----------2-----------5----------|
 E|-0-----------0-----------0-----------3----------|

 e|------------------------------------------------|
 B|----12--10--12v-----------------13--12---10-----|
 G|-9------------------------------------------12--|
 D|------------------------------------------------|
 A|------------------------------------------------|
 E|------------------------------------------------|
 -|
 e|------------------------------------------------|
 B|------------------------------------------------|
 G|-----4---2---4v-------------------5--4----2-----|
 D|-2-------------------------------------------5--|
 A|------------------------------------------------|
 E|------------------------------------------------|
 -|
 e|------------------------------------------------|
 B|------------------------------------------------|
 G|-5-----------5-----------------------7----------|
 D|-5-----------5-----------7-----------7----------|
 A|-3-----------3-----------7-----------5----------|
 E|-------------------------5----------------------|

 e|------------------------------------------------|
 B|----12--10--12v-----------------13--12---10-----|
 G|-9------------------------------------------12--|
 D|------------------------------------------------|
 A|------------------------------------------------|
 E|------------------------------------------------|
 -|
 e|------------------------------------------------|
 B|------------------------------------------------|
 G|-----4---2---4v-------------------5--4----2-----|
 D|-2-------------------------------------------5--|
 A|------------------------------------------------|
 E|------------------------------------------------|
 -|
 e|------------------------------------------------|
 B|------------------------------------------------|
 G|------------------------------------------------|
 D|-2-----------2-----------2-----------5----------|
 A|-2-----------2-----------2-----------5----------|
 E|-0-----------0-----------0-----------3----------|

 e|------------------------------------------------|
 B|----12--10--12v-----------------13--12---10-----|
 G|-9------------------------------------------12--|
 D|------------------------------------------------|
 A|------------------------------------------------|
 E|------------------------------------------------|
 -|
 e|------------------------------------------------|
 B|------------------------------------------------|
 G|-----4---2---4v-------------------5--4----2-----|
 D|-2-------------------------------------------5--|
 A|------------------------------------------------|
 E|------------------------------------------------|
 -|
 e|------------------------------------------------|
 B|------------------------------------------------|
 G|-5-----------5-----------7-----------7----------|
 D|-5-----------5-----------7-----------7----------|
 A|-3-----------3-----------5-----------5----------|
 E|------------------------------------------------|

 e|------------------------------------------------|
 B|----12--10--12v-----------------13--12---10-----|
 G|-9------------------------------------------12--|
 D|------------------------------------------------|
 A|------------------------------------------------|
 E|------------------------------------------------|
 -|
 e|------------------------------------------------|
 B|------------------------------------------------|
 G|-----4---2---4v-------------------5--4----2-----|
 D|-2-------------------------------------------5--|
 A|------------------------------------------------|
 E|------------------------------------------------|
 -|
 e|------------------------------------------------|
 B|------------------------------------------------|
 G|------------------------------------------------|
 D|-2-----------2-----------2-----------5----------|
 A|-2-----------2-----------2-----------5----------|
 E|-0-----------0-----------0-----------3----------|

 e|------------------------------------------------|
 B|----12--10--12v-----------------13--12---10-----|
 G|-9------------------------------------------12--|
 D|------------------------------------------------|
 A|------------------------------------------------|
 E|------------------------------------------------|
 -|
 e|------------------------------------------------|
 B|------------------------------------------------|
 G|-----4---2---4v-------------------5--4----2-----|
 D|-2-------------------------------------------5--|
 A|------------------------------------------------|
 E|------------------------------------------------|
 -|
 e|------------------------------------------------|
 B|------------------------------------------------|
 G|-5-----------5-----------------------7----------|
 D|-5-----------5-----------7-----------7----------|
 A|-3-----------3-----------7-----------5----------|
 E|-------------------------5----------------------|

 e|-------------------------------------|
 B|-------------------------------------|
 G|-9\----------------------------------|
 D|-------------------------------------|
 A|-------------------------------------|
 E|-------------------------------------|
 -|
 e|-------------------------------------|
 B|-------------------------------------|
 G|-------------------------------------|
 D|-2-----------------------------------|
 A|-------------------------------------|
 E|-------------------------------------|
 -|
 -|(clean)
 e|-------------------------------------|
 B|-------------------------------------|
 G|-------------------------------------|
 D|----2--2-----2--2-----2--2-----2--2--|
 A|-------------------------------------|
 E|-------------------------------------|


   Gtr.1 (clean)
 e|--------------------------------------------------|
 B|-----------------------------10---10---8---8---8--|
 G|-----9---9-------9---9---9-9----9----9---9---9----|
 D|-9-9---9---9-9-9---9---9--------------------------|
 A|--------------------------------------------------|
 E|--------------------------------------------------|
 -| pm..............................................
 -|
 -|Gtr.3 (clean)
 e|--------------------------------------------------|
 B|--------------------------------------------------|
 G|--------------------------------------------------|
 D|-------------------------7----7----7--5---5---5---|
 A|-----7---7-------7---7----------------------------|
 E|-7-----7-----7-----7------------------------------|

 e|--------------------------------------------------|
 B|-----------------------------10---10---8---8---8--|
 G|-----9---9-------9---9---9-9----9----9---9---9----|
 D|-9-9---9---9-9-9---9---9--------------------------|
 A|--------------------------------------------------|
 E|--------------------------------------------------|
 -| pm..............................................
 -|
 -|
 e|--------------------------------------------------|
 B|--------------------------------------------------|
 G|--------------------------------------------------|
 D|-------------------------7----7----7--5---5---5---|
 A|-----7---7-------7---7----------------------------|
 E|-7-----7-----7-----7------------------------------|

 e|--------------------------------------------------|
 B|-----------------------------10---10---8---8---8--|
 G|-----9---9-------9---9---9-9----9----9---9---9----|
 D|-9-9---9---9-9-9---9---9--------------------------|
 A|--------------------------------------------------|
 E|--------------------------------------------------|
 -| pm..............................................
 -|
 -|
 e|--------------------------------------------------|
 B|--------------------------------------------------|
 G|--------------------------------------------------|
 D|-------------------------7----7----7---5---5---5--|
 A|-----7---7-------7---7----------------------------|
 E|-7-----7-----7-----7------------------------------|

 e|-----------------------------------------------|
 B|-----------------------------------------------|
 G|-5---5---5---7---7---7---5---5---5---7---7---7-|
 D|---5---5---5---7---7-------5---5---5---7---7---|
 A|-----------------------------------------------|
 E|-----------------------------------------------|
 -| pm...........................................
 -|
 -|
 e|-----------------------------------------------|
 B|-----------------------------------------------|
 G|-----------------------------------------------|
 D|-----------------------------------------------|
 A|-3---3---3---5---5---5---3---3---3---5---5---5-|
 E|-----------------------------------------------|

 e|-------------------------------------------------|
 B|-------------------------------------------------|
 G|-----9---9-------9---9-------9---9-------9---9---|
 D|-9-9---9---9-9-9---9---9-9-9---9---9-9-9---9---9-|
 A|-------------------------------------------------|
 E|-------------------------------------------------|
 -| pm.............................................
 -|
 -|
 e|-------------------------------------------------|
 B|-------------------------------------------------|
 G|-------------------------------------------------|
 D|-----5---5-------5---5-------5---5-------5---5---|
 A|-------------------------------------------------|
 E|-------------------------------------------------|

======
Middle
======


   Gtr.1 - w/Fill 5 (dist.)[x3]
   Gtr.2 (dist.)
                                                      F
 e|--------------7------7--10---7-----7-----------------|
 B|---7-8-7-8-10----10------------10------10-8--10--10b-|
 G|-9---------------------------------------------------|
 D|-----------------------------------------------------|
 A|-----------------------------------------------------|
 E|-----------------------------------------------------|


                                                   F
 e|-------7--10---7-----7----------------------------|
 B|---10------------10------10-8--10------8--10--10b-|
 G|--------------------------------------------------|
 D|--------------------------------------------------|
 A|--------------------------------------------------|
 E|--------------------------------------------------|


 e|------------------------------------------------|
 B|--10-8--10---8-7------------7--8---7----7-------|
 G|------------------9------9-----------9------9-7-|
 D|------------------------------------------------|
 A|------------------------------------------------|
 E|------------------------------------------------|


 e|----------------------------------------------------|
 B|---------------7--8---7----7-------------------7--8-|
 G|-9--\4------9-----------9------9--7--9------9-------|
 D|----------------------------------------------------|
 A|----------------------------------------------------|
 E|----------------------------------------------------|


 e|------------------------------|
 B|-7---------7------------------|
 G|---9--7--9----9---------------|
 D|------------------------------|
 A|------------------------------|
 E|------------------------------|


 e|--------------7------7--10---7-----7-----------------|
 B|---7-8-7-8-10----10------------10------10-8--10--10b-|
 G|-9---------------------------------------------------|
 D|-----------------------------------------------------|
 A|-----------------------------------------------------|
 E|-----------------------------------------------------|


                                                   F
 e|-------7--10---7-----7----------------------------|
 B|---10------------10------10-8--10------8--10--10b-|
 G|--------------------------------------------------|
 D|--------------------------------------------------|
 A|--------------------------------------------------|
 E|--------------------------------------------------|


 e|------------------------------------------------|
 B|--10-8--10---8-7------------7--8---7----7-------|
 G|------------------9------9-----------9------9-7-|
 D|------------------------------------------------|
 A|------------------------------------------------|
 E|------------------------------------------------|


 e|----------------------------------------------------|
 B|---------------7--8---7----7-------------------7--8-|
 G|-9--\4------9-----------9------9--7--9------9-------|
 D|----------------------------------------------------|
 A|----------------------------------------------------|
 E|----------------------------------------------------|


 e|------------------------------|
 B|-7---------7------------------|
 G|---9--7--9----9---------------|
 D|------------------------------|
 A|------------------------------|
 E|------------------------------|


 e|--------------7------7--10---7-----7-----------------|
 B|---7-8-7-8-10----10------------10------10-8--10--10b-|
 G|-9---------------------------------------------------|
 D|-----------------------------------------------------|
 A|-----------------------------------------------------|
 E|-----------------------------------------------------|


                                                   F
 e|-------7--10---7-----7----------------------------|
 B|---10------------10------10-8--10------8--10--10b-|
 G|--------------------------------------------------|
 D|--------------------------------------------------|
 A|--------------------------------------------------|
 E|--------------------------------------------------|


 e|------------------------------------------------|
 B|--10-8--10---8-7------------7--8---7----7-------|
 G|------------------9------9-----------9------9-7-|
 D|------------------------------------------------|
 A|------------------------------------------------|
 E|------------------------------------------------|


 e|----------------------------------------------------|
 B|---------------7--8---7----7-------------------7--8-|
 G|-9--\4------9-----------9------9--7--9------9-------|
 D|----------------------------------------------------|
 A|----------------------------------------------------|
 E|----------------------------------------------------|


                           F       F
 e|--------------------------------------------|
 B|-7---------7----------15b-----15bv----r(15)-|
 G|---9--7--9----9-----------------------------|
 D|--------------------------------------------|
 A|--------------------------------------------|
 E|--------------------------------------------|

=============
GUITAR SOLO 2
=============


   Gtr.1 - w/Fill 5 (dist.)
   Gtr.2 (dist.)
              F            H
 e|--------------12--14--14b---14-12-------12-14--12-----|
 B|-15b-----15b-----------------------15-----------------|
 G|------------------------------------------------------|
 D|------------------------------------------------------|
 A|------------------------------------------------------|
 E|------------------------------------------------------|


      F       F
 e|-17b-----17b---17-15--14---15-14------------12--14--|
 B|----------------------------------15v---------------|
 G|----------------------------------------------------|
 D|----------------------------------------------------|
 A|----------------------------------------------------|
 E|----------------------------------------------------|


      H                               F
 e|-14b---14-12-------12-14--12----------12-------------|
 B|--------------15-----------------15b-----15-12----12-|
 G|-----------------------------------------------15----|
 D|-----------------------------------------------------|
 A|-----------------------------------------------------|
 E|-----------------------------------------------------|


                     F       F
 e|---------------------------------------------|
 B|----------------15b--r(15)b--v---^----(15)\--|
 G|-15-14-12----12------------------------------|
 D|----------14---------------------------------|
 A|---------------------------------------------|
 E|---------------------------------------------|


      F
 e|-17b----^--^-r-15p14-15p14-15p14----14-15-17-15p14-|
 B|---------------------------------15----------------|
 G|---------------------------------------------------|
 D|---------------------------------------------------|
 A|---------------------------------------------------|
 E|---------------------------------------------------|


                        F
 e|----14-15p14----14-17b--17-15-14h15-14----14-----------|
 B|-15----------15------------------------15-----17v------|
 G|-------------------------------------------------------|
 D|-------------------------------------------------------|
 A|-------------------------------------------------------|
 E|-------------------------------------------------------|


      F
 e|-----------------------    |-------------|
 B|-15b-----r-12----------    |-------------|
 G|--------------15p14p12-    |----------12-|
 D|-----------------------    |-14-12-14----|
 A|-----------------------    |-------------|
 E|-----------------------    |-------------|
                              *Overlap into chorus


======
Chorus
======


   Gtrs.1+3 (dist.)
 e|------------|------------|------------|--------------|
 B|------------|------------|------------|--------------|
 G|----5-----7-|----5-----7-|----5-----7-|----5-----7-7-|
 D|-2--5--5--7-|-2--5--5--7-|-2--5--5--7-|-2--5--5--7-7-|
 A|-2--3--5--5-|-2--3--5--5-|-2--3--5--5-|-2--3--5--5-5-|
 E|-0-----3----|-0-----3----|-0-----3----|-0-----3------|


 e|------------|------------|------------|--------------|
 B|------------|------------|------------|--------------|
 G|----5-----7-|----5-----7-|----5-----7-|----5-----7-7-|
 D|-2--5--5--7-|-2--5--5--7-|-2--5--5--7-|-2--5--5--7-7-|
 A|-2--3--5--5-|-2--3--5--5-|-2--3--5--5-|-2--3--5--5-5-|
 E|-0-----3----|-0-----3----|-0-----3----|-0-----3------|

=====
Outro
=====


   Gtr.1 - w/Fig. 3 (clean)
   Gtr.2 (clean)
 e|----------8----7----7------------------|
 B|-----------------10------10-8-10--8--7-|
 G|-9----7-9------------------------------|
 D|---------------------------------------|
 A|---------------------------------------|
 E|---------------------------------------|


 e|----------8----7----7-----------------|
 B|-----------------10------10-8-7--8--7-|
 G|-9----7-9-----------------------------|
 D|--------------------------------------|
 A|--------------------------------------|
 E|--------------------------------------|


 e|----------8----7----7------------------|
 B|-----------------10------10-8-10--8--7-|
 G|-9----7-9------------------------------|
 D|---------------------------------------|
 A|---------------------------------------|
 E|---------------------------------------|


                                          w/Fill 6 (clean)
 e|----------8----7----7-----------------|-----------------|]
 B|-----------------10------10-8-7--8--7-|-----------------|]
 G|-9----7-9-----------------------------|-7s9-------------|]
 D|--------------------------------------|-----------------|]
 A|--------------------------------------|-----------------|]
 E|--------------------------------------|-----------------|]
   rit.....................................................


_______________________________________________________________________

 Fill 1
 ~~~~~~

 e|---------------------------------------------------|
 B|---12---12----15--15--15------------------10-------|
 G|-9----9----9--12--12--12-----12----12---------9--7-|
 D|--------------------------10----10----10-----------|
 A|---------------------------------------------------|
 E|---------------------------------------------------|

_______________________________________________________________________

 Fill 2
 ~~~~~~

 e|--------------------------------------------------|
 B|-12-12--12---15-15-15-15-15-15-8-8--8---8-8-8-8-8-|
 G|--9--9---9---12-12-12-12-12-12-7-7--7---7-7-7-7-7-|
 D|--9--9---9---12-12-12-12-12-12-5-5--5---5-5-5-5-5-|
 A|--------------------------------------------------|
 E|--------------------------------------------------|

_______________________________________________________________________

 Fill 3
 ~~~~~~

 e|----------------------------------------------------|
 B|-12-12--12-12--15-15--15-15--8-8--8-8--10-10--10-10-|
 G|--9--9---9--9--12-12--12-12--5-5--5-5---7--7---7--7-|
 D|--9--9---9--9--12-12--12-12--5-5--5-5---7--7---7--7-|
 A|----------------------------------------------------|
 E|----------------------------------------------------|


 e|------------------------------------------------|
 B|-12-12--12-12--15-15--15-15--8-8--8-8-8-8--8--8-|
 G|--9--9---9--9--12-12--12-12--5-5--5-5-5-5--5--5-|
 D|--9--9---9--9--12-12--12-12--5-5--5-5-5-5--5--5-|
 A|------------------------------------------------|
 E|------------------------------------------------|

_______________________________________________________________________

 Fill 4
 ~~~~~~

 e|-------------------------------------------|
 B|-------------------------------------------|
 G|----------------------5-5--5--5-7-7-7--7-7-|
 D|-2-2--2--2-5-5-5-5-5--5-5--5--5-7-7-7--7-7-|
 A|-2-2--2--2-5-5-5-5-5--3-3--3--3-5-5-5--5-5-|
 E|-0-0--0--0-3-3-3-3-3-----------------------|

_______________________________________________________________________

 Fill 5
 ~~~~~~

 e|--------------------------------------|
 B|--------------------------------------|
 G|--------------------5--5-5-5----------|
 D|-2--2-2-2--2--2--2--5--5-5-5--7--7--7-|
 A|-2--2-2-2--2--2--2--3--3-3-3--7--7--7-|
 E|-0--0-0-0--0--0--0------------5--5--5-|

 e|--------------------------------------|
 B|--------------------------------------|
 G|--------------------5--5-5-5----------|
 D|-2--2-2-2--2--2--2--5--5-5-5--7--7--7-|
 A|-2--2-2-2--2--2--2--3--3-3-3--7--7--7-|
 E|-0--0-0-0--0--0--0------------5--5--5-|

 e|--------------------------------------|
 B|--------------------------------------|
 G|-7--7-7-7--7--7--7--5--5-5-5--7--7--7-|
 D|-7--7-7-7--7--7--7--5--5-5-5--7--7--7-|
 A|-5--5-5-5--5--5--5--3--3-3-3--5--5--5-|
 E|--------------------------------------|

 e|--------------------------------------|
 B|--------------------------------------|
 G|--------------------5--5-5-5----------|
 D|-2--2-2-2--2--2--2--5--5-5-5--7--7--7-|
 A|-2--2-2-2--2--2--2--3--3-3-3--7--7--7-|
 E|-0--0-0-0--0--0--0------------5--5--5-|

 e|--------------------------------------|
 B|--------------------------------------|
 G|--------------------5--5-5-5----------|
 D|-2--2-2-2--2--2--2--5--5-5-5--7--7--7-|
 A|-2--2-2-2--2--2--2--3--3-3-3--7--7--7-|
 E|-0--0-0-0--0--0--0------------5--5--5-|

 e|--------------------------------------|
 B|--------------------------------------|
 G|-7--7-7-7--7--7--7--5--5-5-5----------|
 D|-7--7-7-7--7--7--7--5--5-5-5--7--7--7-|
 A|-5--5-5-5--5--5--5--3--3-3-3--7--7--7-|
 E|------------------------------5--5--5-|

 e|--------------------------------------|
 B|--------------------------------------|
 G|--------------------------------------|
 D|-2--2-2-2--2--2--2--2--2-2-2--2--2--2-|
 A|-2--2-2-2--2--2--2--2--2-2-2--2--2--2-|
 E|-0--0-0-0--0--0--0--0--0-0-0--0--0--0-|

_______________________________________________________________________

 Fill 6
 ~~~~~~

 e|-10----------|
 B|--8-------7--|
 G|--7-----7----|
 D|--9----------|
 A|--7----------|
 E|-------------|

5.THE MERCENARY

-------|-----------------------------|----------------------------------|-----|
-------|-----------------------------|----------------------------------|-----|
-------|-----------------------------|----------------------------------|-----|
-9--9--|------------5---4------------|------------5---4----/7-----------|-----|
-7--7--|-7--5--7------------5--------|-7--5--7--------------------------|-----|
-------|------------------------7----|----------------------------------|-----|

        Intro [2x]

-------------------------------------|----------------------------------|-----|
-------------------------------------|----------------------------------|-----|
-9-----------9------5-------7--------|-9-----------9------5-----7-------|-----|
-9--9--9--9--9------5-------7--------|-9--9--9--9--9------5-----7-------|-----|
-7--7--7--7--7------3-------5--------|-7--7--7--7--7------3-----5-------|-----|
-------------------------------------|----------------------------------|-----|

 Verse: Guitar 1 ['Pay to kill...'] [4x]

-------------------------------------|----------------------------------|-----|
-------------------------------------|----------------------------------|-----|
-------------------------------------|----------------------------------|-----|
--------------------4-------5--------|----------------------------------|-----|
-7--5--7-----------------------------|-7--5--7----------3------5--------|-----|
-------------------------------------|----------------------------------|-----|

 Verse Melody: Guitar 2

-----------------|-------------------|-----------------|----------------|-----|
-----------------|-------------------|-----------------|----------------|-----|
-9---------------|-7-----------------|-5---------------|-7--------------|-----|
-9---------------|-7-----------------|-5---------------|-7--------------|-----|
-7---------------|-5-----------------|-3---------------|-5--------------|-----|
-----------------|-------------------|-----------------|----------------|-----|

 Bridge ['Nowhere to run...'] [2x]

-----------------|-------------------|-----------------|----------------|-----|
-----------------|-------------------|-----------------|----------------|-----|
-----------------|-------4-----------|-------2---------|-------4--------|-----|
-9--7--10--9-----|-7--5-----7--4-----|-5--4-----5--4---|-7--5-----7--4--|-----|
-------------10--|-------------------|-----------------|----------------|-----|
-----------------|-------------------|-----------------|----------------|-----|

 Bridge Melody [enters on second time]

-------------------------------------|----------------------------------|-----|
-------------------------------------|----------------------------------|-----|
-------------------------------------|----------------------------------|-----|
------------5--4---------------------|------------5--4------------------|-----|
-7--5--7----------5------------------|-7--5--7----------5---------------|-----|
---------------------7---------------|---------------------7------------|-----|

 Interlude

-----------------|-------------------|----------------------------------|-----|
-----------------|-------------------|----------------------------------|-----|
-5---------------|-7-----------------|-9--------------------------------|-----|
-5---------------|-7-----------------|-9--------------------------------|-----|
-3---------------|-5-----------------|-7--------------------------------|-----|
-----------------|-------------------|----------------------------------|-----|

 Chorus ['Should have no fear...']: Guitar 1 [2x]

-----------------|-------------------|----------------------------------|-----|
-----------------|-------------------|-8-7-------------8-7--------------|-----|
-----------------|-------------------|------9-7------------9-7----------|-----|
-----------------|-------------------|----------10-9-----------10-9-----|-----|
-----------------|-------------------|---------------9--------------9---|-----|
-----------------|-------------------|----------------------------------|-----|

 Chorus Melody: Guitar 2 [on first time]

-----------------|-------------------|----------------------------------|-----|
-----------------|-------------------|-8--7--8--8/10---8--7--8--8/10----|-----|
-----------------|-------------------|----------------------------------|-----|
-----------------|-------------------|----------------------------------|-----|
-----------------|-------------------|----------------------------------|-----|
-----------------|-------------------|----------------------------------|-----|

 Chorus Melody: Guitar 2 [on second time]

-------------------------------------|----------------------------------|-----|
-------------------------------------|----------------------------------|-----|
-4--4--4-----------------------------|-2--2--2--------------------------|-----|
-4--4--4-----------------------------|-2--2--2--------------------------|-----|
-2--2--2-----------2-2-2--3--2-------|-0--0--0-----------0-0-0-0--2--3--|-----|
--------------------------------5-3--|----------------------------------|-----|

 Rhythm for Solo 1 [2x]

-------------------------------------|----------------------------------|-----|
-------------------------------------|----------------------------------|-----|
-4--4--4-----------------------------|-7--7--7--------------------------|-----|
-4--4--4-----------------------------|-7--7--7--------------------------|-----|
-2--2--2-----------2-2-2--3--2-------|-5--5--5-----------3-3-3-3--5-----|-----|
--------------------------------5-3--|----------------------------------|-----|

-------------------------------------|----------------------------------|-----|
-------------------------------------|----------------------------------|-----|
-9--------9--------12---12-----------|-7--------7-------12---12---------|-----|
-9--9--9--9--------12---12-----------|-7--7--7--7-------12---12---------|-----|
-7--7--7--7--------10---10-----------|-5--5--5--5-------10---10---------|-----|
-------------------------------------|----------------------------------|-----|

 Rhythm for Solo 2 [2x]

-------------------------------------|----------------------------------|-----|
-------------------------------------|----------------------------------|-----|
-9--------9--------12---12-----------|-7--------7-----------------------|-----|
-9--9--9--9--------12---12-----------|-7--7--7--7-------7--7---7--7-----|-----|
-7--7--7--7--------10---10-----------|-5--5--5--5-------7--7---7--7-----|-----|
-------------------------------------|------------------5--5---5--5-----|-----|

-----------------|-------------------|-----------------|----------------|-----|
-----------------|-------------------|-----------------|----------------|-----|
-9---------------|-7-----------------|-5---------------|-7--------------|-----|
-9---------------|-7-----------------|-5---------------|-7--------------|-----|
-7---------------|-5-----------------|-3---------------|-5--------------|-----|
-----------------|-------------------|-----------------|----------------|-----|

 Rhythm for Interlude after Solo 2

------------------------------------------------------------------------|-----|
------------------------------------------------------------------------|-----|
-4v---4-4-4-5-4--------------------4-5-4v---4-4-4-5-4-------------------|-4-5-|
----------------7-5-7v---7-7-7-7-7--------------------7-5-7v--7-7-7-7-7-|-----|
------------------------------------------------------------------------|-----|
------------------------------------------------------------------------|-----|

 Interlude after Solo 2

------------------------------------------------------------------------|-----|
------------------------------------------------------------------------|-----|
-4v---4-4-4-5-4--------------------4-5-4v---4-4-4-5-4-------------------|-----|
----------------7-5-7v---7-7-7-7-7--------------------7-5---------------|-----|
-----------------------------------------------------------5\-----------|-----|
------------------------------------------------------------------------|-----|

6.DREAM OF MIRRORS

Intro:
|----------------------------------------------------------------|
|----------------------------------------------------------------|
|.---------5-4------------------5-4-----7~-----------5-4---------|
|.7--7---7------5------7--7---7------5------7--7---7------5------|
|-7--7-------------5~--7--7-----------------7--7-------------5~--|
|-5--5-----------------5--5-----------------5--5-----------------|


|--------------------------|-------------------------------------------------------|
|--------------------------|-------------------------------------------------------|
|------------------/5--4--.|-2------9h10p9p7-9~--.------9----9h10p9p7-9-10-/(12)~--|
|------------3--2---------.|-2-------------------7--7-7----------------------------|
|3--2--3--2----------------|-0-----------------------------------------------------|
|--------------------------|-------------------------------------------------------|
 *ritardando 2nd time

|---------------------------------------------------------|
|---------------------------------------------------------|
|.------7----7h8p7p5-7~--.------9----9h10p9p7-9-10-/(12)--|
|5--5-5------------------7--7-7---------------------------|
|---------------------------------------------------------|
|---------------------------------------------------------|


   A (only at 5th & 6th times and upstroked)
   /                                                           8x
|----------------------------------------------------------------|
|----------------------------------------------------------------|
|.-.------9h10p9p7-.------7h9p7p5-.------5h7p5p4-.------4h5p4p0-.|
|.-7--7-7----------7--7-7---------7--7-7---------7--7-7---------.|
|----------------------------------------------------------------|
|----------------------------------------------------------------|

                                3x
|---------------------------------|--------------------------------|
|--------------------3-------3----|--------------------------------|
|------------------2---2---2---2-.|--------------------------------|
|----3-------3---0-------0-------.|----3---3---3-------5---5---5---|
|--3---3---3---3------------------|--3---3---3---3---5---5---5---5-|
|1-------1------------------------|1---------------3---------------|

                              3x
|-------------------------------|-----------------------------|
|---------1---0-----------------|--------1---0----------------|
|.----2--------------5---------.|----2------------------------|
|.--2---2---2------5--------5--.|--2---2---2--------3------5--|
|-0--------------3--------5-----|0----------------3------5----|
|----------------------3--------|---------------1-----3-------|


   A (only at 5th upstroked)      A (only at 6th upstroked)
   /                              /                           10x
|----------------------------------------------------------------|
|----------------------------------------------------------------|
|.-.------9h10p9p7-.------7h9p7p5-.------5h7p5p4-.------4h5p4p0-.|
|.-7--7-7----------7--7-7---------7--7-7---------7--7-7---------.|
|----------------------------------------------------------------|
|----------------------------------------------------------------|

                                3x
|---------------------------------|--------------------------------|
|---------------------------------|--------------------------------|
|----------------7-7-7-7-7-7-7-7-.|--------------------------------|
|3-3-3-3-3-3-3-3-7-7-7-7-7-7-7-7-.|3-3-3-3-3-3-3-3-5-5-5-5-5-5-5-5-|
|3-3-3-3-3-3-3-3-5-5-5-5-5-5-5-5--|3-3-3-3-3-3-3-3-5-5-5-5-5-5-5-5-|
|1-1-1-1-1-1-1-1------------------|1-1-1-1-1-1-1-1-3-3-3-3-3-3-3-3-|

 Chorus:                         3x
|---------------------------------|--------------------------------|
|---------------------------------|--------------------------------|
|.2-2----2-2----2----------------.|--------------------------------|
|.2-2----2-2----2--3------5------.|3-3-3-3-3-3-3-3-5-5-5-5-5-5-5-5-|
|-0-0----0-0----0--3------5-------|3-3-3-3-3-3-3-3-5-5-5-5-5-5-5-5-|
|------------------1------3-------|1-1-1-1-1-1-1-1-3-3-3-3-3-3-3-3-|

                                3x
|---------------------------------|--------------------------------|
|---------------------------------|--------------------------------|
|.2-2----2-2----2----------------.|--------------------------------|
|.2-2----2-2----2--3------5------.|3-3-3-3-3-3-3-3-5-5-5-5-5-5-5-5-|
|-0-0----0-0----0--3------5-------|3-3-3-3-3-3-3-3-5-5-5-5-5-5-5-5-|
|------------------1------3-------|1-1-1-1-1-1-1-1-3-3-3-3-3-3-3-3-|

                              3x
|-------------------------------|-----------------------------|
|---------1---0-----------------|--------1---0----------------|
|.----2--------------5---------.|----2------------------------|
|.--2---2---2------5--------5--.|--2---2---2--------3------5--|
|-0--------------3--------5-----|0----------------3------5----|
|----------------------3--------|---------------1-----3-------|


  3rd time drums enter
                                                              10x
|----------------------------------------------------------------|
|----------------------------------------------------------------|
|.-.------9h10p9p7-.------7h9p7p5-.------5h7p5p4-.------4h5p4p0-.|
|.-7--7-7----------7--7-7---------7--7-7---------7--7-7---------.|
|----------------------------------------------------------------|
|----------------------------------------------------------------|

                                3x
|---------------------------------|--------------------------------|
|---------------------------------|--------------------------------|
|----------------7-7-7-7-7-7-7-7-.|--------------------------------|
|3-3-3-3-3-3-3-3-7-7-7-7-7-7-7-7-.|3-3-3-3-3-3-3-3-5-5-5-5-5-5-5-5-|
|3-3-3-3-3-3-3-3-5-5-5-5-5-5-5-5--|3-3-3-3-3-3-3-3-5-5-5-5-5-5-5-5-|
|1-1-1-1-1-1-1-1------------------|1-1-1-1-1-1-1-1-3-3-3-3-3-3-3-3-|

 Chorus:                         3x
|---------------------------------|--------------------------------|
|---------------------------------|--------------------------------|
|.2-2----2-2----2----------------.|--------------------------------|
|.2-2----2-2----2--3------5------.|3-3-3-3-3-3-3-3-5-5-5-5-5-5-5-5-|
|-0-0----0-0----0--3------5-------|3-3-3-3-3-3-3-3-5-5-5-5-5-5-5-5-|
|------------------1------3-------|1-1-1-1-1-1-1-1-3-3-3-3-3-3-3-3-|


                                3x
|---------------------------------|--------------------------------|
|---------------------------------|--------------------------------|
|.2-2----2-2----2----------------.|--------------------------------|
|.2-2----2-2----2--3------5------.|3-3-3-3-3-3-3-3-5-5-5-5-5-5-5-5-|
|-0-0----0-0----0--3------5-------|3-3-3-3-3-3-3-3-5-5-5-5-5-5-5-5-|
|------------------1------3-------|1-1-1-1-1-1-1-1-3-3-3-3-3-3-3-3-|


|--------------------------------------------------|
|--10h12p10-12-12--10---10-10h12p10-12-12--10---10-|
|.--------------------9-----------------------9----|
|.-------------------------------------------------|
|--------------------------------------------------|
|--------------------------------------------------|
|
|--------------------------------------------------|
|--------------------------------------------------|
|.-------------------------------------------------|
|.-7-h9-p7--9--9---7----7--7-h9-p7--9--9---7----7--|
|---------------------7-----------------------7----|
|--------------------------------------------------|


|------------------------------------------|
|-8h10p8-10-10--8---8-8h10p8-10-10--8---8--|
|-----------------7-------------------7---.|
|-----------------------------------------.|
|------------------------------------------|
|------------------------------------------|
|
|------------------------------------------|
|------------------------------------------|
|-----------------------------------------.|
|-5h7-p5-7--7---5---5-5h7-p5-7--7---5---5-.|
|-----------------5-------------------5----|
|------------------------------------------|


|----------------------------------------------------|
|----------------------------------------------------|
|----------------------------------------------------|
|7--7-7-7--7-7-7--7-7-7--7-7-7--7-7-7--7-7-7--7-7-7--|
|7--7-7-7--7-7-7--7-7-7--7-7-7--7-7-7--7-7-7--7-7-7--|
|5--5-5-5--5-5-5--5-5-5--5-5-5--5-5-5--5-5-5--5-5-5--|


|----------------------------------------------------|
|----------------------------------------------------|
|----------------------------------------------------|
|5--5-5-5--5-5-5--5-5-5--5-5-5--5-5-5--5-5-5--5-5-5--|
|5--5-5-5--5-5-5--5-5-5--5-5-5--5-5-5--5-5-5--5-5-5--|
|3--3-3-3--3-3-3--3-3-3--3-3-3--3-3-3--3-3-3--3-3-3--|


|----------------------------------------------------|
|----------------------------------------------------|
|----------------------------------------------------|
|7--7-7-7--7-7-7--7-7-7--7-7-7--7-7-7--7-7-7--7-7-7--|
|7--7-7-7--7-7-7--7-7-7--7-7-7--7-7-7--7-7-7--7-7-7--|
|5--5-5-5--5-5-5--5-5-5--5-5-5--5-5-5--5-5-5--5-5-5--|


|------------------------------------------------|
|------------------------------------------------|
|------------------------------------------------|
|3--3-3-3--3-3-3--3-3-3--5--5-5-5--5-5-5--5-5-5--|
|3--3-3-3--3-3-3--3-3-3--5--5-5-5--5-5-5--5-5-5--|
|1--1-1-1--1-1-1--1-1-1--3--3-3-3--3-3-3--3-3-3--|


|-------------------------------------------------|
|-10h12p10-12-12--10---10-10h12p10-12-12--10---10-|
|--------------------9-----------------------9----|
|-------------------------------------------------|
|-------------------------------------------------|
|-------------------------------------------------|
|
|-------------------------------------------------|
|-------------------------------------------------|
|-------------------------------------------------|
|-7-h9-p7--9--9---7----7--7-h9-p7--9--9---7----7--|
|--------------------7-----------------------7----|
|-------------------------------------------------|


|-----------------------------------------|
|-8h10p8-10-10--8---8-8h10p8-10-10--8---8-|
|-----------------7-------------------7---|
|-----------------------------------------|
|-----------------------------------------|
|-----------------------------------------|
|
|-----------------------------------------|
|-----------------------------------------|
|-----------------------------------------|
|-5h7-p5-7--7---5---5-5h7-p5-7--7---5---5-|
|-----------------5-------------------5---|
|-----------------------------------------|


|----------------------------------------------------|
|----------------------------------------------------|
|----------------------------------------------------|
|7--7-7-7--7-7-7--7-7-7--7-7-7--7-7-7--7-7-7--7-7-7--|
|7--7-7-7--7-7-7--7-7-7--7-7-7--7-7-7--7-7-7--7-7-7--|
|5--5-5-5--5-5-5--5-5-5--5-5-5--5-5-5--5-5-5--5-5-5--|


|----------------------------------------------------|
|----------------------------------------------------|
|----------------------------------------------------|
|5--5-5-5--5-5-5--5-5-5--5-5-5--5-5-5--5-5-5--5-5-5--|
|5--5-5-5--5-5-5--5-5-5--5-5-5--5-5-5--5-5-5--5-5-5--|
|3--3-3-3--3-3-3--3-3-3--3-3-3--3-3-3--3-3-3--3-3-3--|


|----------------------------------------------------|
|----------------------------------------------------|
|----------------------------------------------------|
|7--7-7-7--7-7-7--7-7-7--7-7-7--7-7-7--7-7-7--7-7-7--|
|7--7-7-7--7-7-7--7-7-7--7-7-7--7-7-7--7-7-7--7-7-7--|
|5--5-5-5--5-5-5--5-5-5--5-5-5--5-5-5--5-5-5--5-5-5--|


|------------------------------------------------|
|------------------------------------------------|
|------------------------------------------------|
|3--3-3-3--3-3-3--3-3-3--5--5-5-5--5-5-5--5-5-5--|
|3--3-3-3--3-3-3--3-3-3--5--5-5-5--5-5-5--5-5-5--|
|1--1-1-1--1-1-1--1-1-1--3--3-3-3--3-3-3--3-3-3--|


|--------------------------------------------------|
|--10h12p10-12-12--10---10-10h12p10-12-12--10---10-|
|.--------------------9-----------------------9----|
|.-------------------------------------------------|
|--------------------------------------------------|
|--------------------------------------------------|
|
|--------------------------------------------------|
|--------------------------------------------------|
|.-------------------------------------------------|
|.-7-h9-p7--9--9---7----7--7-h9-p7--9--9---7----7--|
|---------------------7-----------------------7----|
|--------------------------------------------------|


|------------------------------------------|
|-8h10p8-10-10--8---8-8h10p8-10-10--8---8--|
|-----------------7-------------------7---.|
|-----------------------------------------.|
|------------------------------------------|
|------------------------------------------|
|
|------------------------------------------|
|------------------------------------------|
|-----------------------------------------.|
|-5h7-p5-7--7---5---5-5h7-p5-7--7---5---5-.|
|-----------------5-------------------5----|
|------------------------------------------|


 Fast Chorus:
|-------------------------------------------------------------------|
|-------------------------------------------------------------------|
|.2----------------2----------------2------------------------------.|
|.2------3----5----2------3----5----2------3----5----3------5------.|
|-0------3----5----0------3----5----0------3----5----3------5-------|
|--------1----3-----------1----3-----------1----3----1------3-------|

 with Solo Rhythm
|-------------------------------------------------------------------|
|-------------------------------------------------------------------|
|.----------9-9-9--7-7-7--5-5-5--4-----------9-9-9--7-7-7--5-5-5--4-|
|.5h7p5-7~-------------------------5h7p5-7~-------------------------|
|-------------------------------------------------------------------|
|-------------------------------------------------------------------|
 *2nd time with ohh, ohh

|-----------------------------------------------------|
|-----------------------------------------------------|
|-----------9-9-9--7-7-7--5-5-5--4-------------------.|
|-5h7p5-7~-------------------------5h7p5-7~--7p5-9~--.|
|-----------------------------------------------------|
|-----------------------------------------------------|


 Solo Rhythm:
|-----------------------------------------------|
|-----------------------------------------------|
|.2-----------------5--------------------------.|
|.2--------3--------5--------3--------5--------.|
|-0--------3--------3--------3--------5---------|
|----------1-----------------1--------3---------|

 with Solo Rhythm
|------------------------------------------------------------------|
|------------------------------------------------------------------|
|----------9-9-9--7-7-7--5-5-5--4-----------9-9-9--7-7-7--5-5-5--4-|
|5h7p5-7~-------------------------5h7p5-7~-------------------------|
|------------------------------------------------------------------|
|------------------------------------------------------------------|


|----------------------------------------------------|
|----------------------------------------------------|
|-----------9-9-9--7-7-7--5-5-5--4-------------------|
|-5h7p5-7~-------------------------5h7p5-7~--7p5-9~--|
|----------------------------------------------------|
|----------------------------------------------------|
|
|----------------------------------------------------|
|----------------------------------------------------|
|--------------------------------------------5p4-7~--|
|----------------------------------------------------|
|----------------------------------------------------|
|----------------------------------------------------|


|------------------------------------------------------------------|
|------------------------------------------------------------------|
|----------9-9-9--7-7-7--5-5-5--4-----------9-9-9--7-7-7--5-5-5--4-|
|5h7p5-7~-------------------------5h7p5-7~-------------------------|
|------------------------------------------------------------------|
|------------------------------------------------------------------|
|
|------------------------------------------------------------------|
|----------8-8-8--6-6-6--5-5-5--3-----------8-8-8--6-6-6--5-5-5--3-|
|4h5p4-5~-------------------------4h5p4-5~-------------------------|
|------------------------------------------------------------------|
|------------------------------------------------------------------|
|------------------------------------------------------------------|


|----------------------------------------------------|
|----------------------------------------------------|
|-----------9-9-9--7-7-7--5-5-5--4-------------------|
|-5h7p5-7~-------------------------5h7p5-7~--7p5-9~--|
|----------------------------------------------------|
|----------------------------------------------------|
|
|----------------------------------------------------|
|-----------8-8-8--6-6-6--5-5-5--3-------------------|
|-4h5p4-5~-------------------------4h5p4-5~--5p4-7~--|
|----------------------------------------------------|
|----------------------------------------------------|
|----------------------------------------------------|
|
|----------------------------------------------------|
|----------------------------------------------------|
|----------------------------------7h9p7-9~--9p7-10~-|
|----------------------------------------------------|
|----------------------------------------------------|
|----------------------------------------------------|


 Chorus:                        3x
|---------------------------------|--------------------------------|
|---------------------------------|--------------------------------|
|.2-2----2-2----2----------------.|--------------------------------|
|.2-2----2-2----2--3------5------.|3-3-3-3-3-3-3-3-5-5-5-5-5-5-5-5-|
|-0-0----0-0----0--3------5-------|3-3-3-3-3-3-3-3-5-5-5-5-5-5-5-5-|
|------------------1------3-------|1-1-1-1-1-1-1-1-3-3-3-3-3-3-3-3-|


 Chorus:                        3x
|---------------------------------|--------------------------------|
|---------------------------------|--------------------------------|
|.2-2----2-2----2----------------.|--------------------------------|
|.2-2----2-2----2--3------5------.|3-3-3-3-3-3-3-3-5-5-5-5-5-5-5-5-|
|-0-0----0-0----0--3------5-------|3-3-3-3-3-3-3-3-5-5-5-5-5-5-5-5-|
|------------------1------3-------|1-1-1-1-1-1-1-1-3-3-3-3-3-3-3-3-|


                              3x
|-------------------------------|-----------------------------|
|---------1---0-----------------|--------1---0----------------|
|.----2--------------5---------.|----2------------------------|
|.--2---2---2------5--------5--.|--2---2---2--------3------5--|
|-0--------------3--------5-----|0----------------3------5----|
|----------------------3--------|---------------1-----3-------|


 Ending:
|-------------------------------------------------------||
|-------------------------------------------------------||
|.-.-9h10p9p7-.-.-7----.-.-9h10p9p7-.-.-7---------------||
|7-7----------7-7------7-7----------7-7-----------------||
|-------------------------------------------------------||
|-------------------------------------------------------||
 *ritardando
                           END OF SONG

Chords:
  A
|-0-----------------------------------------------------|
|-1-----------------------------------------------------|
|-2-----------------------------------------------------|
|-2-----------------------------------------------------|
|-0-----------------------------------------------------|
|-------------------------------------------------------|

7.THE FALLEN ANGEL

INTRO
*****
e-------------------------------------------------------------------|
B-------------------------------------------------------------------|
G---------------------------5-5-5-4-4-4-2-5-4-2---------------------|
D--0h2-2-2-2-2-5-2-2-2-2-2----------------------5-4-----------------|
A-------------------------------------------------------------------|
E-------------------------------------------------------------------|

e-------------------------------------------------------------------|
B---------------------------3-3-3---------3-------------------------|
G---------------------------------5-5-5-4---5-4-2-------------------|
D--0h2-2-2-2-2-5-2-2-2-2-2------------------------5-----------------|
A-------------------------------------------------------------------|
E-------------------------------------------------------------------|

e-------------------------------------------------------------------|
B-------------------------------------------------------------------|
G---------------------------5-5-5-4-4-4-2-5-4-2---------------------|
D--0h2-2-2-2-2-5-2-2-2-2-2----------------------5-4-----------------|
A-------------------------------------------------------------------|
E-------------------------------------------------------------------|

e----------------------------------2-3-5~~~~~~----------------------|
B------------------------------3-5----------------------------------|
G--------------------------4-5--------------------------------------|
D-------------------------------------------------------------------|
A--2-2-2-2-2-2-2-2-2-2-2-2------------------------------------------|
E-------------------------------------------------------------------|


POST INTRO / PRE VERSE
**********************
e-------------------------------------------------------------------|
B-------------------------------------------------------------------|
G---------------------7--------7-7----------------------------------|
D-2-2--------2-2------7--------5-7----------------------------------|
A-2-2--------2-2------5----------5----------------------------------|
E-0-0----2h3-0-0----------------------------------------------------|
  . .        . .        ring


e-------------------------------------------------------------------|
B-------------------------------------------------------------------|
G---------------------5----------5----------------------------------|
D-2-2--------2-2------5--------5-5----------------------------------|
A-2-2--------2-2------3--------5-3----------------------------------|
E-0-0----2h3-0-0---------------3------------------------------------|
  . .        . .        ring


Play these two bars twice


VERSE
*****
e-------------------------------------------------------------------|
B-------------------------------------------------------------------|
G---------5-------------7------------5------------7-----------------|
D--2-2----5-----2-2-----7----2-2-----5-----2-2----7-----------------|
A--2-2-*--3-----2-2-*---5----2-2-*---3-----2-2-*--5-----------------|
E--0-0----------0-0----------0-0-----------0-0----------------------|

* chug on these as you please
it's tough to get a good tab for it, cause the bass is playing it too,
and not totally the same as the guitars.  Just palm mute and rock out.


PRECHORUS (you and only god will know...)
*********
e-------------------------------------------------------------------|
B-------------------------------------------------------------------|
G---4--5--7--9----4-------------------------------------------------|
D---4--5--7--9----4-strum-to-rythm----------------------------------|
A---2--3--5--7----2-------------------------------------------------|
E-------------------------------------------------------------------|


e-------------------------------------------------------------------|
B-------------------------------------------------------------------|
G---4--5--7--9----4-------------------------------------------------|
D---4--5--7--9----4-strum-to-rythm----------------------------------|
A---2--3--5--7----2-------------------------------------------------|
E-------------------------------------------------------------------|


e-------------------------------------------------------------------|
B-----------------13-12-10-12---------------------------------------|
G---4--5--7--9----12-11-9--11---------------------------------------|
D---4--5--7--9----10-9--7--9----------------------------------------|
A---2--3--5--7------------------------------------------------------|
E-------------------------------------------------------------------|


e-------------------------------------------------------------------|
B-------------------------------------------------------------------|
G---4--5--7--9----4-------------------------------------------------|
D---4--5--7--9----4-strum-to-rythm----------------------------------|
A---2--3--5--7----2-------------------------------------------------|
E-------------------------------------------------------------------|


CHORUS
******
e-------------------------------------------------------------------|
B-------------------------------------------------------------------|
G--9-9----5-5----7-7------------------------------------------------|
D--9-9----5-5----7-7---5--7-----------------------------------------|
A--7-7----3-3----5-5---5--7-----------------------------------------|
E----------------------3--5-----------------------------------------|


e-------------------------------------------------------------------|
B-------------------------------------------------------------------|
G--9-9----5-5----7-7---------7-8-9---(this-ending-noodle-is-wrong)--|
D--9-9----5-5----7-7---7-8-9----------------------------------------|
A--7-7----3-3----5-5------------------------------------------------|
E-------------------------------------------------------------------|

e-------------------------------------------------------------------|
B-------------------------------------------------------------------|
G--9-9----5-5----7-7----------4--------5----------------------------|
D--9-9----5-5----7-7---5--7---4-ring---5----------------------------|
A--7-7----3-3----5-5---5--7---2--------3----------------------------|
E----------------------3--5-----------------------------------------|
                                       cause I am the chosen one


CHORUS NOODLE (played second time through each chorus)
*************
e--12-10-8-7-8-10-8-7-5---3~~~~5------------------------------------|
B-------------------------------------------------------------------|
G-------------------------------------------------------------------|
D-------------------------------------------------------------------|
A-------------------------------------------------------------------|
E-------------------------------------------------------------------|

e--12-10-8-7-8-10-8-7-5---2~~~~-------------------------------------|
B-------------------------------------------------------------------|
G-------------------------------------------------------------------|
D-------------------------------------------------------------------|
A-------------------------------------------------------------------|
E-------------------------------------------------------------------|

e--12-10-8-7-8-10-8-7-5---3~~5~~~~~7~~~~~~~~10~~~~~~~~~~------------|
B-------------------------------------------------------------------|
G-------------------------------------------------------------------|
D-------------------------------------------------------------------|
A-------------------------------------------------------------------|
E-------------------------------------------------------------------|


SOLO RYTHM (first part)
**********
e-------------------------------------------------------------------|
B-------------------------------------------------------------------|
G---6------4------2h4-2h4-------------------------------------------|
D---6-x12--4-x6---2h4-2h4-------------------------------------------|
A---4------2------(this-is-wrong-but-close)-------------------------|
E-------------------------------------------------------------------|


SOLO RYTHM (second part)
**********
e-------------------------------------------------------------------|
B-------------------------------------------------------------------|
G-------------------------------------------------------------------|
D--6------4------2h4-2h4--------------------------------------------|
A--6-x12--4-x6---2h4-2h4--------------------------------------------|
E--4------2------(wrong-again)--------------------------------------|


POST SOLO
*********
e-------------------------------------------------------------------|
B-------------------------------------------------------------------|
G--4-----5-7--------------------------------------------------------|
D--4-x6--5-7---pause-for-wailing-lead-axe---------------------------|
A--2-----3-5--------------------------------------------------------|
E-------------------------------------------------------------------|

e-------------------------------------------------------------------|
B-------------------------------------------------------------------|
G--4-----5-4-2------------------------------------------------------|
D--4-x6--5-4-2--pause-for-wailing-lead-axe--------------------------|
A--2-----3-2-0------------------------------------------------------|
E-------------------------------------------------------------------|

e-------------------------------------------------------------------|
B-------------------------------------------------------------------|
G--4-----5-7--------------------------------------------------------|
D--4-x6--5-7---pause-for-wailing-lead-axe---------------------------|
A--2-----3-5--------------------------------------------------------|
E-------------------------------------------------------------------|

e-------------------------------------------------------------------|
B-------------------------------------------------------------------|
G--4-----5-7--2-4---------------------------------------------------|
D--4-x6--5-7--2-4-hold----------------------------------------------|
A--2-----3-5--0-2---------------------------------------------------|
E-------------------------------------------------------------------|

OUTRO
*****
e--0----------------------------------------------------------------|
B--5--play-this-really-fast,-probably-with-some-funky-pedal---------|
G-------other-guitar-plays-E5---------------------------------------|
D-------------------------------------------------------------------|
A-------------------------------------------------------------------|
E-------------------------------------------------------------------|

8.THE NOMAD

riff1
|--------------------------------------------------------|
|--------------------------------------------------------|
|--------------------------------------------------------|
|--------------------------------------------------------|
|----------7h8p7------7-----7---------7h8p7------5-----5-|
|--0-0-0-0--------0-0---0-0---0-0-0-0--------0-0---0-0---|
   .......        ...   ...   .......        ...   ...

|--------------------------------------------------------|
|--------------------------------------------------------|
|--------------------------------------------------------|
|--------------------------------------------------------|
|----------7h8p7------7-----7---------7h8p7--------------|
|--0-0-0-0--------0-0---0-0---0-0-0-0--------0-0-8-0-0-5-|
   .......        ...   ...   .......        ...   ...


|-----------------------------------------------|
|----0---0---0---0---0----------0---0---0---0---|
|--4---4---5---4---2---4------4---4---5---4---2-| 8 times with riff above
|-----------------------------------------------|
|-----------------------------------------------|
|-----------------------------------------------|
|
|----------------------------------|--------------------------------|
|--5th time------------------------|--6th time----------------------|
|----------------------------------|--------------------------------|
|------4----4---4-------4---2---2--|-----4---4---4-------4---5------|
|--2-2-2----2---2---2-2-2---0---0--|-2-2-2---2---2---2-2-2---3---7--|
|----------------------------------|-----------------------------5--|


|----------------------|
|-/12~~~~--------------|
|----------11--12--11--| x2
|----------------------|
|----------------------|
|----------------------|
|
|----------------------|
|----------------------|
|----------------------| x2
|--4-------------------|
|--2-------4---5---4---|
|----------2---3---2---|


Before 1st verse and Chorus(1,2)
|------------------------------------------------|
|--12h13p12----12~~---12h13p12----15-13-12----12-| With riff 1
|-----------14-----------------14----------14----|
|------------------------------------------------|
|------------------------------------------------|
|------------------------------------------------|


 Verses

 H5      F#5   A5
 H5      F#5   D5


 3rd,4th and 5th Chorus

 E5      H5 C5 D5      fill D|-----4-5-7-7-5-4---|
 E5      H5 G5 A5


 This is the cool slow middle part
|------------------------------------------------------------------------|
|------------------------------------------------------------------------|
|----------11-12-11--11--12-12----11-12-----------11-12-11--11--12-12----|
|--14---14------------------------------14---14--------------------------|
|------------------------------------------------------------------------|
|------------------------------------------------------------------------|

|----------------------------------------------------------------------------|
|------------------------------------12--------------------------------------|
|-----------11-12--11-12-14--12-12------12---------11-12--11--11--12---------|
|--/14---14--------------------------------14---14-------------------14------|
|----------------------------------------------------------------------------|
|----------------------------------------------------------------------------|

|--------------------------------------------------------------------------------------|
|-----------------------------------12-------------------------------------------------|
|----------11-12--11-12-14--12-12------12---------11-12--11-12-11--12-11---------------|
|--14---14--------------------------------14---14------------------------14---12-14----|
|-----------------------------------------------------------------------------------14-|
|--------------------------------------------------------------------------------------|

 __________________________4 times__________________________
|                                                           |
|---------------------------|    |--------------------------|
|---------------------------|    |--13-15-13-12-------------|
|-----16-16-16-14-16-16-16--| x3 |--------------14-12-11-12-|
|--14-----------------------|    |--------------------------|
|---------------------------|    |--------------------------|
|---------------------------|    |--------------------------|

|------------------------------------------------------------------------|
|------------------------------------------------------------------------|
|----------11-12--11-12-14--12-12---11-12---------11-12--11-12-11--12----|
|--14---14--------------------------------14---14---------------------14-|
|------------------------------------------------------------------------|
|------------------------------------------------------------------------|

|-------------------------------------------------------------|
|-----------------------------------------12------------------|
|------------11-12--14-12---11-12-14---14----14--12-11--12-12-|
|--14-----14--------------------------------------------------|
|-------------------------------------------------------------|
|-------------------------------------------------------------|
                                                                         _
|--12-12-12-------------------12-12-12--------------------------------|   |
|-----------15-13-12-13-12-------------15-13-12-13-12----------12--13-|   |
|-----------------------------------------------------14-12-14--------|   |
|---------------------------------------------------------------------|   |
|---------------------------------------------------------------------|   |
|---------------------------------------------------------------------|   |
                                                                          | x2
|--12-12-12----------------------------------------|                      |
|-----------15-13-12-13-12----------12-13-12----12-|                      |
|--------------------------14-12-14----------14----|                      |
|--------------------------------------------------|                      |
|--------------------------------------------------|                      |
|--------------------------------------------------|                     _|

|----------------------------------------------------------------------------------------------|
|----------------------------------12----------------------------------------------------------|
|----------11-12--11-12-14--12-12-----12---------11-12--11-12-----16-16-14--16--16-16-16-14-16-|
|--14---14-------------------------------14---14--------------14-------------------------------|
|----------------------------------------------------------------------------------------------|
|----------------------------------------------------------------------------------------------|

 __________________________4 times__________________________
|                                                           |
|---------------------------|    |--------------------------|
|---------------------------|    |--13-15-13-12-------------|
|-----16-16-16-14-16-16-16--| x3 |--------------14-12-11-12-|
|--14-----------------------|    |--------------------------|
|---------------------------|    |--------------------------|
|---------------------------|    |--------------------------|

9.OUT OF THE SILENT PLANET

Intro:

On First Time:


   Guitar 1

E||--12-----10-----------------|---------10------------10----|---------------------10------|
B||-----------------12---------|--10---------12--------------|---12---------10---------12--|
G||------9--------------9--12--|------9----------9--9--------|-------9--12------9----------|
D||----------------------------|-----------------------------|-----------------------------|
A||----------------------------|-----------------------------|-----------------------------|
E||----------------------------|-----------------------------|-----------------------------|

 ||

 ||Guitar 2

E||----------------------------|-----------------------------|-----------------------------|
B||----------------------------|-----------------------------|-----------------------------|
G||----------------------------|-----------------------------|-----------------------------|
D||--2-------------------------|-----------------------------|-----------------------------|
A||--2-------------------------|-----------------------------|-----------------------------|
E||--0-------------------------|-----------------------------|-----------------------------|

 Guitar 1

|--------10-----------------|---------10------------10----|----------------------10------|
|----------------12---------|--10---------12--------------|----12---------10---------12--|
|--9--9--------------9--12--|------9----------9--9--------|--------9--12------9----------|
|---------------------------|-----------------------------|------------------------------|
|---------------------------|-----------------------------|------------------------------|
|---------------------------|-----------------------------|------------------------------|

|

|Guitar 2

|---------------------------|-----------------------------|------------------------------|
|---------------------------|-----------------------------|------------------------------|
|---------------------------|-----------------------------|------------------------------|
|--14--12-------------------|-----------------------------|------------------------------|
|--12--10-------------------|-----------------------------|------------------------------|
|---------------------------|-----------------------------|------------------------------|


Then:


   Guitar 1

|---------10-----------------|---------10------------10----|---------------------10------|
|-----------------12---------|--10---------12--------------|---12---------10---------12--|
|---9--9--------------9--12--|------9----------9--9--------|-------9--12------9----------|
|----------------------------|-----------------------------|-----------------------------|
|----------------------------|-----------------------------|-----------------------------|
|----------------------------|-----------------------------|-----------------------------|

|

|Guitar 2

|----------------------------|-----------------------------|-----------------------------|
|----------------------------|-----------------------------|-----------------------------|
|----------------------------|-----------------------------|-----------------------------|
|--2-------------------------|-----------------------------|-----------------------------|
|--2-------------------------|-----------------------------|-----------------------------|
|--0-------------------------|-----------------------------|-----------------------------|

 Guitar 1

|--------10-----------------|---------10------------10----|----------------------10------|
|----------------12---------|--10---------12--------------|----12---------10---------12--|
|--9--9--------------9--12--|------9----------9--9--------|--------9--12------9----------|
|---------------------------|-----------------------------|------------------------------|
|---------------------------|-----------------------------|------------------------------|
|---------------------------|-----------------------------|------------------------------|

|

|Guitar 2

|---------------------------|-----------------------------|------------------------------|
|---------------------------|-----------------------------|------------------------------|
|---------------------------|-----------------------------|------------------------------|
|--14--12-------------------|-----------------------------|------------------------------|
|--12--10-------------------|-----------------------------|------------------------------|
|---------------------------|-----------------------------|------------------------------|


On Last Time:


 Guitar 1

|---------10-----------------|---------10------------10----|---------------------10------|
|-----------------12---------|--10---------12--------------|---12---------10---------12--|
|---9--9--------------9--12--|------9----------9--9--------|-------9--12------9----------|
|----------------------------|-----------------------------|-----------------------------|
|----------------------------|-----------------------------|-----------------------------|
|----------------------------|-----------------------------|-----------------------------|

|

|Guitar 2

|----------------------------|-----------------------------|-----------------------------|
|----------------------------|-----------------------------|-----------------------------|
|----------------------------|-----------------------------|-----------------------------|
|--2-------------------------|-----------------------------|-----------------------------|
|--2-------------------------|-----------------------------|-----------------------------|
|--0-------------------------|-----------------------------|-----------------------------|

 Guitar 1

|--------10-----------------|---------10------------10----|----------------------10------|
|----------------12---------|--10---------12--------------|----12---------10---------12--|
|--9--9--------------9--12--|------9----------9--9--------|--------9--12------9----------|
|---------------------------|-----------------------------|------------------------------|
|---------------------------|-----------------------------|------------------------------|
|---------------------------|-----------------------------|------------------------------|

|

|Guitar 2

|---------------------------|-----------------------------|------------------------------|
|---------------------------|-----------------------------|------------------------------|
|---------------------------|-----------------------------|------------------------------|
|--14--17-------------------|----------------14-----------|------------------------------|
|--12--15-------------------|----------------12-----------|------------------------------|
|---------------------------|-----------------------------|------------------------------|


Acoustic Intro Part:


First:


|-------------------------|------------------------|------------------------|
|-------------------------|------------------------|------------------------|
|---9----9--9----9--9--9--|--5----5--5----5--5--5--|------------------------|
|---9----9--9----9--9--9--|--5----5--5----5--5--5--|--5----5--5----5--5--5--|
|---7----7--7----7--7--7--|--3----3--3----3--3--3--|--5----5--5----5--5--5--|
|-------------------------|------------------------|--3----3--3----3--3--3--|

|-------------------------|
|-------------------------|
|--7----7--7----7--7--7---|
|--7----7--7----7--7--7---|
|--5----5--5----5--5--5---|
|-------------------------|


On 3rd Time

 Guitar 1

|-------------------------|------------------------|------------------------|
|-------------------------|------------------------|------------------------|
|---9----9--9----9--9--9--|--5----5--5----5--5--5--|------------------------|
|---9----9--9----9--9--9--|--5----5--5----5--5--5--|--5----5--5----5--5--5--|
|---7----7--7----7--7--7--|--3----3--3----3--3--3--|--5----5--5----5--5--5--|
|-------------------------|------------------------|--3----3--3----3--3--3--|

|

|Guitar 2

|-------------------------|------------------------|------------------------|
|--10r---8--10----10r-----|--10--8-----------------|--10r---8--10----8------|
|-------------------------|------------------------|------------------------|
|-------------------------|------------------------|------------------------|
|-------------------------|------------------------|------------------------|
|-------------------------|------------------------|------------------------|


 Guitar 1

|---------------------------|
|---------------------------|
|--7-----7--7-----7--7--7---|
|--7-----7--7-----7--7--7---|
|--5-----5--5-----5--5--5---|
|---------------------------|

|

|Guitar 2

|---------------------------|
|--10--8--10r---10p-8-------|
|----------------------9----|
|---------------------------|
|---------------------------|
|---------------------------|


On 4th Time Guitar 3 Enters Like Guitar 1


Intro Ending:


Play 4x


|------------------------------|
|------------------------------|
|---9-9-9-9-9----9-9-9-9-9-----|
|---9-9-9-9-9----9-9-9-9-9-----|
|---7-7-7-7-7----7-7-7-7-7-----|
|------------------------------|


Verse:

|-------------------|--7----------------|-------------------|-------------------|
|-------------------|--7----------------|-------------------|-------------------|
|--9----------------|--9----------------|--5----------------|--7----------------|
|--9----------------|--9----------------|--5----------------|--7----------------|
|--7----------------|--7----------------|--3----------------|--5----------------|
|--0----------------|-------------------|-------------------|-------------------|


Bridge:

 Guitar 1

|-------------------|-------------------|-------------------|-------------------|
|-------------------|-------------------|-------------------|-------------------|
|--2----------------|--5----------------|-------------------|-------------------|
|--2----------------|--5----------------|--2----------------|--2----------------|
|--0----------------|--3----------------|--2----------------|--2----------------|
|-------------------|-------------------|--0----------------|--0----------------|

|

|Guitar 2

|-------------------|-------------------|-------------------|-------------------|
|-------------------|-------------------|-------------------|-------------------|
|-------------------|-------------------|-------------------|-------------------|
|-------------------|-------------------|-------------------|--7r---7p-5\---4---|
|-------------------|-------------------|-------------------|-------------------|
|-------------------|-------------------|-------------------|-------------------|

 Guitar 1

|-------------------|-------------------|-------------------|-------------------|
|-------------------|-------------------|-------------------|-------------------|
|--2----------------|--5----------------|--7----------------|--7----------------|
|--2----------------|--5----------------|--7----------------|--7----------------|
|--0----------------|--3----------------|--5----------------|--5----------------|
|-------------------|-------------------|-------------------|-------------------|

|

|Guitar 2

|-------------------|-------------------|-------------------|-------------------|
|-------------------|-------------------|-------------------|-------------------|
|-------------------|-------------------|-------------------|--x\---------------|
|-------------------|-------------------|-------------------|--x\---------------|
|-------------------|-------------------|-------------------|--x\---------------|
|-------------------|-------------------|-------------------|-------------------|


Chorus:


|-------------------|-------------------|-------------------|-------------------|
|-------------------|-------------------|-------------------|-------------------|
|--9----------------|--5----------------|-------------------|--7----------------|
|--9----------------|--5----------------|--5----------------|--7----------------|
|--7----------------|--3----------------|--5----------------|--5----------------|
|-------------------|-------------------|--3----------------|-------------------|

Chorus After 2nd Vers:


|------------------------------|------------------------------|
|------------------------------|------------------------------|
|--9--9-9-9--9-9-9--9-9-9--9-9-|--5--5-5-5--5-5-5--5-5-5--5-5-|
|--9--9-9-9--9-9-9--9-9-9--9-9-|--5--5-5-5--5-5-5--5-5-5--5-5-|
|--7--7-7-7--7-7-7--7-7-7--7-7-|--3--3-3-3--3-3-3--3-3-3--3-3-|
|------------------------------|------------------------------|

|------------------------------|------------------------------|
|------------------------------|------------------------------|
|------------------------------|--7--7-7-7--7-7-7--7-7-7--7-7-|
|--5--5-5-5--5-5-5--5-5-5--5-5-|--7--7-7-7--7-7-7--7-7-7--7-7-|
|--5--5-5-5--5-5-5--5-5-5--5-5-|--5--5-5-5--5-5-5--5-5-5--5-5-|
|--3--3-3-3--3-3-3--3-3-3--3-3-|------------------------------|


On 3rd Time:


 Guitar 1

|------------------------------|------------------------------|
|------------------------------|------------------------------|
|--9--9-9-9--9-9-9--9-9-9--9-9-|--5--5-5-5--5-5-5--5-5-5--5-5-|
|--9--9-9-9--9-9-9--9-9-9--9-9-|--5--5-5-5--5-5-5--5-5-5--5-5-|
|--7--7-7-7--7-7-7--7-7-7--7-7-|--3--3-3-3--3-3-3--3-3-3--3-3-|
|------------------------------|------------------------------|

|

|Guitar 2

|------------------------------|------------------------------|
|------------------------------|------------------------------|
|------------------------------|------------------------------|
|------------------------------|------------------------------|
|------------------------------|--3---------------------------|
|--0-------------2------3------|------------------------------|

 Guitar 1

|------------------------------|------------------------------|
|------------------------------|------------------------------|
|------------------------------|--7--7-7-7--7-7-7--7-7-7--7-7-|
|--5--5-5-5--5-5-5--5-5-5--5-5-|--7--7-7-7--7-7-7--7-7-7--7-7-|
|--5--5-5-5--5-5-5--5-5-5--5-5-|--5--5-5-5--5-5-5--5-5-5--5-5-|
|--3--3-3-3--3-3-3--3-3-3--3-3-|------------------------------|

|

|Guitar 2

|------------------------------|------------------------------|
|------------------------------|------------------------------|
|------------------------------|------------------------------|
|------------------------------|------------------------------|
|--5-------------3------2------|------------------------------|
|------------------------------|--5-------------3-----2-------|


On 5th Time:


 Guitar 1

|------------------------------|------------------------------|
|------------------------------|------------------------------|
|--9--9-9-9--9-9-9--9-9-9--9-9-|--5--5-5-5--5-5-5--5-5-5--5-5-|
|--9--9-9-9--9-9-9--9-9-9--9-9-|--5--5-5-5--5-5-5--5-5-5--5-5-|
|--7--7-7-7--7-7-7--7-7-7--7-7-|--3--3-3-3--3-3-3--3-3-3--3-3-|
|------------------------------|------------------------------|

|

|Guitar 2

|------------------------------|------------------------------|
|--10r---8--10----10r----------|--10--8-----------------------|
|------------------------------|------------------------------|
|------------------------------|------------------------------|
|------------------------------|------------------------------|
|------------------------------|------------------------------|

|

|Guitar 3

|------------------------------|------------------------------|
|------------------------------|------------------------------|
|------------------------------|------------------------------|
|--7r---5--7----7r-------------|--7--5------------------------|
|------------------------------|------------------------------|
|------------------------------|------------------------------|

 Guitar 1

|------------------------------|------------------------------|
|------------------------------|------------------------------|
|------------------------------|--7--7-7-7--7-7-7--7-7-7--7-7-|
|--5--5-5-5--5-5-5--5-5-5--5-5-|--7--7-7-7--7-7-7--7-7-7--7-7-|
|--5--5-5-5--5-5-5--5-5-5--5-5-|--5--5-5-5--5-5-5--5-5-5--5-5-|
|--3--3-3-3--3-3-3--3-3-3--3-3-|------------------------------|

|

|Guitar 2

|------------------------------|------------------------------|
|--10r---8--10----8------------|--10--8--10r---10p-8----------|
|------------------------------|----------------------9-------|
|------------------------------|------------------------------|
|------------------------------|------------------------------|
|------------------------------|------------------------------|

|

|Guitar 3

|------------------------------|------------------------------|
|------------------------------|------------------------------|
|------------------------------|------------------------------|
|--7r---5--7----5--------------|--7--5--7r---7p-5-------------|
|------------------------------|-------------------7----------|
|------------------------------|------------------------------|

Solo Ryhthm:

|------------------------|
|------------------------|
|------------------------|
|---------------------5--|
|--7----5--7----5--7-----|
|------------------------|

Interlude:


 Guitar 1

|------------------------------|--------------------------|
|------------------------------|--------------------------|
|--5---------------------------|--7-----------------------|
|--5---------------------------|--7-----------------------|
|--3---------------------------|--5-----------------------|
|------------------------------|--------------------------|

|

|Guitar 2

|------------------------------|--------------------------|
|------------------------------|--------------------------|
|------------------------------|--12--------14r---14--12--|
|------------------12----14----|--------------------------|
|--15--------15----------------|--------------------------|
|------------------------------|--------------------------|

 Guitar 1

|--------------------|--------------------------------|
|--------------------|--------------------------------|
|--9-----------------|--9-----------------------------|
|--9-----------------|--9-----------------------------|
|--7-----------------|--7-----------------------------|
|--------------------|--------------------------------|

|

|Guitar 2

|--------------------|--------------------------------|
|--------------------|--------------------------------|
|--11----------------|--14r-------14--------12--------|
|--------------------|--------------------------------|
|--------------------|--------------------------------|
|--------------------|--------------------------------|


 Guitar 1

|------------------------------|--------------------------|
|------------------------------|--------------------------|
|--5---------------------------|--7-----------------------|
|--5---------------------------|--7-----------------------|
|--3---------------------------|--5-----------------------|
|------------------------------|--------------------------|

|

|Guitar 2

|------------------------------|--------------------------|
|------------------------------|--------------------------|
|------------------------------|--12--------14r---14--12--|
|------------------12----14----|--------------------------|
|--15--------15----------------|--------------------------|
|------------------------------|--------------------------|

 Guitar 1

|--------------------|--------------------------------|
|--------------------|--------------------------------|
|--9-----------------|--9-----------------------------|
|--9-----------------|--9-----------------------------|
|--7-----------------|--7-----------------------------|
|--------------------|--------------------------------|

|

|Guitar 2

|--------------------|--------------------------------|
|--------------------|--------------------------------|
|--11----------------|--12--------11------------------|
|--------------------|----------------------12--------|
|--------------------|--------------------------------|
|--------------------|--------------------------------|

 Guitar 1

|------------------------------|--------------------------|
|------------------------------|--------------------------|
|--5---------------------------|--7-----------------------|
|--5---------------------------|--7-----------------------|
|--3---------------------------|--5-----------------------|
|------------------------------|--------------------------|

|

|Guitar 2

|------------------------------|--------------------------|
|------------------------------|--------------------------|
|------------------------------|--12--------14r---14--12--|
|------------------12----14----|--------------------------|
|--15--------15----------------|--------------------------|
|------------------------------|--------------------------|


 Guitar 1

|--------------------|--------------------------------|
|--------------------|--------------------------------|
|--9-----------------|--9-----------------------------|
|--9-----------------|--9-----------------------------|
|--7-----------------|--7-----------------------------|
|--------------------|--------------------------------|

|

|Guitar 2

|--------------------|--------------------------------|
|--------------------|--15b-------15--------12--------|
|--11----------------|--------------------------------|
|--------------------|--------------------------------|
|--------------------|--------------------------------|
|--------------------|--------------------------------|


 Guitar 1

|------------------------------|--------------------------|
|------------------------------|--------------------------|
|--5---------------------------|--7-----------------------|
|--5---------------------------|--7-----------------------|
|--3---------------------------|--5-----------------------|
|------------------------------|--------------------------|

|

|Guitar 2

|------------------------------|--------------------------|
|------------------------------|--------------------------|
|------------------------------|--12--------14r---14--12--|
|------------------12----14----|--------------------------|
|--15--------15----------------|--------------------------|
|------------------------------|--------------------------|


 Guitar 1

|--------------------|----------------------|
|--------------------|----------------------|
|--9-----------------|--5----------7--------|
|--9-----------------|--5----------7--------|
|--7-----------------|--3----------5--------|
|--------------------|----------------------|

|

|--------------------|----------------------|
|--------------------|----------------------|
|--11----------------|--12--------14--------|
|--------------------|----------------------|
|--------------------|----------------------|
|--------------------|----------------------|


Chorus:

Use This Rhyhthm For Guitar 1 At The End Of The Last Chorus:


|-----------------------|-----------------------|-----------------------|
|-----------------------|-----------------------|-----------------------|
|--9--9--9--9--9--------|--5--5--5--5--5--------|-----------------------|
|--9--9--9--9--9--------|--5--5--5--5--5--------|--5--5--5--5--5--------|
|--7--7--7--7--7--------|--3--3--3--3--3--------|--5--5--5--5--5--------|
|-----------------------|-----------------------|--3--3--3--3--3--------|

|-----------------------|
|-----------------------|
|--7--7--7--7--7--------|
|--7--7--7--7--7--------|
|--5--5--5--5--5--------|
|-----------------------|


On Last Time Play This:


|-----------------------|-----------------------|-----------------------|
|-----------------------|-----------------------|-----------------------|
|--9--9--9--9--9--------|--5--5--5--5--5--------|-----------------------|
|--9--9--9--9--9--------|--5--5--5--5--5--------|--5--5--5--5--5--------|
|--7--7--7--7--7--------|--3--3--3--3--3--------|--5--5--5--5--5--------|
|-----------------------|-----------------------|--3--3--3--3--3--------|

|-----------------------|-----------------------|
|-----------------------|-----------------------|
|--7--------------------|-----------------------|
|--7--------------------|-----------------------|
|--5--------------------|-----------------------|
|-----------------------|-----------------------|


Outro:

 Guitar 1
|--12-----10------10-------------|---------10------12-----10----|----------------------10------|
|-------------12------12---------|--10---------12---------------|----12---------10---------12--|
|------9------------------9--12--|------9--------------9--------|--------9--12------9----------|
|--------------------------------|------------------------------|------------------------------|
|--------------------------------|------------------------------|------------------------------|
|--------------------------------|------------------------------|------------------------------|


|Guitar 2

|--------------------------------|------------------------------|------------------------------|
|--------------------------------|------------------------------|------------------------------|
|--------------------------------|------------------------------|------------------------------|
|--2-----------------------------|------------------------------|------------------------------|
|--2-----------------------------|------------------------------|------------------------------|
|--0-----------------------------|------------------------------|------------------------------|


|-12-----10-----------------|---------10-----12-----10----|----------------------10------|
|----------------12---------|--10---------12--------------|----12---------10---------12--|
|-----9--------------9--12--|------9-------------9--------|--------9--12------9----------|
|---------------------------|-----------------------------|------------------------------|
|---------------------------|-----------------------------|------------------------------|
|---------------------------|-----------------------------|------------------------------|


|Guitar 2

|---------------------------|-----------------------------|------------------------------|
|---------------------------|-----------------------------|------------------------------|
|---------------------------|-----------------------------|------------------------------|
|---------------------------|-----------------------------|------------------------------|
|---------------------------|-----------------------------|------------------------------|
|---------------------------|-----------------------------|------------------------------|

10.THE THIN LINE BETWEEN LOVE AND HATE

Intro
                                                              gtr.1
|------------------------------------------------------------------|
|------------------------------------------------------------------|
|------------------------------------------------------------------|
|------------------------------------------------------------------|
|-----4-4-----2-2-----4-4--------------2-2-----0-0-----2-2---------|
|-2-2-----5-5-----2-2-----5-5-4-4--0-0-----3-3-----0-0-----3-3-2-2-|
|pm...............................................................
| F#5                              E5                         gtr.2
|------------------------------------------------------------------|
|------------------------------------------------------------------|
|------------------------------------------------------------------|
|-4---------------------------------2------------------------------|
|-4---------------------------------2------------------------------|
|-2---------------------------------0------------------------------|

                                                                    gtr.1
|------------------------------------------------------------------------|
|------------------------------------------------------------------------|
|------------------------------------------------------------------------|
|------------------------------------------------------------------------|
|-----9-9-------7-7-----9-9---------------5-5-----5-5-----7-7-----9-9----|
|-7-7-----10-10-----7-7----10-10-9-9--3-3-----3-3-----5-5-----7-7--------|
|pm....................................................................
| B5                                 G5               A5      B5    gtr.2
|------------------------------------------------------------------------|
|------------------------------------------------------------------------|
|-4----------------------------------------------------------------------|
|-4-----------------------------------5----------------7-------9---------|
|-2-----------------------------------5----------------7-------9---------|
|-------------------------------------3----------------5-------7---------|

Pre-Verse (I'm not so sure about the strumming pattern)
  F#5                      G5 E5  B5                     C5 A5
|-------------------------------x2------------------------------|
|---------------------------------------------------------------|
|---------------------------------------------------------------|
|-------------------------------2h4-4-4-4-4-4-4-4-4-4-4-4/5-2---|
|-2h4-4-4-4-4-4-4-4-4-4-4-4/5-2-2-2-2-2-2-2-2-2-2-2-2-2-2/3-0---|
|-2-2-2-2-2-2-2-2-2-2-2-2-2/3-0---------------------------------|
pm    .   . .     . .   . .          .   . .     . .   . .

Verse (Not so sure about the strumming pattern here either)
 F#5            B5               D5 A5 E5
|--------------x3-------------|-----------------|
|-----------------------------|-----------------|
|-----------------------------|-----------------|
|---------------4-4-4-4-4-4-4-|--7--------------|X2
|-4-4-4-4-4-4-4-2-2-2-2-2-2-2-|--5---7--2-2-2-2-|
|-2-2-2-2-2-2-2---------------|------5--0-0-0-0-|
pm  . .   . .   . . .   . .               . . .

Chorus
[There's a thin line between lova and hate...]
                                                         gtr.1
|-5-5-5-5-5-5-5-5-5-5-5-5-5-5-5-5-5-5-5-5-5-5-5-5-5-5-5-5-5-5-|
|-5-5-5-5-5-5-5-5-5-5-5-5-5-5-5-5-5-5-5-5-5-5-5-5-5-5-5-5-5-5-|
|-------------------------------------------------------------|
|-------------------------------------------------------------|
|-------------------------------------------------------------|
|-------------------------------------------------------------|
|
| F#5          D5             A5             E5          gtr.2
|-------------------------------------------------------------|
|-------------------------------------------------------------|
|--------------7-7-7-7-7-7-7----------------------------------|
|-4-4-4-4-4-4--7-7-7-7-7-7-7--7-7-7-7-7-7-7--2-2-2-2-2-2-2-2--|
|-4-4-4-4-4-4--5-5-5-5-5-5-5--7-7-7-7-7-7-7--2-2-2-2-2-2-2-2--|
|-2-2-2-2-2-2-----------------5-5-5-5-5-5-5--0-0-0-0-0-0-0-0--|
pm  . .   . .    . .   . .      . .   . .      . .   . .

Bridge (pretty much the same as the chorus, but without the dubble-stopps)
[I will hope, my soul will fly....]
 F#5           D5             A5             E5
|-------------------------------------------------------------|
|-------------------------------------------------------------|
|--------------7-7-7-7-7-7-7----------------------------------|
|-4-4-4-4-4-4--7-7-7-7-7-7-7--7-7-7-7-7-7-7--2-2-2-2-2-2-2-2--|
|-4-4-4-4-4-4--5-5-5-5-5-5-5--7-7-7-7-7-7-7--2-2-2-2-2-2-2-2--|
|-2-2-2-2-2-2-----------------5-5-5-5-5-5-5--0-0-0-0-0-0-0-0--|


Outro 1 (clean sound)
    F#5    E5  gtr.1
|----------------|
|----------------|
|----------------|
|----4------2----|
|--4-4----2-2----|
|-2--2---0--0----|
|
|              gtr.2
|----------------|
|----------------|
|------11------9-|
|---11-11----9-9-|
|-9-----9--7---7-|
|----------------|


Outro 2
                                gtr.1[dist.]
|----------------------------------|
|----------------------------------|
|----------------------------------|
|-4---------------2----------------|
|-4---------------2----------------|
|-2---------------0----------------|
|
|                               gtr.2[dist.]
|----------------------------------|
|----------------------------------|
|----------------------------------|
|----------------------------------|
|-----4---------4-----2---------2--|
|-2-2---2-2-2-2---0-0---0-0-0-0----|
|pm..   .......   ...   .......
|                              gtr.3[clean]
|----------------------------------|
|----------------------------------|
|----------------------------------|
|----4------------------------2----|
|--4-4----------------------2-2----|
|-2--2---------------------0--0----|


Solo Interlude
                                                                                    gtr.1
|-17-17-17-17/16-16-16-16/14-14-14h16p14----19-19-19-19/17-17-17-17/16-16-16-16h17p16---|
|----------------------------------------15------------------------------------------15-|
|---------------------------------------------------------------------------------------|
|---------------------------------------------------------------------------------------|
|---------------------------------------------------------------------------------------|
|---------------------------------------------------------------------------------------|
|                                                                                   gtr.2
|--------------------------------------------------------------------------------------|
|--------------------------------------------------------------------------------------|
|--------------------------------------------------------------------------------------|
|-7--7--7--7/-6--6--6--6-/4--4--4h6p6----9--9--9--9/-7--7--7--7/-6--6--6--6h7p6--------|
|--------------------------------------7----------------------------------------7------|
|--------------------------------------------------------------------------------------|
comments
print report bad tab
4 comments total. Showing first comments.
0 reply
KitaraNiko69 wrote on December 30 2005, 08:08 am

ggod

0 reply
Lensver wrote on February 7 2006, 11:14 am

My god... Ghost of the Navigator is WAY OFF! What the hell is that?

0 reply
METSOAD wrote on March 2 2006, 03:10 pm

there is only one thing, in Out of the silent planet the heavy verse has either a full e minor chord as opposed to an Esus 2 chord or you can play just the G and B on strings 1+2 to create a mini g chord, otherwise far more accurate than i could ever do, you are a tabbing god

I want to post or [tab]
guest
You may want to rate the tab now too:
select rating
Please do not post tabs as comments. Select "correction" instead!