Oops, an error
Loading. Please wait.

Can I Play With Madness Tab

ver1
ver1
More versions @911Tabs.com
18,632 views 18 this week
1 commentread comment
1 2 3 4 5
worth learning
x 6
Autoscroll
+/-
esc
set tempo
stop
Contributor
Hey! There's an official Ultimate Guitar app which is ideal
for learning songs when you're away from computer. Get the app
WARNING: You are trying to view
                                    content from Ultimate-Guitar.com
                                    in an unauthorized application,
                                    which is prohibited.

                                    Please use an official Ultimate
                                    Guitar Tabs application for iPhone,
                                    iPad or Android to access legitimate
                                    chords, guitar, bass, and drum tabs
                                    from Ultimate-Guitar.com database.

                                    Type "ultimate guitar tabs" in Apple
                                    App Store's or Android Market's
                                    search to find the application.
Band- Iron Maiden
Album- Can I Play With Madness

1.CAN I PLAY WITH MADNESS

Riff 1:
E------------------------------|
B------------------------------|
G------------------------------|
D--7---------------------------|
A--5--5-5-5-5-5-5-5-5-5-5-5-5--|
E------------------------------|

E----------------|-----------------|
B----------------|-----------------|
G-------------7--|-----------------|
D--7----------5--|--5-5-5-5--------|
A--3--3-3-3-3----|----------5------|
E----------------|----------3------|

E--3--2--3--2--3--|
B--3--3--3--3--3--|
G-----------------|
D-----------------|
A-----------------|
E-----------------|

End of riff 1.

Verse:
     Give me the sense to...
E------------------------------|
B------------------------------|
G------------------------------|
D--7---------------------------|
A--5--5-5-5-5-5-5-5-5-5-5-5-5--|
E------------------------------|

..wonder                   to...
E------------------------------|
B------------------------------|
G------------------------------|
D--7---------------------------|
A--3--3-3-3-3-3-3-3-3-3-3-3-3--|
E------------------------------|

..wonder if I'm free
E---------------------|--3--2--3--2--3--|
B---------------------|--3--3--3--3--3--|
G---------------------|-----------------|
D---------------------|-----------------|
A--5------------------|-----------------|
E--3--3-3-3-3-3-3-3-3-|-----------------|

On the fourth time of verse:
Don't need no key to un-...
E------------------------------|
B------------------------------|
G------------------------------|
D--7---------------------------|
A--5--5-5-5-5-5-5-5-5-5-5-5-5--|
E------------------------------|

..-lock this door        gonna..
E------------------------------|
B------------------------------|
G------------------------------|
D--7---------------------------|
A--3--3-3-3-3-3-3-3-3-3-3-3-3--|
E------------------------------|

..break down the walls break out of this bad place
E---------------------|------------------------|
B---------------------|--3-------3-------3-----|
G---------------------|--2---2---2---2---2--2--|
D---------------------|--0---2---0---2---0--2--|
A--5------------------|------0-------0------0--|
E--3--3-3-3-3-3-3-3-3-|------------------------|

Chorus:
  Can I play with madness, the prophet..
E----------------|----------------|
B----------------|----------------|
G--4-------------|----------------|
D--4-------------|--5-------------|
A--2--2-2-2-2-2--|--5-------------|
E----------------|--3--3-3-3-3-3--|
..stared at his crystal ball
E----------------|------------------|
B--3-------------|-------3-2--------|
G--2-------------|--2--2-----4-2----|
D--0--0-0-0-0-0--|--2------------4--|
A----------------|--0---------------|
E----------------|------------------|

Can I play with madness, there's no..
E----------------|----------------|
B----------------|----------------|
G--4-------------|----------------|
D--4-------------|--5-------------|
A--2--2-2-2-2-2--|--5-------------|
E----------------|--3--3-3-3-3-3--|
..vision there at all
E----------------|------------------|
B----------------|------------------|
G----------------|---------0-2-4-2--|
D--2-------------|--2--2-4----------|
A--2-------------|------------------|
E--0--0-0-0-0-0--|------------------|

Can I play with madness, the prophet..
E----------------|----------------|
B----------------|----------------|
G--2-------------|----------------|
D----------------|--5-------------|
A-----2-2-2-2-2--|--5-------------|
E----------------|--3--3-3-3-3-3--|
..looked and he laughed at me
E----------------|------------------|
B--3-------------|-------3-2--------|
G--2-------------|--2--2-----4-2----|
D--0--0-0-0-0-0--|--2------------4--|
A----------------|--0---------------|
E----------------|------------------|

Can I play with madness, he said you're..
E----------------|----------------|
B----------------|----------------|
G--2-------------|----------------|
D----------------|--5-------------|
A-----2-2-2-2-2--|--5-------------|
E----------------|--3--3-3-3-3-3--|

..too blimd to see
E------------------------|
B--3-------3-------3-----|
G--2---2---2---2---2--2--|
D--0---2---0---2---0--2--|
A------0-------0------0--|
E------------------------|

End of chorus.

Riff 2:
E-------------------|-----------------------|
B-------------------|-----------------------|
G-------------------|-----------------------|
D----------------5--|----------------5---7--|
A--7---7-7-7-5------|--7---7-7-7-5----------|
E--------------7----|--------------7--------|

Riff 3:
E-------------------|-----------------------|
B-------------------|-----------------------|
G----------------3--|----------------3---5--|
D--5---5-5-5-4------|--5---5-5-5-4----------|
A--------------5----|--------------5--------|
E-------------------|-----------------------|

Solo-riff:
E-------------------|-----------------------|
B-------------------|-----------------------|
G-------------------|-----------------------|
D-------------------|-----------------------|
A--7---7-7-7-5---5--|--7---7-7-7-5---5---7--|
E--------------7-3--|--------------7-3---5--|

Bridge before last chorus:
E-------------------------|-----------------------|
B-------------------------|-----------------------|
G------------3-5-6-3-5-3--|--------3--------------|
D----------5--------------|--------3--------------|
A---5--5------------------|--5--5--1--------------|
E---3--3------------------|--3--3-----------------|

E---------------------|------------------------|
B---------------------|--3-------3-------3-----|
G---------------------|--2---2---2---2---2--2--|
D---------------------|--0---2---0---2---0--2--|
A--5--5--(Plectrum-)--|------0-------0------0--|
E--3--3--(scratch)----|------------------------|

2.BLACK BART BLUES

 FILL               A5
|------------------|----------------------------------------------------------|
|------------------|----------------------------------------------------------|
|------------------|--2-------------------------------------------------------|
|--2--0--2--2--0---|--2-------------------------------------------------------|
|------------------|--0--0--2--0--3--0--3--0--3--3----------------------------|
|------------------|----------------------------------------------------------|

   C5  B5
|----------|
|----------|
|--5---4---|
|--5---4---|
|--3---2---|
|----------|

   CODA                       WHAT DID YOU DO THAT FOR?....
|------------------------|
|------------------------|
|------------------------|
|------------------------|
|--2--0--2--0--5--4--2---|
|------------------------|

     G5     F#5
|--------------|
|--------------|
|--------------|
|---5-------4--|
|---5-------4--|
|---3-------2--|

3.MASSACRE

INTRO

|--10--8--7----------------10--8--7-----------7----|---------------------------|
|-----------8--8--8--7--8------------8--8--8-----7-|---------------------------|
|--------------------------------------------------|---------------------------|
|--------------------------------------------------|---------------------------|
|--------------------------------------------------|---------------------------|
|--------------------------------------------------|---------------------------|

|------------------------------------------------------------------------------|
|--5--5--5--5--8--5---5--5--5--5-----5--5--5--5--5---7--5----------------------|
|---------------------------------7--------------------------------------------|
|------------------------------------------------------------------------------|
|------------------------------------------------------------------------------|
|------------------------------------------------------------------------------|

____________________ ________________________
|1.                  |2.
|--------------------|---------------------------------------------------------|
|--------------------|--10^10--8--10--8----------------------------------------|
|--4--4--4--4--7--4--|-------------------7-------------------------------------|
|--------------------|---------------------------------------------------------|
|--------------------|---------------------------------------------------------|
|--------------------|---------------------------------------------------------|


OTRA MANERA DE TODAR EL RIFF:

                                   _________ ___________________
                                   |1.       |2.
|--0--0--0--0--3--0--0-----0--0--3-|---------|--5^5--3--5--3------------------|
|-----------------------3----------|-0--3--0-|----------------3---------------|
|----------------------------------|---------|--------------------------------|
|----------------------------------|---------|--------------------------------|
|----------------------------------|---------|--------------------------------|
|----------------------------------|---------|--------------------------------|


|------------------------------------------------------------------------------|
|--5--5--5--5--8--5---5--5--5--5-----5-----------------------------------------|
|---------------------------------7--------------------------------------------|
|------------------------------------------------------------------------------|
|------------------------------------------------------------------------------|
|------------------------------------------------------------------------------|

4.THE EVIL THAT MEN DO

INTRO
    -----------------------------------------------------------------5b-3------|
 T  -----------------------------------------------------------3h5p3-----------|
 A  ---0---4-2-0-2-4-----0---4-2-0-2-4-------0---4-2-0-2-4-2-------------------|
 B  -2---2-------------2---2-----------2---2---2-------------------------------|
    ---------------------------------------------------------------------------|
    ---------------------------------------------------------------------------|

								...1,2,3,4...
    ---------------------------------------------------------------------------|
    ---------------------------------------------------------------------------|
    ---0---4-2-0-2-4-------0---4-2-0-2-4-----0---4-2-0-2-4---------------------|
    -2---2-----------2---2---2-------------2---2------------2------------------|
    ---------------------------------------------------------------------------|
    ---------------------------------------------------------------------------|


							(START VOCALS)
    /..........TWICE................................/  & /TWICE................
    ---------------------------------------------------------------------------|
    ---------------------------------------------------------------------------|
    -------------------------------------------------------/7times/------------|
    -9--7--12--9--5--12--5--------5--12--11-12-11--9-----9--------------5------|
    -7--5--10--7--5--10--3--3--3--3--10--9--10--9--7-----7--7-7-7---7-7-3------|
    --------------------------------------------------------\_3_/---\_3_/------|
			   /p.m./ 			   /p.m........../


    .........................../ /....twice....................................
    ---------------------------------------------------------------------------|
    ---------------------------------------------------------------------------|
    /3times/------------------------/3times/------/3times/------/3times/-------|
    --------------12-11-12-11-9---9-------------5---------/ 3 \--/ 3 \---------|
    -3-3-3----3-3-10--9-10--9-7---7--7-7-7--7-7-3--3-3-3--3-3-5----------------|
    -\_3_/----\_3__/-----------------\_3_/--\_3_/--\_3_/------3--3-3-3---------|
    /p.m........./		    /p.m....../    /p.m...../	/p.m./


    ............./ (no vocs. here)	    ** (pre-chorus...)
    --------------------------------------|----------------------|
    --------------------------------------|----------------------|
    --------------------5--4-2-------2----|-----0---4-2-0-2-4----|
    ---------------5-----------5-4-5------|---2---2-----------2--|
    ----------0-2--3-------------------3--|----------------------|
    -3-3--2-3-----------------------------|----------------------|
    /p.m/


    					    /2nd. & 3rd. time skip to @
    ------------------------------------------------------------|
    ----------------------------------------------0-1-3-5-5b----|
    ---0---4-2-0-2-0-------0---4-2-0-2-4------0-2---------------|
    -2---2-----------4---2---2-----------2----------------------|
    ------------------------------------------------------------|
    ------------------------------------------------------------|


								@
    ---------------------------------------------------------------------------|
    ------------------------------------------------------------------0-1-3----|
    ---0---4-2-0-2-4-------0---4-2-0-2-0-------0---4-2-0-2-4------0-2----------|
    -2---2-----------2---2---2-----------4---2---2-----------2--4--------------|
    ---------------------------------------------------------------------------|
    ---------------------------------------------------------------------------|


    \CHORUS;......twice.............\ 1. to &\ 2. .....................
    /twice.../       \twice.........\             \twice..............\
    ---------------------------------------------------------------------------|
    ---------------------------------------------------------------------------|
    -------------------------------------------4-------------------------4--4--|
    -9-9-9-9---5--7---9-9-9-9---5--2-----------2---2--4h5p4h5p4h5p4-0-2--2--2--|
    -7-7-7-7---3--5---7-7-7-7---3--0-------------------------------------------|
    ---------------------------------------------------------------------------|
    (ad lib )         (same...)               (RIFF #)
                                              (twice..........................)


         \twice............\           solo
    ---------------------------------|--14----14-16-17--16-14-12---|
    ---------------------------------|-----------------------------|
    ---------------------------9-9---|-----------------------------|
    --5---7h9p7h9p7h9p7--4-5---------|-----------------------------|
    ---------------------------------|-----------------------------|
    ---------------------------------|-----------------------------|
     (4 times.....................)


    -16-12----12---------------------------------------------------------12----|
    -------12----12------------------------------------11-------10----10-------|
    ----------------11--------------12-11-9-12-11-9-12------11-----11----------|
    -------------------11---12-11-9--------------------------------------------|
    ---------------------------------------------------------------------------|
    ---------------------------------------------------------------------------|


                  (twice.........)
    ------------------------12---------------12---------16-16-16--12----12--11-|
    --10-9-10---------10-------12------10----------------------------12--------|
    ----------9----11----11---------11----11-------9---------------------------|
    ---------------------------------------------------------------------------|
    ---------------------------------------------------------------------------|
    ---------------------------------------------------------------------------|

		                                                       end...
    --------------------21--19-17-16-17-16--14-16--14h16p14--------------------|
    --12----12----------------------------------------------14-12-10-----------|
    -----11----11----------------------------------------------------13-11-12--|
    --------------11-----------------------------------------------------------|
    ---------------------------------------------------------------------------|
    ---------------------------------------------------------------------------|

5.PROWLER

|---------------------------------|
|---------------------------------|
|---9-9-9---9-9-9---9-9-9---9-9-9-|
|---9-9-9---9-9-9---9-9-9---9-9-9-|
|-x-7-7-7-x-7-7-7-x-7-7-7-x-7-7-7-|
|---------------------------------|

Repeat it as long it takes...
Listen to the record (live version or studio record) to get the rhythm.


Dave Murray:

   repeat 3x
|--------------------|----------------------|
|-5--8-7-8/11\8-7-8--|-3-5--3h5p3h5p3h5p3h5-|
|--------------------|----------------------|
|--------------------|----------------------|
|--------------------|----------------------|
|--------------------|----------------------|

VERSES:

Janick Gers:

 Em5                                D5                                fill:
|---------------------------------|---------------------------------|--------|
|---------------------------------|---------------------------------|--------|
|---9-9-9---9-9-9---9-9-9---9-9-9-|---7-7-7---7-7-7---7-7-7---7-7-7-|-9-7-7--|
|---9-9-9---9-9-9---9-9-9---9-9-9-|---7-7-7---7-7-7---7-7-7---7-7-7-|----9-9-|
|-x-7-7-7-x-7-7-7-x-7-7-7-x-7-7-7-|-x-5-5-5-x-5-5-5-x-5-5-5-x-5-5-5-|--------|
|---------------------------------|---------------------------------|--------|


Play "Em5" twice, then play "D5" once, then play "Em5" once, then play fill.
Repeat it as long it takes for verses.

Dave Murray:

   repeat 3x
|-----------------|------------------|
|-8-7-8/11\8-7-8--|-3-5--3h5p3h5p3h5-|
|-----------------|------------------|
|-----------------|------------------|
|-----------------|------------------|
|-----------------|------------------|

Repeat it as long it takes for verses.
Dave play the same "fill" played by Janick at the end of the riff.


PRE-CHORUS:

Both guitars:

|--------------------------------------------------------------------|
|----------------------------------------------------10/12\10-8-10-8-|
|-11--11---11---11---11---11---11----9----5--7----9------------------|
|-11--11---11---11---11---11---11----9----5--7----9------------------|
|-8----8----8----8----8----8----8----7----3--5----7------------------|
|--------------------------------------------------------------------|

play it twice.


CHORUS:

Janick Gers:

|------------------------|
|------------------------|
|-5------------7---------|
|-5------------7---------|
|-3------------5---------|
|------------------------|

Dave Murray:

|------------------------|
|-8-7-5-3-1----8-7-5-3-1-|
|------------------------|
|------------------------|
|------------------------|
|------------------------|

Then, play the same as played on Intro riff. Back again for chorus.

Then, Janick Gers holds on Em5 and Dave plays the second part of Verse's riff.

Em5:
|-9---------|G
|-9---------|D
|-7---------|A


INSTRUMENTAL BREAKS:

Dave Murray:

|--------------------|
|-12-11-9-7-7--9-11--|
|-12-11-9-7-7--9-11--|
|--------------------|
|--------------------|
|--------------------|

Repeat it for awile

Janick Gers:

|-------------------|
|-------------------|
|-9----7----9----9--|
|-9----5----7----9--|
|-7--------------7--|
|-------------------|

Here, as Janick Gers plays one by one chord above, the audicence screams.
Hear the album, you'll get it.

BEFORE SOLOS:

|----------------------------------------------------------|
|----------------------------------------------------------|
|-5h3-0-5h3-0-5h3-0-----7h5-0-7h5-0-7h5-0-----5h3-0-5h3-0--|
|----------------------------------------------------------|
|----------------------------------------------------------|
|----------------------------------------------------------|

After awile, one of them plays the same thing but on the B string.

RHYTHM FOR SOLOS AND FAST VERSES:

Janick Gers:

|------------------------------------------|
|------------------------------------------|
|-9-9-9----7-7-7---5-5-5----4-4-4----5--7--|
|-9-9-9----7-7-7---5-5-5----4-4-4----5--7--|
|-7-7-7----5-5-5---3-3-3----2-2-2----3--5--|
|------------------------------------------|

6.CHARLOTTE THE HARLOT '88

This is the intro part (one guitar):

E-----------------------------|------------------------|----------------|
B-----------------------------|------------------------|----------------|
G-----------------------------|------------------------|----------------|
D---12--------10-----9-----7--|-----5----5--5h7--7--7--|----------------|
A---12--------10-----9-----7--|-----5----5--5h7--7--7--|----------------|
E-----------------------------|------------------------|----------------|

E---------------------------|--------------------|----------------------|
B---------------------------|--------------------|----------------------|
G---------------------------|--------------------|----------------------|
D---7p-5--5--5-----5-----5--|-----7-----7--7-----|----------------------|
A---7p-5--5--5-----5-----5--|-----7-----7--7-----|----------------------|
E---------------------------|--------------------|----------------------|

E---------------------------|--------------------|----------------------|
B---------------------------|--------------------|----------------------|
G---------------------------|--------------------|----------------------|
D---7p-5--5--5-----5-----5--|-----7-----7--7-----|----------------------|
A---7-p5--5--5-----5-----5--|-----7-----7--7-----|----------------------|
E---------------------------|--------------------|----------------------|

One guitar plays the above riff again, and the other guitar plays this:

E----------------------------|-------------------------|----------------|
B---10--------8-----7--------|-------------------------|----------------|
G-------------------------9--|-----7-----7--7h9--9--9--|----------------|
D----------------------------|-------------------------|----------------|
A----------------------------|-------------------------|----------------|
E----------------------------|-------------------------|----------------|

E--------------------------|-----------------------|--------------------|
B--------------------------|-----------------------|--------------------|
G---9p7--7--7-----7-----7--|-----7-----9-----9--9--|--------------------|
D--------------------------|-----------------------|--------------------|
A--------------------------|-----------------------|--------------------|
E--------------------------|-----------------------|--------------------|

E-----------------------------|-----------------------|-----------------|
B-----------------------------|-----------------------|-----------------|
G------9p7--7--7-----7-----7--|-----7-----9-----9--9--|-----------------|
D-----------------------------|-----------------------|-----------------|
A-----------------------------|-----------------------|-----------------|
E-----------------------------|-----------------------|-----------------|

Then they play this (guitar 1 plays the top notes, guitar 2 plays the
bottom notes):

E---------------------------|--------------------------|----------------|
B---10-----8------7-----8---|--10-----8------7-----8---|----------------|
G---------------------------|--------------------------|----------------|
D---12-----10-----9-----10--|--12-----10-----9-----10--|----------------|
A---12-----10-----9-----10--|--12-----10-----9-----10--|----------------|
E---------------------------|--------------------------|----------------|

E------------------------|-----------------------|----------------------|
B---10-----8------7--10--|-----8-----7--9--------|----------------------|
G------------------------|-----------------------|----------------------|
D---12-----10-----9--7---|-----5-----4--2--------|----------------------|
A---12-----10-----9--7---|-----5-----4--2--------|----------------------|
E------------------------|-----------------------|----------------------|

    (both guitars)
E-------------------|-----------|------------------|--------------------|
B-------------------|-----------|------------------|--------------------|
G---12--------7-----|--9--------|--12--------7-----|--------------------|
D---12--------7-----|--9--------|--12--------7-----|--------------------|
A---10--------5-----|--7--------|--10--------5-----|--------------------|
E-------------------|-----------|------------------|--------------------|

This is the verse riff (both guitars play 8 times):

E--------------------|----------------|---------------------------------|
B--------------------|----------------|---------------------------------|
G--------------------|----------------|---------------------------------|
D---9--9--7h9-----9--|--12-----12--7--|---------------------------------|
A---7--7--7-------7--|--10-----10--5--|---------------------------------|
E--------------------|----------------|---------------------------------|

This is the chorus riff (both guitars play twice):

E----------------------|------------------------|-----------------------|
B----------------------|------------------------|-----------------------|
G----------------------|------------------------|-----------------------|
D---9--9--7/9-----9----|--12-----12/14-----7----|-----------------------|
A---7--7--5/7-----7----|--10-----10/12-----5----|-----------------------|
E----------------------|------------------------|-----------------------|

E----------------------|----------------------|-------------------------|
B----------------------|----------------------|-------------------------|
G----------------------|----------------------|-------------------------|
D---7--7--5/7-----7----|-------------9--x--x--|-------------------------|
A---5--5--3/5-----5----|--2p0--------7--x--x--|-------------------------|
E----------------------|-------3~~~-----------|-------------------------|

This is the part right after the chorus (both guitars):

E------------------|----------------|-----------------------------------|
B------------------|----------------|-----------------------------------|
G------------------|----------------|-----------------------------------|
D---9--9-----9-----|--12--12--7-----|-----------------------------------|
A---7--7-----7-----|--10--10--5-----|-----------------------------------|
E------------------|----------------|-----------------------------------|

E----------------------------------|-----------------|------------------|
B----------------------------------|-----------------|------------------|
G----------------------------------|-----------------|------------------|
D---9/14-----9--9/14---------------|--9--9-----9-----|------------------|
A---7/12-----7--7/12--14p12\10-----|--7--7-----7-----|------------------|
E----------------------------------|-----------------|------------------|

E-----------------|---------------------|-------------------------------|
B-----------------|---------------------|-------------------------------|
G-----------------|--4p2p0-----0--2--0--|-------------------------------|
D---12--12--7-----|---------2-----------|-------------------------------|
A---10--10--5-----|---------------------|-------------------------------|
E-----------------|---------------------|-------------------------------|

Now repeat from where the first verse starts all the way up to the above
riff, then play this (both guitars):

E---------------------------|--------------------------|----------------|
B---------------------------|--------------------------|----------------|
G---------------------------|--------------------------|----------------|
D---2--2--2--2--2--2--2--2--|--2--2--2--2--2--2--2--2--|----------------|
A---------------------------|--------------------------|----------------|
E---------------------------|--------------------------|----------------|

      (one guitar plays top notes, another plays the bottom)
E------------------------|----------------------------------------------|
B------------------------|----------------------------------------------|
G------7--5--4--2--0-----|----------------------------------------------|
D---2--9--7--5--4--2--4--|----------------------------------------------|
A---------------------5--|----------------------------------------------|
E------------------------|----------------------------------------------|


    C         Em       Am
E---8---------7--------5------------------------------------------------|
B---8---------8--------5------------------------------------------------|
G---9---------9--------5------------------------------------------------|
D---10--------9--------7------------------------------------------------|
A---10--------7--------7------------------------------------------------|
E---8---------7--------5------------------------------------------------|

Then it gets faster. Both guitars play this (4 times):

E---------------------------|--------------------------|----------------|
B---------------------------|--------------------------|----------------|
G---------------------------|--------------------------|----------------|
D---9--9--9--9--9--9--9--9--|--9--9--9--9--9--7--------|----------------|
A---7--7--7--7--7--7--7--7--|--7--7--7--7--7--5--------|----------------|
E---------------------------|--------------------------|----------------|

Then one guitar keeps playing that, while the other plays a solo:

E-------12-12-----12-12-----12-|-12-----12-12-----12-|------------------|
B-------12-12-----12-12-----12-|-12-----12-12-15^----|------------------|
G---14^-------14^-------14^----|----14^--------------|------------------|
D------------------------------|---------------------|------------------|
A------------------------------|---------------------|------------------|
E------------------------------|---------------------|------------------|

E---15-12-15p12----12----------------|------------------|---------------|
B---------------15----15p12-15p12h15-|---------15h17p15-|---------------|
G------------------------------------|-14^--------------|---------------|
D------------------------------------|------------------|---------------|
A------------------------------------|------------------|---------------|
E------------------------------------|------------------|---------------|

E--------------|-----------------------------|-------------------|------|
B---17^-----15-|-17p15p14-15p14\12-----------|-------------------|------|
G--------------|-------------------14-12-14^-|-(14)-----12-14-12-|------|
D--------------|-----------------------------|-------------------|------|
A--------------|-----------------------------|-------------------|------|
E--------------|-----------------------------|-------------------|------|

E------------------------|----------------------------------------------|
B------------------------|----------------------------------------------|
G---11h12p11-12p11h12----|----------------------------------------------|
D---------------------14-|----------------------------------------------|
A------------------------|----------------------------------------------|
E------------------------|----------------------------------------------|

Now that guitar plays the rhythm part, while the other plays a solo:

E------------------------------------|----------------------------------|
B-------12h15p12-----12h15p12-----12-|----------------------------------|
G---14^----------14^----------14^----|----------------------------------|
D------------------------------------|----------------------------------|
A------------------------------------|----------------------------------|
E------------------------------------|----------------------------------|

E---------------------------------------|-------------------------------|
B---15p12-----12h15p12-----12h15p12-----|-------------------------------|
G---------14^----------14^----------14^-|-------------------------------|
D---------------------------------------|-------------------------------|
A---------------------------------------|-------------------------------|
E---------------------------------------|-------------------------------|

E---------------------------------------------------|-------------------|
B---12h15p12----12h15p12----12h15p12----12h15p12----|-------------------|
G------------14----------14----------14----------14-|-------------------|
D---------------------------------------------------|-------------------|
A---------------------------------------------------|-------------------|
E---------------------------------------------------|-------------------|

E---------------------------------------------------|-------------------|
B---12h15p12----12h15p12----12h15p12----12h15p12-15-|-------------------|
G------------14----------14----------14-------------|-------------------|
D---------------------------------------------------|-------------------|
A---------------------------------------------------|-------------------|
E---------------------------------------------------|-------------------|

E---------------------------------------------------|-------------------|
B---20p17----17-20p17----17-20p17----17-20p17----17-|-------------------|
G---------19----------19----------19----------19----|-------------------|
D---------------------------------------------------|-------------------|
A---------------------------------------------------|-------------------|
E---------------------------------------------------|-------------------|

E---------------------------------------------------|---------------|---|
B---20p17----17-20p17----17-20p17----17-20p17----17-|-22^-22^-20h22-|---|
G---------19----------19----------19----------19----|---------------|---|
D---------------------------------------------------|---------------|---|
A---------------------------------------------------|---------------|---|
E---------------------------------------------------|---------------|---|

E-------------------|---------------------------------------------------|
B---20p17----17-----|---------------------------------------------------|
G---------19----19^-|---------------------------------------------------|
D-------------------|---------------------------------------------------|
A-------------------|---------------------------------------------------|
E-------------------|---------------------------------------------------|

Now one guitar play this (twice):

E------------|------------|---------------------------------------------|
B------------|------------|---------------------------------------------|
G---9--------|--12-----7--|---------------------------------------------|
D---9--------|--12-----7--|---------------------------------------------|
A---7--------|--10-----5--|---------------------------------------------|
E------------|------------|---------------------------------------------|

The other guitar plays this over top:

            trill...
E-------------------|--------------------|------------------------------|
B--------8--7--(8)--|--7-----8-----------|------------------------------|
G---7h9-------------|-----------9--------|------------------------------|
D-------------------|--------------------|------------------------------|
A-------------------|--------------------|------------------------------|
E-------------------|--------------------|------------------------------|

Now repeat from the second verse until the end of the second chorus,
then play this (both guitars):

E---------------------------|--------------------------|----------------|
B---------------------------|--------------------------|----------------|
G---------------------------|--------------------------|----------------|
D---2--2--2--2--2--2--2--2--|--2--2--2--2--2--2--2--2--|----------------|
A---------------------------|--------------------------|----------------|
E---------------------------|--------------------------|----------------|

Now play the intro riff again, but replace the last bar with this (as
usual, one guitar plays the top notes and the other plays the bottom):

E-----------------------|------------------|----------------------------|
B---10-----8------7-----|------------------|----------------------------|
G--------------------9--|--6-----------14--|----------------------------|
D---12-----10-----9--7--|--11--7---6---14--|----------------------------|
A---12-----10-----9--7--|--11--12--11--12--|----------------------------|
E-----------------------|------12--11------|----------------------------|

7.LISTEN WITH NICKO!PT.IX

Don't Know
comments
print report bad tab
1 comment total.
0 reply
Donkey Fly wrote on June 14 2007, 01:55 pm

This isn't an album...don't post your own little collections up cause it's against the rules or it used to be atleast.

I want to post or [tab]
guest
You may want to rate the tab now too:
select rating
Please do not post tabs as comments. Select "correction" instead!