Oops, an error
Loading. Please wait.

Dance Of Death Tab

ver1
ver1

Album

Solo

Interactive

More versions @911Tabs.com
47,059 views 21 this week
5 commentsread comments
1 2 3 4 5
accurate
x 9
add to favorites launch autoscroll
font size
0
reset
Autoscroll
+/-
esc
set tempo
stop
Contributor
WARNING: You are trying to view
                                    content from Ultimate-Guitar.com
                                    in an unauthorized application,
                                    which is prohibited.

                                    Please use an official Ultimate
                                    Guitar Tabs application for iPhone,
                                    iPad or Android to access legitimate
                                    chords, guitar, bass, and drum tabs
                                    from Ultimate-Guitar.com database.

                                    Type "ultimate guitar tabs" in Apple
                                    App Store's or Android Market's
                                    search to find the application.
Band- Iron Maiden
Album- Dance Of Death

1.WILDEST DREAMS

e|------------------------------------|-------------------------------------------------------------|
B|------------------------------------|-------------------------------------------------------------|
G|------------------------------------|-------------------------------------------------------------|
D|---6------7----7-----7-----7p6------|--6-----7-----7----7-----7-----6-----7----7------7-----7p6---|
A|---7------7----7-----7-----7--------|--7-----7-----7----7-----7-----7-----7----7------7-----7-----|
E|0----0--0---------0-----0-----0-0---|----0-0---0-0--------0-0---0-0---0-0--------0--0---0-0-------|

e|-------------|---------------------------------|------------------------------------------------------|
B|-------------|---------------------------------|------------------------------------------------------|
G|-------------|---------------------------------|------------------------------------------------------|
D|5-----6-----7|---6------7----7-----7-----7p6---|6-----7-----7----7-----7-----6-----7---7-----7-----7p6|
A|4-----5-----5|---7------7----7-----7-----7-----|7-----7-----7----7-----7-----7-----7---7-----7-----7--|
E|--0-0---0-0--|0----0--0---------0-----0-----0-0|--0-0---0-0--------0-0---0-0---0-0--------0-0---0-0---|

e|-------------|---------------------------------|------------------------------------------------------|
B|-------------|---------------------------------|------------------------------------------------------|
G|-------------|---------------------------------|------------------------------------------------------|
D|5-----6-----7|---6------7----7-----7-----7p6---|6-----7-----7----7-----7-----6-----7---7-----7-----7p6|
A|4-----5-----5|---7------7----7-----7-----7-----|7-----7-----7----7-----7-----7-----7---7-----7-----7--|
E|--0-0---0-0--|0----0--0---------0-----0-----0-0|--0-0---0-0--------0-0---0-0---0-0--------0-0---0-0---|

e|------------------------------------------------------------------------------------------------------|
B|------------------------------------------------------------------------------------------------------|
G|------------------------------------------------------------------------------------------------------|
D|----------5--3p2---------5--3p2--------------5--3p2--------5--3p2-------------5--3p2---------5--3p2---|
A|-3----5-----------5--------------5---3----5----------5-------------5---3--5-----------5--------------5|
E|-1----3--------------3---------------1----3-------------3--------------1--3--------------3------------|

e|-------------------------------------------------------------------------------------------------|
B|-------------------------------------------------------------------------------------------------|
G|--------------------------6--7--6--7p6--6-7---10---9--12p11---6-7-6-7p6-6--7---------------------|
D|-------------2------------7--7--7--7----7-7---10--10--12------7-7-7-7---7--7----5--5-5-----------|
A|-3----5--5---2----------------------------------------------------------------0-3--3-3---5-------|
E|-1----3--3---0---0-0-0-0---------------------------------------------------------------3-3-------|

e|--------------------------------------------------------------------------|
B|--------------------------------------------------------------------------|
G|---6--7--6--7p6--6-7---10---9--12p11---6-7-6-7p6-6--7---------------------|
D|---7--7--7--7----7-7---10--10--12------7-7-7-7---7--7----5--5-5-----------|
A|-------------------------------------------------------0-3--3-3---5-------|
E|----------------------------------------------------------------3-3-------|

e|------------------------------------------------------------------------------|
B|------------------------------------------------------------------------------|
G|--7--6---4--------------------------------------------------------------------|
D|------------7--5-----4--7--5--4-----------------------------------------------|
A|--------------------------------7--5--4--0------------------------------------|
E|------------------------------------------------------------------------------|

solo

e|------------------------------------7---9--10--9--10--12--10p9-------------------------|
B|--10^^(with wah-wah)----10--10^^--------------------------------10p9-------------------|
G|---------------------------------------------------------------------11p9--------------|
D|---------------------------------------------------------------------------------------|
A|---------------------------------------------------------------------------12----------|
E|---------------------------------------------------------------------------------------|

|----------7---------------------------------------------------------------------------------|
|--------7---10p7------7---------------------------------------------------------------------|
|--9^^-------------9^^----10--9---7^----9---9-9----------------------------------------------|
|-------------------------------------9---9-----9--9--7----------7---------------------------|
|----------------------------------------------------------9--8-----9--8--7p5-----7--<7>/14--|
|------------------------------------------------------------------------------7-------------|

|----------------------------------------------------------------------------------|
|-0-5-7-0-5-7-0-7-8-7-8p7-0-8-10-0-8-10-0-10-12-0-10-12-0-12-14-0-12-14-0-14-15----|
|----------------------------------------------------------------------------------|
|----------------------------------------------------------------------------------|
|----------------------------------------------------------------------------------|
|----------------------------------------------------------------------------------|
                                       wah-wah
|---------------------17^^----------------------------------------------------------------|
|--17^^r17^^---17^------------17^------15p14-------15p14------14--------------------------|
|----------------------------------------------16---------16-----16p14------14------------|
|-----------------------------------------------------------------------16------16--------|
|-----------------------------------------------------------------------------------------|
|-----------------------------------------------------------------------------------------|

|------------------------------------------------------------------------|
|------------------------------------------------------------------------|
|---------------------------------------14p16-----------<16>-------------|
|---15--14p12-------14--12--14--12---------------------------------------|
|---------------14-------------------------------------------------------|
|------------------------------------------------------------------------|
end solo

|----------------------------------------------------------------------------------------------|
|------------------------------------------------/9---10---12----12h13----p12-----10--9~~~~----|
|----------------------------------------------------------------------------------------------|
|--9---(9)\\-----5----7-----9----5---7---9-----------------------------------------------------|
|--7---(7)\\-----3----5-----7----3---5---7-----------------------------------------------------|
|----------------------------------------------------------------------------------------------|


|--------------------------------------------------------------------------|
|---9---10---12--12p13---13h15--13--12h13p12-------------------------------|
|--------------------------------------------------------------------------|
|--------------------------------------------------------------------------|
|--------------------------------------------------------------------------|
|--------------------------------------------------------------------------|

|---------------------------------------------------------------------------------------|
|---------------------------------------------------------------------------------------|
|---------------------------------------------------------------------------------------|
|---5---------7-------9-----------5---------7-------9-----------------------------------|
|---3--(x8)---5-(x8---7--(x16)----3--(x8)---5-(x8---7--(x16)----------------------------|
|---------------------------------------------------------------------------------------|

e|--------------------------------------------------------------------------|
B|--------------------------------------------------------------------------|
G|---6--7--6--7p6--6-7---10---9--12p11---6-7-6-7p6-6--7---------------------|
D|---7--7--7--7----7-7---10--10--12------7-7-7-7---7--7----5--5-5-----------|
A|-------------------------------------------------------0-3--3-3---5-------|
E|----------------------------------------------------------------3-3-------|

e|------------------------------------------------------------------------------|
B|------------------------------------------------------------------------------|
G|--7--6---4--------------------------------------------------------------------|
D|------------7--5-----4--7--5--4-----------------------------------------------|
A|--------------------------------7--5--4--0------------------------------------|
E|------------------------------------------------------------------------------|

2.RAINMAKER

|-------------------------|-----------------------------|
|-------------15----------|-----------------------------|
|----------14----------17-|-(17)-------15-(15)-12-14----|
|-12-14-15-------12-14----|------12-14---------------15-|
|-------------------------|-----------------------------|
|-------------------------|-----------------------------|
|
| Gtrs II, III
|  PM---------------|                       PM------------|
|-------------------------|-------------------------------|
|-------------------------|-------------------------------|
|-------------------------|-------------------------------|
|--7--7--7--7--7--7--7--3-|--(3)--3--3------3---3--3------|
|--5--5--5--5--5--5--5--1-|--(1)--1--1------1---1--1------|
|-------------------------|-------------------------------|


  D5                   C5
|-------------------------|-----------------------------|
|-------------15----------|-----------------------------|
|----------14----------17-|-(17)-------15-(15)-12-14----|
|-12-14-15-------12-14----|------12-14---------------15-|
|-------------------------|-----------------------------|
|-------------------------|-----------------------------|
|
|  PM---------------|                       PM------------|
|-------------------------|-------------------------------|
|-------------------------|-------------------------------|
|-------------------------|-------------------------------|
|--7--7--7--7--7--7--7--5-|--(5)--5--5------5---5--5------|
|--5--5--5--5--5--5--5--3-|--(3)--3--3------3---3--3------|
|-------------------------|-------------------------------|


  D5                   Bb5                           C5
|-------------------------|-----------------------------|
|-------------15----------|-----------------------------|
|----------14----------17-|-(17)-------15-(15)-12-14----|
|-12-14-15-------12-14----|------12-14---------------15-|
|-------------------------|-----------------------------|
|-------------------------|-----------------------------|
|
|  PM---------------|                       PM------------|
|-------------------------|-------------------------------|
|-------------------------|-------------------------------|
|-------------------------|-------------------------------|
|--7--7--7--7--7--7--7--3-|--(3)--3--3------3---3--3--5---|
|--5--5--5--5--5--5--5--1-|--(1)--1--1------1---1--1--3---|
|-------------------------|-------------------------------|


                                                    D5
|--------------------------|---------------------------|
|--------------15----------|---------------15----------|
|-----------14----14-------|------------14----14-------|
|-12--14-15----------15-12-|-(12)-14-15----------15-12-|
|--------------------------|---------------------------|
|--------------------------|---------------------------|
|
|      PM---------------|          PM--------------------|
|--------------------------|-----------------------------|
|--------------------------|-----------------------------|
|--------------------------|-------------------------2---|
|-(5)--5--5--5--5--5--5--5-|--(5)--5--5--5--5--5--5--0---|
|-(3)--3--3--3--3--3--3--3-|--(3)--3--3--3--3--3--3------|
|--------------------------|-----------------------------|


 Verse 1-  0:11
                   Bb5                  F5
|--------------------|--------------------|
|--------------------|--------------------|
|--------------------|--------------------|
|-(12)---------------|--------------------|
|--------------------|--------------------|
|--------------------|--------------------|
|
| Gtr II
|                               PM
|--------------------|--------------------|
|--------------------|--------------------|
|--(2)--2--2-2-(2)-3-|-(3)--3---3-3-(3)-5-|
|--(0)--0--0-0-(0)-3-|-(3)--3---3-3-(3)-3-|
|--------------------|--------------------|
|--------------------|--------------------|
|
| Gtr III
|                           PM--|
|--------------------|--------------------|
|--------------------|--------------------|
|--(2)-------------3-|-(3)--3-3-3-3-(3)-5-|
|--(0)-------------3-|-(3)--3-3-3-3-(3)-3-|
|------------------5-|-(5)--------------3-|
|--------------------|--------------------|


                   C                    D5
|--------------------|--------------------|
|--------------------|--------------------|
|--------------------|--------------------|
|--------------------|--------------------|
|--------------------|--------------------|
|--------------------|--------------------|
|
|          PM                   PM
|--------------------|--------------------|
|--------------------|--------------------|
|-(5)--5---5-5-(5)-5-|-(5)--5---5-5-(5)-2-|
|-(3)--3---3-3-(3)-2-|-(2)--2---2-2-(2)-0-|
|--------------------|--------------------|
|--------------------|--------------------|
|
|      PM--|                PM--|
|--------------------|--------------------|
|--------------------|--------------------|
|-(5)--5-5-5-5-(5)-5-|-(5)--5-5-5-5-(5)-2-|
|-(3)--3-3-3-3-(3)-2-|-(2)--2-2-2-2-(2)-0-|
|-(3)--------------3-|-(3)----------------|
|--------------------|--------------------|


                   Bb5                  F5
  Gtr II
                                PM
|--------------------|--------------------|
|--------------------|--------------------|
|-(2)--2---2-2-(2)-3-|-(3)--3---3-3-(3)-5-|
|-(0)--0---0-0-(0)-3-|-(3)--3---3-3-(3)-3-|
|--------------------|--------------------|
|--------------------|--------------------|
|
| Gtr III
|      PM--|                PM--------------|
|--------------------|----------------------|
|--------------------|----------------------|
|-(2)--2-2-2-2-(2)-3-|-(3)--3-3-3-3--3--5---|
|-(0)--0-0-0-0-(0)-3-|-(3)--3-3-3-3--3--3---|
|------------------5-|-(5)--------------3---|
|--------------------|----------------------|


                   C                    D5
           PM                   PM
|--------------------|--------------------|
|--------------------|--------------------|
|-(5)--5---5-5-(5)-5-|-(5)--5---5-5-(5)-2-|
|-(3)--3---3-3-(3)-2-|-(2)--2---2-2-(2)-0-|
|--------------------|--------------------|
|--------------------|--------------------|
|
|      PM--|                PM--------------|
|--------------------|----------------------|
|--------------------|----------------------|
|-(5)--5-5-5-5-(5)-5-|-(5)--5-5-5-5--5--2---|
|-(3)--3-3-3-3-(3)-2-|-(2)--2-2-2-2--2--0---|
|-(3)--------------3-|-(3)------------------|
|--------------------|----------------------|


                   Bb5                 F5
                               PM
|--------------------|-------------------|
|--------------------|-------------------|
|-(2)--2---2-2-(2)-3-|-(3)--3--3-3-(3)-5-|
|-(0)--0---0-0-(0)-3-|-(3)--3--3-3-(3)-3-|
|--------------------|-------------------|
|--------------------|-------------------|
|
|      PM--|                   PM
|--------------------|-------------------|
|------------------1-|-(1)--1--1-1-(1)---|
|-(2)--2-2-2-2-(2)-3-|-(3)--3--3-3-(3)-5-|
|-(0)--0-0-0-0-(0)-3-|-(3)-------------3-|
|--------------------|-----------------3-|
|--------------------|-------------------|


                  C                    Bb5
          PM                   PM
|-------------------|--------------------|
|-------------------|--------------------|
|-(5)--5--5-5-(5)-5-|-(5)--5---5-5-(5)-3-|
|-(3)--3--3-3-(3)-2-|-(2)--2---2-2-(2)-3-|
|-------------------|--------------------|
|-------------------|--------------------|
|
|         PM               PM--------------|
|-------------------|----------------------|
|-------------------|----------------------|
|-(5)--5--5-5-(5)-5-|-(5)--5-5-5-5--5--3---|
|-(3)--3--3-3-(3)-2-|-(2)--2-2-2-2--2--3---|
|-(3)-------------3-|-(3)--------------1---|
|-------------------|----------------------|


                                   C5                                     D5
|----------------|-------------------|-------------------|------------------|
|----------------|-------------------|-------------------|----------------3-|
|-(3)--3--3-3-3--|--3---3--3-3-(3)-5-|-(5)--5--5-5-(5)-5-|-(5)--5-5-5-5-5-2-|
|-(3)--3--3-3-3--|--3---3--3-3-(3)-5-|-(5)--5--5-5-(5)-5-|-(5)--5-5-5-5-5-0-|
|----------------|--1--------------3-|-(3)-------------3-|-(3)--------------|
|----------------|-------------------|-------------------|------------------|
|
|----------------|-------------------|-------------------|------------------|
|----------------|-------------------|-------------------|----------------3-|
|--3-------------|-(3)-------------5-|-(5)---------------|-(5)------------2-|
|-(3)------------|-(3)-------------5-|-(5)---------------|-(5)------------0-|
|-(1)------------|-(1)-------------3-|-(3)---------------|-(3)--------------|
|----------------|-------------------|-------------------|------------------|


 Chorus- 0:33
            F5            Bb5           C5            G5
  Gtrs II, III
|-------------|-------------|-------------|-------------|
|-(3)-------6-|-(6)---------|-------------|-------------|
|-(2)-------5-|-(5)-------3-|-(3)-------5-|-(5)-------0-|
|-(0)-------3-|-(3)-------3-|-(3)-------5-|-(5)-------0-|
|-----------3-|-(3)-------1-|-(1)-------3-|-(3)---------|
|-------------|-------------|-------------|-------------|


            Bb5           F5            C5            D5
|-------------|-------------|-------------|-------------|
|-------------|-------------|-------------|-----------3-|
|-(0)-------3-|-(3)---------|-----------5-|-(5)-------2-|
|-(0)-------3-|-(3)-------3-|-(3)-------5-|-(5)-------0-|
|-----------1-|-(1)-------3-|-(3)-------3-|-(3)---------|
|-------------|-----------1-|-(1)---------|-------------|


            F5            Bb5           C5            G5
|-------------|-------------|-------------|-------------|
|-(3)---------|-------------|-------------|-------------|
|-(2)---------|-----------3-|-(3)-------5-|-(5)-------0-|
|-(0)-------3-|-(3)-------3-|-(3)-------5-|-(5)-------0-|
|-----------3-|-(3)-------1-|-(1)-------3-|-(3)---------|
|-----------1-|-(1)---------|-------------|-------------|


            Bb5           C5                         Dm
|-------------|-------------|------------|-----------5-|
|-------------|-------------|------------|-----------6-|
|-(0)-------3-|-(3)-------5-|-(5)--------|-(5)-------7-|
|-(0)-------3-|-(3)-------5-|-(5)--------|-(5)-------0-|
|-----------1-|-(1)-------3-|-(3)--------|-(3)---------|
|-------------|-------------|------------|-------------|


 Bridge- 0:56
                  Dsus4                 Dm
       PM-----|              PM---------------|
|-(5)-------------(5)-|-(5)-------------(5)---|
|-(6)--------------8--|-(8)--------------6----|
|-(7)--------------7--|-(7)--------------7----|
|-(0)--0--0-0-(0)--0--|-(0)--0--0-0-(0)--0----|
|---------------------|-----------------------|
|---------------------|-----------------------|


                  Dsus4               Bb
       PM-----|            PM-------------|
|-(5)---------------|---------------------|
|-(6)-------------8-|-(8)-------------6---|
|-(7)-------------7-|-(7)-------------7---|
|-(0)--0--0-0-(0)-0-|-(0)--0--0-0-(0)-8---|
|-------------------|---------------------|
|-------------------|---------------------|


                  Bb6                 F5                  C             Dm
|-------------------|-------------------|-------------------|-----------5-|
|-(6)-------------8-|-(8)-------------6-|-(6)-------------5-|-(5)-------6-|
|-(7)-------------7-|-(7)-------------5-|-(5)-------------5-|-(5)-------7-|
|-(8)--0--0-0-(0)-8-|-(8)--0--0-0-(0)-3-|-(3)-------------5-|-(5)-------0-|
|-------------------|-------------------|------3--3-3-(3)---|-------------|
|-------------------|-------------------|-------------------|-------------|


                  Dsus4                 Dm
       PM-----|              PM---------------|
|-(5)-------------(5)-|-(5)-------------(5)---|
|-(6)--------------8--|-(8)--------------6----|
|-(7)--------------7--|-(7)--------------7----|
|-(0)--0--0-0-(0)--0--|-(0)--0--0-0-(0)--0----|
|---------------------|-----------------------|
|---------------------|-----------------------|


                  Dsus4               Bb
       PM-----|            PM-------------|
|-(5)---------------|---------------------|
|-(6)-------------8-|-(8)-------------6---|
|-(7)-------------7-|-(7)-------------7---|
|-(0)--0--0-0-(0)-0-|-(0)--0--0-0-(0)-8---|
|-------------------|---------------------|
|-------------------|---------------------|


                  Bb6                 F5                  C             D5
|-------------------|-------------------|-------------------|-------------|
|-(6)-------------8-|-(8)-------------6-|-(6)-------------5-|-(5)-------3-|
|-(7)-------------7-|-(7)-------------5-|-(5)-------------5-|-(5)-------2-|
|-(8)--0--0-0-(0)-8-|-(8)--0--0-0-(0)-3-|-(3)-------------5-|-(5)-------0-|
|-------------------|-------------------|------3--3-3-(3)---|-------------|
|-------------------|-------------------|-------------------|-------------|


 Chorus- 1:18
            F5            Bb5           C5            G5
|-------------|-------------|-------------|-------------|
|-(3)-------6-|-(6)---------|-------------|-------------|
|-(2)-------5-|-(5)-------3-|-(3)-------5-|-(5)-------0-|
|-(0)-------3-|-(3)-------3-|-(3)-------5-|-(5)-------0-|
|-----------3-|-(3)-------1-|-(1)-------3-|-(3)---------|
|-------------|-------------|-------------|-------------|


            Bb5           F5            C5                          D5
|-------------|-------------|-------------|---------------------------|
|-------------|-------------|-------------|-------------------------3-|
|-(0)-------3-|-(3)---------|-----------5-|-(5)---------------------2-|
|-(0)-------3-|-(3)-------3-|-(3)-------5-|-(5)---------------------0-|
|-----------1-|-(1)-------3-|-(3)-------3-|-(3)-----------------------|
|-------------|-----------1-|-(1)---------|---------------------------|
|
| Gtr I
|-------------|-------------|-------------|-----8-----(8)-8-8-8-8-8-8-|
|-------------|-------------|-------------|-----8b10==(8)-8-8-8-8-8-8-|
|-------------|-------------|-------------|---------------------------|
|-------------|-------------|-------------|---------------------------|
|-------------|-------------|-------------|---------------------------|
|-------------|-------------|-------------|---------------------------|


                 F5            Bb5           C5            G5
|------------------|-------------|-------------|-------------|
|-(3)--------------|-------------|-------------|-------------|
|-(2)--------------|-----------3-|-(3)-------5-|-(5)-------0-|
|-(0)------------3-|-(3)-------3-|-(3)-------5-|-(5)-------0-|
|----------------3-|-(3)-------1-|-(1)-------3-|-(3)---------|
|----------------1-|-(1)---------|-------------|-------------|
|
|-(8)------(8)-----|-------------|-------------|-------------|
|-(8)------(8)r\---|-------------|-------------|-------------|
|------------------|-------------|-------------|-------------|
|------------------|-------------|-------------|-------------|
|------------------|-------------|-------------|-------------|
|------------------|-------------|-------------|-------------|


            Bb5           C5
|-------------|-------------|------------------------------------|
|-------------|-------------|------------------------------------|
|-(0)-------3-|-(3)-------5-|-(5)--------------------------------|
|-(0)-------3-|-(3)-------5-|-(5)--------------------------------|
|-----------1-|-(1)-------3-|-(3)--------------------------------|
|-------------|-------------|------------------------------------|
|
|-------------|-------------|------------------------10-------10-|
|-------------|-------------|-----10--------------10----10-13----|
|-------------|-------------|--------12b14==(12)r----------------|
|-------------|-------------|------------------------------------|
|-------------|-------------|------------------------------------|
|-------------|-------------|------------------------------------|


                        Dm
|------------------------5------------|
|------------------------6------------|
|-(5)--------------------7------------|
|-(5)--------------------0------------|
|-(3)---------------------------------|
|-------------------------------------|
|
|--------10-------10------------------|
|-10--13----10-13----10-13b15==(13)---|
|-------------------------------------|
|-------------------------------------|
|-------------------------------------|
|-------------------------------------|


 Bridge- 1:40
                    Dsus4                 Dm
         PM-----|              PM---------------|
|--(5)--------------(5)-|-(5)-------------(5)---|
|--(6)---------------8--|-(8)--------------6----|
|--(7)---------------7--|-(7)--------------7----|
|--(0)---0--0-0-(0)--0--|-(0)--0--0-0-(0)--0----|
|-----------------------|-----------------------|
|-----------------------|-----------------------|
|
|-----------------------|---------------------|
|-(13)r-----------------|---------------------|
|-----------------------|---------------------|
|-----------------------|---------------------|
|-----------------------|---------------------|
|-----------------------|---------------------|


                  Dsus4               Bb
       PM-----|            PM-------------|
|-(5)---------------|---------------------|
|-(6)-------------8-|-(8)-------------6---|
|-(7)-------------7-|-(7)-------------7---|
|-(0)--0--0-0-(0)-0-|-(0)--0--0-0-(0)-8---|
|-------------------|---------------------|
|-------------------|---------------------|
|
|-------------------|-------------------|
|-------------------|-------------------|
|-------------------|-------------------|
|-------------------|-------------------|
|-------------------|-------------------|
|-------------------|-------------------|


                    Bb6                  F5                   C              Dm
|--------------------|--------------------|--------------------|-----------5--|
|-(6)-------------8--|-(8)-------------6--|-(6)-------------5--|-(5)-------6--|
|-(7)-------------7--|-(7)-------------5--|-(5)-------------5--|-(5)-------7--|
|-(8)--0--0-0-(0)-8--|-(8)--0--0-0-(0)-3--|-(3)-------------5--|-(5)-------0--|
|--------------------|--------------------|------3--3-3-(3)----|--------------|
|--------------------|--------------------|--------------------|--------------|


                  Dsus4                 Dm
       PM-----|              PM---------------|
|-(5)-------------(5)-|-(5)-------------(5)---|
|-(6)--------------8--|-(8)--------------6----|
|-(7)--------------7--|-(7)--------------7----|
|-(0)--0--0-0-(0)--0--|-(0)--0--0-0-(0)--0----|
|---------------------|-----------------------|
|---------------------|-----------------------|


                  Dsus4               Bb
       PM-----|            PM-------------|
|-(5)---------------|---------------------|
|-(6)-------------8-|-(8)-------------6---|
|-(7)-------------7-|-(7)-------------7---|
|-(0)--0--0-0-(0)-0-|-(0)--0--0-0-(0)-8---|
|-------------------|---------------------|
|-------------------|---------------------|


                  Bb6                 F5
  Gtr I
|-------------------|-------------------|
|-------------------|-------------------|
|-------------------|-------------------|
|-------------------|-------------------|
|-------------------|-------------------|
|-------------------|-------------------|
|
| Gtr II
|-------------------|-------------------|
|-(6)-------------8-|-(8)-------------6-|
|-(7)-------------7-|-(7)-------------5-|
|-(8)--0--0-0-(0)-8-|-(8)--0--0-0-(0)-3-|
|-------------------|-------------------|
|-------------------|-------------------|
|
| Gtr III
|-------------------|-------------------|
|--6--------------8-|-(8)-------------6-|
|--7--------------7-|-(7)-------------5-|
|--8---0--0-0-(0)-8-|-(8)--0--0-0-(0)-3-|
|-------------------|-------------------|
|-------------------|-------------------|


                  C             D5
|-------------------|-----------8b10==(8)-|
|-------------------|---------------------|
|-------------------|---------------------|
|-------------------|---------------------|
|-------------------|---------------------|
|-------------------|---------------------|
|
|-------------------|---------------------|
|-(6)-------------5-|-(5)-----------------|
|-(5)-------------5-|-(5)-------7---------|
|-(3)-------------5-|-(5)-------7---------|
|------3--3-3-(3)---|-----------5---------|
|-------------------|---------------------|
|
|-------------------|---------------------|
|-(6)-------------5-|-(5)-----------------|
|-(5)-------------5-|-(5)-----------------|
|-(3)-------------5-|-(5)-----------------|
|------3--3-3-(3)---|-----------5---------|
|-------------------|-----------5---------|


 Guitar Solo 2- :02
                            Bb5                          C5                         F5
  Gtr I
|-(8)r-8b10==(8)-------(8)r-8b10==|=(8)r-8----------8------|------------5h6p5---5h6h==8-|
|---------------------------------|--------10-8-(8)---10-8-|-(8)----6-8-------8---------|
|---------------------------------|------------------------|-----/7---------------------|
|---------------------------------|------------------------|----------------------------|
|---------------------------------|------------------------|----------------------------|
|---------------------------------|------------------------|----------------------------|
|
| Gtr II
|---------------------------------|------------------------|----------------------------|
|---------------------------------|------------------------|----------------------------|
|-(7)-----------------------------|----------------------5-|-(5)------------------------|
|-(7)---------7------7------3-----|-(3)-----3----3--3--3-5-|-(5)----5-------5---5---3---|
|-(5)---------5------5------1-----|-(1)--1--1-1--1--1--1-3-|-(3)--3-3-3-3---3---3---3---|
|------5---------5-5--------------|------------------------|------------------------1---|
|
|  ~~~~                              ~~~~                     ~~~
|---------------------------------|------------------------|----------------------------|
|---------------------------------|------------------------|----------------------------|
|---------------------------------|------------------------|----------------------------|
|---------------------------------|------------------------|----------------------------|
|-(5)-----------------------1-----|-(1)------------------3-|-(3)--------------------3---|
|-(5)-----------------------1-----|-(1)------------------3-|-(3)--------------------1---|


                            G5                              D5
|-10---------------10h12p10--------------10-------------------------------------|
|-----13b15==(13)r----------13b15==(13)r-----13p10----13p10---------------------|
|--------------------------------------------------12-------12b14==(12)r-(12)---|
|-------------------------------------------------------------------------------|
|-------------------------------------------------------------------------------|
|-------------------------------------------------------------------------------|
|
|-------------------------------------------------------------------------------|
|-------------------------------------------------------------------------------|
|------------------------------------------------------------7------------------|
|-(3)------------------------5-----------(5)-----------------7------------------|
|-(3)------------------------5-----------(5)-----------------5------------------|
|-(1)--1---------------1-----3-----------(3)-----3-----3------------------------|
|
|-------------------------------------------------------------------------------|
|-------------------------------------------------------------------------------|
|-------------------------------------------------------------------------------|
|-------------------------------------------------------------------------------|
|-(3)------------------------5-----------(5)-----------------5------------------|
|-(1)------------------------3-----------(3)-----------------5------------------|


                                     Bb5                                                              C5
   ~~~~
|------------------------10h13p==10|-12p=10--------------10h==13p10----------13h15-15b17==(15)r-15-15b17=|
|-----------13b15==(13)r-----------|--------13b15==(13)r------------10-13h15-----------------------------|
|(12)-(12)\------------------------|---------------------------------------------------------------------|
|----------------------------------|---------------------------------------------------------------------|
|----------------------------------|---------------------------------------------------------------------|
|----------------------------------|---------------------------------------------------------------------|
|
|----------------------------------|---------------------------------------------------------------------|
|----------------------------------|---------------------------------------------------------------------|
|-(7)------------------------------|-------------------------------------------------------------5-------|
|-(7)---7----------7-----------3---|-(3)--------------------3-----------3-----3-----3------------5-------|
|-(5)---5----------5-----------1---|-(1)-----1--------------1-----1-----1-----1-----1------------3-------|
|-----5---5---5--------------------|---------------------------------------------------------------------|
|
|  ~~~~                                     ~~~
|----------------------------------|---------------------------------------------------------------------|
|----------------------------------|---------------------------------------------------------------------|
|----------------------------------|---------------------------------------------------------------------|
|----------------------------------|---------------------------------------------------------------------|
|--5---------------------------1---|-(1)---------------------------------------------------------3-------|
|--5---------------------------1---|-(1)---------------------------------------------------------3-------|


                                                                          D5
|-(15)r-------15h17p15----15-17-|-18--17h18p17-15-17-17p15----15h17p15----15h17p15---|
|----------------------18-------|--------------------------18----------18------------|
|-------------------------------|----------------------------------------------------|
|-------------------------------|----------------------------------------------------|
|-------------------------------|----------------------------------------------------|
|-------------------------------|----------------------------------------------------|
|
|-------------------------------|----------------------------------------------------|
|-------------------------------|----------------------------------------------------|
|--(5)--------------------------|------------------------------------------7---------|
|--(5)----5-------------5--5--5-|--5---5--------5--5--5-----5--------5-----7---------|
|--(3)--3-3-3-----3-----3--3--3-|--3---3--------3--3--3-----3--------3-----5---------|
|-------------------------------|----------------------------------------------------|
|
|   ~~~~~
|-------------------------------|----------------------------------------------------|
|-------------------------------|----------------------------------------------------|
|-------------------------------|----------------------------------------------------|
|-------------------------------|----------------------------------------------------|
|--(3)--------------------------|-(3)--------------------------------------5---------|
|--(3)--------------------------|-(3)--------------------------------------5---------|


                                                       Bb5
|-17p=15----15h17p==15-17p15----15h==17p15----15h17p15----15h|
|--------18------------------18------------18----------18----|
|------------------------------------------------------------|
|------------------------------------------------------------|
|------------------------------------------------------------|
|------------------------------------------------------------|
|
|------------------------------------------------------------|
|------------------------------------------------------------|
|-(7)--------------------------------------------------------|
|-(7)-------------7-------------------------7-----------3----|
|-(5)-------------5-------------------------5-----------1----|
|---------5----------------5-------5-------------------------|
|
|  ~~~
|------------------------------------------------------------|
|------------------------------------------------------------|
|------------------------------------------------------------|
|------------------------------------------------------------|
|-(5)---------------------------------------------------1----|
|-(5)---------------------------------------------------1----|


                                                       C5
|-17--18---18b20==(18)r18-18b20==(18)-(18)r==(18)-(18)-18--|
|----------------------------------------------------------|
|----------------------------------------------------------|
|----------------------------------------------------------|
|----------------------------------------------------------|
|----------------------------------------------------------|
|
|----------------------------------------------------------|
|----------------------------------------------------------|
|-------------------------------------------------------5--|
|-(3)---------------3-------------------3--3---3--------5--|
|-(1)----1----------1------1------------1--1---1--------3--|
|----------------------------------------------------------|
|
|  ~~~
|----------------------------------------------------------|
|----------------------------------------------------------|
|----------------------------------------------------------|
|----------------------------------------------------------|
|-(1)---------------------------------------------------3--|
|-(1)---------------------------------------------------3--|


                               F5             G5            D5
|-(18)-17-15-17-17h18p17p15-17p15-|----------------------------|
|---------------------------------|-18--17-15-15-(15)\---13s15-|
|---------------------------------|----------------------------|
|---------------------------------|----------------------------|
|---------------------------------|----------------------------|
|---------------------------------|----------------------------|
|
|---------------------------------|----------------------------|
|---------------------------------|----------------------------|
|--(5)----------------------------|--------------------------7-|
|--(5)-----5-----------5-----5--3-|-(3)--------5--(5)--------7-|
|--(3)--3--3--3--3-----3-----3--3-|-(3)--------5--(5)--------5-|
|-------------------------------1-|-(1)--1--1--3--(3)--3--3----|
|
|   ~~~~
|---------------------------------|----------------------------|
|---------------------------------|----------------------------|
|---------------------------------|----------------------------|
|---------------------------------|----------------------------|
|--(3)--------------------------3-|-(3)--------5--(5)--------5-|
|--(3)--------------------------1-|-(1)--------3--(3)--------5-|


                            Bb5                                       C5
|---------------------15-15h17h18-|-17p=15-17p15----------------------17-|
|-(15)-17-18-15-17-18-------------|--------------18p17-18p17-15-17-18----|
|---------------------------------|--------------------------------------|
|---------------------------------|--------------------------------------|
|---------------------------------|--------------------------------------|
|---------------------------------|--------------------------------------|
|
|---------------------------------|--------------------------------------|
|---------------------------------|--------------------------------------|
|--(7)----------------------------|------------------------------------5-|
|--(7)-----7--------7--------3----|-(3)-----------3-----------3--3--3--5-|
|--(5)-----5--------5--------1----|-(1)-----1-----1-----1-----1--1--1--3-|
|-------5-----5--5----------------|--------------------------------------|
|
|   ~~~~                             ~~~
|---------------------------------|--------------------------------------|
|---------------------------------|--------------------------------------|
|---------------------------------|--------------------------------------|
|---------------------------------|--------------------------------------|
|--(5)-----------------------1----|-(1)--------------------------------3-|
|--(5)-----------------------1----|-(1)--------------------------------3-|


                                                   B5
                                                   Gtrs II, III
                                                     |
                                                     /

|-----------20-------20----|-----20----20-(20)-----(20)\-|
|-18--17-18----17-18----17-|-18-----17-------------------|
|--------------------------|-----------------------------|
|--------------------------|-----------------------------|
|--------------------------|-----------------------------|
|--------------------------|-----------------------------|
|
|--------------------------|-----------------------------|
|--------------------------|-----------------------------|
|-(5)----------------------|-----------------------------|
|-(5)-----5--------5--5--5-|--5---5--5--5---5--5-5-------|
|-(3)--3--3--3--3--3--3--3-|--3---3--3--3---3--3-3-------|
|--------------------------|-----------------------------|
|
|  ~~~
|--------------------------|-----------------------------|
|--------------------------|-----------------------------|
|--------------------------|-----------------------------|
|--------------------------|-----------------------------|
|-(3)----------------------|-(3)-------------------------|
|-(3)----------------------|-(3)-------------------------|


 Interlude 2:24
  B5             F#5         G5          A5
  |  | |  | |  |  |     |  |||  |   |  |  |
  /  / /  / /  /  /     /  ///  /   /  /  /

                        ~~~~~~~~~~~
|------9-10-9-------|-----------------------|
|---12--------12----|--------------10-12-10-|
|----------------11-|-(11)----(11)----------|
|-------------------|-----------------------|
|-------------------|-----------------------|
|-------------------|-----------------------|
|
| Gtr IV
|                       ~~~~~~~~~~~
|-------------------|-----------------------|
|---------7---------|-----------------------|
|----7-9----9--7--7-|--(7)-----(7)--6--7--6-|
|-------------------|-----------------------|
|-------------------|-----------------------|
|-------------------|-----------------------|


                   D5          E5        B5
    |  |||  |  | | |    |  | | |  |  | | |
    /  ///  /  / / /    /  / / /  /  / / /

    ~~~~~~~~~~~
|--------------------|----------------------|
|-(10)----(10)-8-7-8-|-(8)-7---7-(7)--------|
|--------------------|-------9-------9-7-7--|
|--------------------|----------------------|
|--------------------|----------------------|
|--------------------|----------------------|
|
|   ~~~~~~~~~~~
|--------------------|----------------------|
|--------------------|----------------------|
|--(6)-----(6)-6-6-7-|-(7)-6---6-(6)--------|
|--------------------|-------9-------9-7-9--|
|--------------------|----------------------|
|--------------------|----------------------|


                    F#5          G5          A5
   |    | |  | |  |   |     |  |||  |   |  |  |
   /    / /  / /  /   /     /  ///  /   /  /  /

                            ~~~~~~~~~~~
|---------9-10-9----/14-|-(14)----(14)-12-10-12-|
|------12--------12-----|-----------------------|
|-(7)-------------------|-----------------------|
|-----------------------|-----------------------|
|-----------------------|-----------------------|
|-----------------------|-----------------------|
|
|                           ~~~~~~~~~~~
|-----------------------|-----------------------|
|------------7----------|-----------------------|
|-------7-9----9--7---7-|--(7)-----(7)--6--7--6-|
|-(9)-------------------|-----------------------|
|-----------------------|-----------------------|
|-----------------------|-----------------------|


                                               B5
    |  |||  |   | |  |     |  |  | |  |   |  |  |
    /  ///  /   / /  /     /  /  / /  /   /  /  /

    ~~~~~~~~~~~
|-(12)----(12)-10-9-10-|-(10)-9----9-(9)-----------|
|----------------------|--------12-------12-10-12--|
|----------------------|---------------------------|
|----------------------|---------------------------|
|----------------------|---------------------------|
|----------------------|---------------------------|
|
|   ~~~~~~~~~~~
|----------------------|---------------------------|
|----------------------|---------------------------|
|--(6)-----(6)---------|-----------------------/7--|
|---------------9-7--9-|--(9)-7--5-7-(7)--5--------|
|----------------------|---------------------9-----|
|----------------------|---------------------------|


                     F#5         G5          A5
    |    | |  | |  |  |     |  |||  |   |  |  |
    /    / /  / /  /  /     /  ///  /   /  /  /

                            ~~~~~~~~~~~
|----------9-10-9-------|-----------------------|
|-(12)--12--------12----|--------------10-12-10-|
|--------------------11-|-(11)----(11)----------|
|-----------------------|-----------------------|
|-----------------------|-----------------------|
|-----------------------|-----------------------|
|
|                           ~~~~~~~~~~~
|-----------------------|-----------------------|
|-------------7---------|-----------------------|
|--(7)---7-9----9--7--7-|--(7)-----(7)--6--7--6-|
|-----------------------|-----------------------|
|-----------------------|-----------------------|
|-----------------------|-----------------------|


                   D5          E5        B5
    |  |||  |  | | |    |  | | |  |  | | |
    /  ///  /  / / /    /  / / /  /  / / /

|--------------------|----------------------|
|-(10)----(10)-8-7-8-|-(8)-7---7-(7)--------|
|--------------------|-------9-------9-7-7--|
|--------------------|----------------------|
|--------------------|----------------------|
|--------------------|----------------------|
|
|   ~~~~~~~~~~~
|--------------------|----------------------|
|--------------------|----------------------|
|--(6)-----(6)-6-6-7-|-(7)-6---6-(6)--------|
|--------------------|-------9-------9-7-9--|
|--------------------|----------------------|
|--------------------|----------------------|


                    F#5          G5          A5
   |    | |  | |  |   |     |  |||  |   |  |  |
   /    / /  / /  /   /     /  ///  /   /  /  /

                            ~~~~~~~~~~~
|---------9-10-9----/14-|-(14)----(14)-12-10-12-|
|------12--------12-----|-----------------------|
|-(7)-------------------|-----------------------|
|-----------------------|-----------------------|
|-----------------------|-----------------------|
|-----------------------|-----------------------|
|
|                           ~~~~~~~~~~~
|-----------------------|-----------------------|
|------------7----------|-----------------------|
|-------7-9----9--7---7-|--(7)-----(7)--6--7--6-|
|-(9)-------------------|-----------------------|
|-----------------------|-----------------------|
|-----------------------|-----------------------|


                                               Dm
    |  |||  |   | |  |     |  |  | |  |   |  |
    /  ///  /   / /  /     /  /  / /  /   /  /

                                               Gtrs II, III
    ~~~~~~~~~~~
|-(12)----(12)-10-9-10-|-(10)-9----9-(9)-------5--|
|----------------------|--------12-------12-10-6--|
|----------------------|-----------------------7--|
|----------------------|-----------------------0--|
|----------------------|--------------------------|
|----------------------|--------------------------|
|
|   ~~~~~~~~~~~
|----------------------|--------------------------|
|----------------------|--------------------------|
|--(6)-----(6)---------|--------------------------|
|---------------9-7--9-|--(9)-7--5-7-(7)--5-------|
|----------------------|---------------------9----|
|----------------------|--------------------------|


 Bridge- 2:45
                  Dsus4                 Dm
  Gtrs II, III
       PM-----|              PM---------------|
|-(5)-------------(5)-|-(5)-------------(5)---|
|-(6)--------------8--|-(8)--------------6----|
|-(7)--------------7--|-(7)--------------7----|
|-(0)--0--0-0-(0)--0--|-(0)--0--0-0-(0)--0----|
|---------------------|-----------------------|
|---------------------|-----------------------|


                  Dsus4               Bb
       PM-----|            PM-------------|
|-(5)---------------|---------------------|
|-(6)-------------8-|-(8)-------------6---|
|-(7)-------------7-|-(7)-------------7---|
|-(0)--0--0-0-(0)-0-|-(0)--0--0-0-(0)-8---|
|-------------------|---------------------|
|-------------------|---------------------|


                    Bb6                  F5                   C              Dm
|--------------------|--------------------|--------------------|-----------5--|
|-(6)-------------8--|-(8)-------------6--|-(6)-------------5--|-(5)-------6--|
|-(7)-------------7--|-(7)-------------5--|-(5)-------------5--|-(5)-------7--|
|-(8)--0--0-0-(0)-8--|-(8)--0--0-0-(0)-3--|-(3)-------------5--|-(5)-------0--|
|--------------------|--------------------|------3--3-3-(3)----|--------------|
|--------------------|--------------------|--------------------|--------------|


                  Dsus4                 Dm
       PM-----|              PM---------------|
|-(5)-------------(5)-|-(5)-------------(5)---|
|-(6)--------------8--|-(8)--------------6----|
|-(7)--------------7--|-(7)--------------7----|
|-(0)--0--0-0-(0)--0--|-(0)--0--0-0-(0)--0----|
|---------------------|-----------------------|
|---------------------|-----------------------|


                  Dsus4               Bb
       PM-----|            PM-------------|
|-(5)---------------|---------------------|
|-(6)-------------8-|-(8)-------------6---|
|-(7)-------------7-|-(7)-------------7---|
|-(0)--0--0-0-(0)-0-|-(0)--0--0-0-(0)-8---|
|-------------------|---------------------|
|-------------------|---------------------|


                    Bb6                  F5                   C            D5
|--------------------|--------------------|--------------------|--------------|
|-(6)-------------8--|-(8)-------------6--|-(6)-------------5--|-(5)-------3--|
|-(7)-------------7--|-(7)-------------5--|-(5)-------------5--|-(5)-------2--|
|-(8)--0--0-0-(0)-8--|-(8)--0--0-0-(0)-3--|-(3)-------------5--|-(5)-------0--|
|--------------------|--------------------|------3--3-3-(3)----|--------------|
|--------------------|--------------------|--------------------|--------------|


 Chorus- 3:08
            F5            Bb5           C5            G5
|-------------|-------------|-------------|-------------|
|-(3)-------6-|-(6)---------|-------------|-------------|
|-(2)-------5-|-(5)-------3-|-(3)-------5-|-(5)-------0-|
|-(0)-------3-|-(3)-------3-|-(3)-------5-|-(5)-------0-|
|-----------3-|-(3)-------1-|-(1)-------3-|-(3)---------|
|-------------|-------------|-------------|-------------|


            Bb5           F5            C5                                 D5
|-------------|-------------|-------------|-----------------------------------|
|-------------|-------------|-------------|---------------------------------3-|
|-(0)-------3-|-(3)---------|-----------5-|-(5)-----------------------------2-|
|-(0)-------3-|-(3)-------3-|-(3)-------5-|-(5)-----------------------------0-|
|-----------1-|-(1)-------3-|-(3)-------3-|-(3)-------------------------------|
|-------------|-----------1-|-(1)---------|-----------------------------------|
|
| Gtr I
|-------------|-------------|-------------|------------10---------------------|
|-------------|-------------|-------------|-----/10-13------------------------|
|-------------|-------------|-------------|---------------12b14r(12)-10-------|
|-------------|-------------|-------------|-----------------------------12-12-|
|-------------|-------------|-------------|-----------------------------------|
|-------------|-------------|-------------|-----------------------------------|


             F5            Bb5           C5                                G5
|--------------|-------------|-------------|---------------------------------|
|--(3)---------|-------------|-------------|---------------------------------|
|--(2)---------|-----------3-|-(3)-------5-|-(5)---------------------------0-|
|--(0)-------3-|-(3)-------3-|-(3)-------5-|-(5)---------------------------0-|
|------------3-|-(3)-------1-|-(1)-------3-|-(3)-----------------------------|
|------------1-|-(1)---------|-------------|---------------------------------|
|
|   ~~~~                                                          ~~~~~~~
|--------------|-------------|-------------|-----15b17==(15)r-15-13-(13)-----|
|--------------|-------------|-------------|---------------------------------|
|--------------|-------------|-------------|---------------------------------|
|-(12)---------|-------------|-------------|---------------------------------|
|--------------|-------------|-------------|---------------------------------|
|--------------|-------------|-------------|---------------------------------|


            Bb5           C5
|-------------|-------------|--------------------------------------|
|-------------|-------------|--------------------------------------|
|-(0)-------3-|-(3)-------5-|-(5)----------------------------------|
|-(0)-------3-|-(3)-------5-|-(5)----------------------------------|
|-----------1-|-(1)-------3-|-(3)----------------------------------|
|-------------|-------------|--------------------------------------|
|
|-------------|-------------|-----13-10-13-10-13-------------------|
|-------------|-------------|--------------------10-13-10----10----|
|-------------|-------------|-----------------------------12----12-|
|-------------|-------------|--------------------------------------|
|-------------|-------------|--------------------------------------|
|-------------|-------------|--------------------------------------|


|---------------------------------------------|
|---------------------------------------------|
|-(5)-----------------------------------------|
|-(5)-----------------------------------------|
|-(3)-----------------------------------------|
|---------------------------------------------|
|
|---------------------------------------------|
|---------------------------------------------|
|-10--12-10----10----10-12b14==(12)r(12)-10---|
|-----------12----12--------------------------|
|---------------------------------------------|
|---------------------------------------------|


 Outro 3:30
  D5                   Bb5
  Gtrs I, IV
|-------------------------|-----------------------------|
|-------------15----------|-----------------------------|
|----------14----------17-|-(17)-------15-(15)-12-14----|
|-12-14-15-------12-14----|------12-14---------------15-|
|-------------------------|-----------------------------|
|-------------------------|-----------------------------|
|
| Gtrs II, III
|  PM---------------|                       PM------------|
|-------------------------|-------------------------------|
|-------------------------|-------------------------------|
|-------------------------|-------------------------------|
|--7--7--7--7--7--7--7--3-|--(3)--3--3------3---3--3------|
|--5--5--5--5--5--5--5--1-|--(1)--1--1------1---1--1------|
|-------------------------|-------------------------------|


  D5                   C5
|-------------------------|-----------------------------|
|-------------15----------|-----------------------------|
|----------14----------17-|-(17)-------15-(15)-12-14----|
|-12-14-15-------12-14----|------12-14---------------15-|
|-------------------------|-----------------------------|
|-------------------------|-----------------------------|
|
|  PM---------------|                       PM------------|
|-------------------------|-------------------------------|
|-------------------------|-------------------------------|
|-------------------------|-------------------------------|
|--7--7--7--7--7--7--7--5-|--(5)--5--5------5---5--5------|
|--5--5--5--5--5--5--5--3-|--(3)--3--3------3---3--3------|
|-------------------------|-------------------------------|


  D5                   Bb5                           C5
|-------------------------|-----------------------------|
|-------------15----------|-----------------------------|
|----------14----------17-|-(17)-------15-(15)-12-14----|
|-12-14-15-------12-14----|------12-14---------------15-|
|-------------------------|-----------------------------|
|-------------------------|-----------------------------|
|
|  PM---------------|                       PM------------|
|-------------------------|-------------------------------|
|-------------------------|-------------------------------|
|-------------------------|-------------------------------|
|--7--7--7--7--7--7--7--3-|--(3)--3--3------3---3--3--5---|
|--5--5--5--5--5--5--5--1-|--(1)--1--1------1---1--1--3---|
|-------------------------|-------------------------------|


|--------------------------|---------------------------|
|--------------15----------|---------------15----------|
|-----------14----14-------|------------14----14-------|
|-12--14-15----------15-12-|-(12)-14-15----------15-12-|
|--------------------------|---------------------------|
|--------------------------|---------------------------|
|
|      PM---------------|          PM--------------------|
|--------------------------|-----------------------------|
|--------------------------|-----------------------------|
|--------------------------|-----------------------------|
|-(5)--5--5--5--5--5--5--5-|--(5)--5--5--5--5--5--5--5---|
|-(3)--3--3--3--3--3--3--3-|--(3)--3--3--3--3--3--3--3---|
|--------------------------|-----------------------------|


                                                     D5
|---------------------------|--------------------------|-----*|
|---------------15----------|---------------15---------|-----*|
|------------14----14-------|------------14----14------|-----*|
|-(12)-14-15----------15-12-|-(12)-14-15----------15-0-|-----*|
|---------------------------|------------------------0-|-----*|
|---------------------------|--------------------------|-----*|
|
|       PM---------------|          PM--------------------------|
|---------------------------|--------------------------|--------|
|---------------------------|--------------------------|--------|
|---------------------------|--------------------------|--------|
|--(5)--5--5--5--5--5--5--5-|--(5)--5--5--5--5--5--5-7-|--------|
|--(3)--3--3--3--3--3--3--3-|--(3)--3--3--3--3--3--3-5-|--------|
|---------------------------|--------------------------|--------|

3.NO MORE LIES

Intro (finger pick)

e-------------------------------------------------------------------------------------------|
B-------------------------------------------------------------------------------------------|
G---7-9-7-9-7-9-7-9-9-7-9-7-9-9-7-9-10---9-7-9-7--------------------------------------------|
D-7----------------------------------------------10-10-9-10-9-10-10-9-10-9-7-7-5-7-5-7-5----|  x2
A----------------------------------------------------------------------------------------7--|
E-------------------------------------------------------------------------------------------|

Intro 2

e-------------------------------------------------------------------|
B-------------------------------------------------------------------|
G---9-9-9-9-7-9---9-9-9-9-10-9-7-9---9-9-9-9-7-9---9-9-9-9-10-9-7-9-|
D-7-------------7------------------7-------------7------------------| x2
A-------------------------------------------------------------------|
E-------------------------------------------------------------------|

on last one insted of -9-9-9-9-10-9-7-9- do -9-9-9-9-10-9-10-9

Intro 3

e--------------------------------------------------------------------|
B-10-10-12-13--10-10-12-13--10-10-12-13-15-13-12-13-12-10 -----------|
G--------------------------------------------------------------------|
D--------------------------------------------------------------------| x4
A--------------------------------------------------------------------|
E--------------------------------------------------------------------|

Verse 1

e----------------------------------------------------------------------|
B----------------------------------------------------------------------|
D----------------------------------------------------------------------|
G----------------------------------------------------------------------|
A---7---7---7---7---3---3---3---3---5---5---5---5---5---5---5---5------|
E-5---5---5---5---1---1---1---1---3---3---3---3---3---3---3---3--------|

Chorus and Verses 2 & 3

e----------------------------------------------------------------------------------------|
B----------------------------------------------------------------------------------------|
G----------------------------------------------------------------------------------------|
D-7-7-7-7-7--7-7-7-7-7--3-3-3-3-3--3-3-3-3-3--5-5-5-5-5--5-5-5-5-5--5-5-5-5-5--5-5-5-5-5-|
A-7-7-7-7-7--7-7-7-7-7--3-3-3-3-3--3-3-3-3-3--5-5-5-5-5--5-5-5-5-5--5-5-5-5-5--5-5-5-5-5-|
E-5-5-5-5-5--5-5-5-5-5--1-1-1-1-1--1-1-1-1-1--3-3-3-3-3--3-3-3-3-3--3-3-3-3-3--3-3-3-3-3-|

4.MONTSEGUR

Intro:
e-------------------------------------|
B-------------------------------------|
G-------------------------------------|
D-------------------------------------|
A--------------------0h2--------------|
E-0-0-0-2-0-0-3-0-0-------------------|

e-------------------------------------|
B-------------------------------------|
G-------------------------------------|
D-------------------------------------|
A-------------------5-3-2-------------|
E-0-0-0-2-0-0-3-0-0-------------------|

e-------------------------------------|
B-------------------------------------|
G-------------------------------------|
D-------------------------------------|
A--------------------0h2--------------|
E-0-0-0-2-0-0-3-0-0-------------------|

e-------------------------------------|
B-------------------------------------|
G-------------------------------------|
D-------------------------------------|
A-5-5-5-3-3-3-2-5-3-2-----------------|
E---------------------5-3-------------|


Verse:
e-----------------------------------------------------|
B-----------------------------------------------------|
G-------------------------5------5--------------------|
D-----2-----5------5----5------5--------5------2~~----| 2x
A---2-----5------5----3------3--------5------2--------|
E-0-----2------3--------------------3------0----------|
pm. . . . . .  . . .  . . .  . . .  . . .  . .

e-----------------------------------------------|
B-----------------------------------------------|
G-----------------------------------------------|
D--------------5-5-5-5-7-7-9-9--9-9-9-9-9-9-7---| 2x
A-2-2-4-4-5-5--3-3-3-3-5-5-7-7--7-7-7-7-7-7-5---|
E-0-0-2-2-3-3-----------------------------------|

Chorus Gtr 1:
e-------------------------------------|
B-12---------10--------8--------------|
G----12---------11--------9-----------|
D-------14---------12--------10~------|
A-------------------------------------|
E-------------------------------------|

e--------------------------------------|
B--8--------10---------12--------------|
G----9---------11--------12------------|
D------10---------12-------14----------|
A--------------------------------------|
E--------------------------------------|

e-------------------------------------|
B-12---------10--------8--------------|
G----12---------11--------9-----------|
D-------14---------12--------10~------|
A-------------------------------------|
E-------------------------------------|

e-------------------------------------|
B--8---------7------------------------|
G-----9---------7---------------------|
D-------10---------9---9--7--5~-------|
A-------------------------------------|
E-------------------------------------|
I'm not 100% confident with this but i think that its pretty close.

Chorus rhythm Gtr 2:
e-------------------------------------|
B-------------------------------------|
G-9--7--5--5--7--9--------------------|
D-9--7--5--5--7--9--------------------|
A-7--5--3--3--5--7--------------------|
E-------------------------------------|

third time
e-------------------------------------|
B-------------------------------------|
G-9--7--5--5-------9------------------|
D-9--7--5--5--5----9------------------|
A-7--5--3--3--5----7------------------|
E-------------3-----------------------|

Verse solo Gtr 1 'as we kill them all...':
e-------------------------------------|
B-------------9-10-12-10-9~-----------|
G-9-11-9-9-11-------------------------|
D-------------------------------------|
A-------------------------------------|
E-------------------------------------|

e-------------------------------------|
B-----------------9-10-9--------------|
G-7-7-9-7-7-9/11---------9~-----------|
D-------------------------------------|
A-------------------------------------|
E-------------------------------------|

Rhythm Gtr 2:
e-------------------------------------|
B-------------------------------------|
G---9------------7--------------------|
D---9--9--7------7--7--2--------------|
A---7--9--7------5--7--2--------------|
E------7--5---------5--0--------------|


Repeat intro

Main solo rhythm:
e-----------------------------------------------------|
B-----------------------------------------------------|
G-------------------------5------5--------------------|
D-----2-----5------5----5------5--------5------2-~~---|
A---2-----5------5----3------3--------5------2--------|
E-0-----2------3--------------------3------0----------|

e-------------------------------------------|
B-------------------------------------------|
G-------------------------5------7------9---|
D-----2-----5------5----5------7------9-----|
A---2-----5------5----3------5------7-------|
E-0-----2-----3-----------------------------|

Follows solo:
e-------------------------------------|
B--12-10-8--10--8h10p8-7--8--7--------|
G-------------------------------------|
D--------------------------------10~--|
A-------------------------------------|
E-------------------------------------|

e-------------------------------------|
B-8-7----10-8-7--12--10--8~-----------|
G-----9-------------------------------|
D-------------------------------------|
A-------------------------------------|
E-------------------------------------|

Bridge Gtr 1:
e-------------------------------------|
B--5h7p5p3-5-7-5~--1h3p0-1-3-1~-------|
G-------------------------------------|
D-------------------------------------|
A-------------------------------------|
E-------------------------------------|

e------------------------5------------|
B--5h7p5p3-5-7-5~--5-8-5---7~---------|
G-------------------------------------|
D-------------------------------------|
A-------------------------------------|
E-------------------------------------|

e------------------------------5b7r5~---------------|
B-5h7p5p3-5-7-5~---5h7p5p3-5------------------------|
G---------------------------------------------------|
D---------------------------------------------------|
A---------------------------------------------------|
E---------------------------------------------------|

e------------------------5------------|
B--5h7p5p3-5-7-5~--5-8-5---7~---------|
G-------------------------------------|
D-------------------------------------|
A-------------------------------------|
E-------------------------------------|

Bridge harmony Gtr 2:
e-----------------------------------------------------|
B-------------------------------------------13b15r13~-|
G--12h14p12p11-12-14-12~---12h14p12p11-12-------------|
D-----------------------------------------------------|
A-----------------------------------------------------|
E-----------------------------------------------------|

e----------------------------------------------------------|
B-------------------------------12-------15----------------|
G--12h14p12p11-12-14-12~----12------12------14-------------|
D----------------------------------------------------------|
A----------------------------------------------------------|
E----------------------------------------------------------|

Last Chorus Gtr 1:
e---------------------------------------------|
B--------------------------14-15-14-----------|
G----13-13-14-13-13-14-16------------14~------|
D---------------------------------------------|
A---------------------------------------------|
E---------------------------------------------|

e--------------------------------------------|
B-----------------------12--14-12------------|
G--11-11-13-11-11-13-14------------13~-------|
D--------------------------------------------|
A--------------------------------------------|
E--------------------------------------------|

Rhythm Gtr 2:
e-------------------------------------|
B-------------------------------------|
G---9------------7--------------------|
D---9--9--7------7--7--2--------------|
A---7--9--7------5--7--2--------------|
E------7--5---------5--0--------------|

e-------------------------------------|
B-------------------------------------|
G--9---------7------------------------|
D--9-9--7----7--5---2-----------------|
A--7-9--7----5--5---2-----------------|
E----7--5-------3---0-----------------|

5.DANCE OF DEATH

Intro:
Guitar 1
    E           G/F#        D
e|-------------------------------------|
B|-------------------------------------|
G|-------------------------------------|
D|----9---9------12--12-------7---7----|\
A|--7---7---7---9---9---9---5---5---5--| \
E|-------------------------------------|  \
    C           C           D              \
e|--------------------------------------------|    \
B|--------------------------------------------|     \
G|--------------------------------------------|     2x
D|----5---5-------5---5-------7---7-----------|     /
A|--3---3---3---3---3---3---5---5---5---------|    /
E|--------------------------------------------|   /
    E           E                         /
e|----------------------------------------|             /
B|----------------------------------------|            /
G|----------------------------------------|           /
D|----9---9-------9---9-------------------|_________/
A|--7---7---7---7---7---7-----------------|
E|----------------------------------------|
    E           G/F#        D
e|-------------------------------------|
B|-------------------------------------|
G|-------------------------------------|
D|----9---9------12--12-------7---7----|
A|--7---7---7---9---9---9---5---5---5--|
E|-------------------------------------|
    A           C           D
e|-------------------------------------|
B|-------------------------------------|
G|-------------------------------------|
D|----2---2-------5---5-------7---7----|
A|--0---0---0---3---3---3---5---5---5--|
E|-------------------------------------|
    E           E
e|-------------------------|
B|-------------------------|
G|-------------------------|
D|----9---9-------9---9----|
A|--7---7---7---7---7---7--|
E|-------------------------|

Guitar 2
e|-----------------------7-7-----------------|
B|------7---8--10-8----------10--8-7---------|
G|--9----------------9---------------9-------|
D|-------------------------------------------|
A|-------------------------------------------|
E|-------------------------------------------|

e|--7-7-10--7-----------------7-7------------|
B|------------10--8--10-8---------10--8-7----|
G|------------------------9---------------9--|
D|-------------------------------------------|
A|-------------------------------------------|
E|-------------------------------------------|

Vers 1: 2x
Guitar 1
    E           G/F#        D
e|-------------------------------------|
B|-------------------------------------|
G|-------------------------------------|
D|----9---9------12--12-------7---7----|
A|--7---7---7---9---9---9---5---5---5--|
E|-------------------------------------|
    C           C           D
e|-------------------------------------|
B|-------------------------------------|
G|-------------------------------------|
D|----5---5-------5---5-------7---7----|
A|--3---3---3---3---3---3---5---5---5--|
E|-------------------------------------|
    E           E
e|-------------------------|
B|-------------------------|
G|-------------------------|
D|----9---9-------9---9----|
A|--7---7---7---7---7---7--|
E|-------------------------|
    E           G/F#        D
e|-------------------------------------|
B|-------------------------------------|
G|-------------------------------------|
D|----9---9------12--12-------7---7----|
A|--7---7---7---9---9---9---5---5---5--|
E|-------------------------------------|
    A           C           D
e|-------------------------------------|
B|-------------------------------------|
G|-------------------------------------|
D|----2---2-------5---5-------7---7----|
A|--0---0---0---3---3---3---5---5---5--|
E|-------------------------------------|
    E           E
e|-------------------------|
B|-------------------------|
G|-------------------------|
D|----9---9-------9---9----|
A|--7---7---7---7---7---7--|
E|-------------------------|

Vers 2: 2x
Guitar 1
| E5 | G5/F# | D5 | C5 |

| C5 | D5 | E5 | E5 |

| E5 | G5/F# | D5 | A5 |

| C5 | D5 | E5 | E5 |

Guitar 2
e|--------------------------------|
B|--------------------------------|
G|--(9)-(9)-9--7------------------|
D|---------------10-9-7-9-10-9~~--| 3x
A|--------------------------------|
E|--------------------------------|

Vers 3:
| E5 | G5/F# D5 | 2x
                        ___
| E5 | G5/F# | D5 | C5 |   \
                            \
| C5 | D5 | E5 | G5/F# D5 |  \
                             2x
| E5 | G5/F# | D5 | A5 |     /
                            /
| C5 | D5 | E5 | G5/F# D5 |/

| E5 | G5/F# | D5 | C5 |

| C5 | D5 | E5 | G5/F# D5 |

| E5 | G5/F# | D5 | A5 |

| C5 | D5 | Em |

Bridge:
e|-----------------|
B|----7-8-7--------|
G|--9-------9-7-9--|
D|-----------------| 3x
A|-----------------|
E|-----------------|

e|-----------------|
B|----7-7--7-7-7---|
G|--9--------------|
D|-----------------|
A|-----------------|
E|-----------------|

e|-----------------|
B|----7-8-7--------|
G|--9-------9-7-9--|
D|-----------------|
A|-----------------|
E|-----------------|

e|----------------------7------------|\-----|
B|----7-8-7---7-8--8-10---10-8-7-8----------| \
G|--9-------9-------------------------------|  \
D|------------------------------------------|   \
A|------------------------------------------|    \
E|------------------------------------------|     \
                                           2x
e|------------------------------------------|     /
B|----7-8-7-----7----7-8-7------------------|    /
G|--9-------9-7----9-------9-7-9------------|   /
D|------------------------------------------|  /
A|------------------------------------------| /
E|------------------------------------------|

e|-----------------|\-----|
B|----7-8-7---------------| \
G|--9-------9-7-9---------|  \
D|------------------------| 2x\
A|------------------------|    \
E|------------------------|     \
                          \
e|---------------------------|       \
B|----7-7--7-7-7-------------|        \
G|--9------------------------|        2x
D|---------------------------|        /
A|---------------------------|       /
E|---------------------------|      /
                         /
e|-------------------|    /
B|----7-8-7----------|   /
G|--9-------9-7-9----|  /
D|-------------------| /
A|-------------------|
E|-------------------|

e|----------------------7------------|\-----|
B|----7-8-7---7-8--8-10---10-8-7-8----------| \
G|--9-------9-------------------------------|  \
D|------------------------------------------|   \
A|------------------------------------------|    \
E|------------------------------------------|     \
                                           2x
e|------------------------------------------|     /
B|----7-8-7-----7----7-8-7------------------|    /
G|--9-------9-7----9-------9-7-9------------|   /
D|------------------------------------------|  /
A|------------------------------------------| /
E|------------------------------------------|

Chorus:
Guitar 1
| E5 | G5 | D5 | E5 | 4x

Guitar 2
e|----------------------|
B|----------------------|
G|----------------------|
D|--10-9-7----7---------|
A|---------10---10-9-7--|
E|----------------------|

| C5 | B5 |

e|----------------------|
B|----------------------|
G|----------------------|
D|--10-9-7----7---------|
A|---------10---10-9-7--|
E|----------------------|

| C5 | B5 |

Bridge 2: 2x
e|-----------------|\-----|
B|----7-8-7---------------| \
G|--9-------9-7-9---------|  \
D|------------------------| 2x\
A|------------------------|    \
E|------------------------|     \
                          \
e|---------------------------|       \
B|----7-7--7-7-7-------------|        \
G|--9------------------------|        2x
D|---------------------------|        /
A|---------------------------|       /
E|---------------------------|      /
                         /
e|-------------------|    /
B|----7-8-7----------|   /
G|--9-------9-7-9----|  /
D|-------------------| /
A|-------------------|
E|-------------------|

e|----------------------7------------|\-----|
B|----7-8-7---7-8--8-10---10-8-7-8----------| \
G|--9-------9-------------------------------|  \
D|------------------------------------------|   \
A|------------------------------------------|    \
E|------------------------------------------|     \
                                           2x
e|------------------------------------------|     /
B|----7-8-7-----7----7-8-7------------------|    /
G|--9-------9-7----9-------9-7-9------------|   /
D|------------------------------------------|  /
A|------------------------------------------| /
E|------------------------------------------|

Solo:

(Chorus)

| F#5 | D5 | E5 | F#5 | 6x

| E5 | G5 | D5 | E5 | 10x

(Bridge 2) 3x

| D5 E5 | G5 E5 | D5 E5 |

Outro:

(Intro)

    E           G/F#        D
e|-------------------------------------|
B|-------------------------------------|
G|-------------------------------------|
D|----9---9------12--12-------7---7----|
A|--7---7---7---9---9---9---5---5---5--|
E|-------------------------------------|
    C           C           D
e|-------------------------------------|
B|-------------------------------------|
G|-------------------------------------|
D|----5---5-------5---5-------7---7----|
A|--3---3---3---3---3---3---5---5---5--|
E|-------------------------------------|
    E           E
e|-------------------------|
B|-------------------------|
G|-------------------------|
D|----9---9-------9---9----|
A|--7---7---7---7---7---7--|
E|-------------------------|
    E           G/F#        D
e|-------------------------------------|
B|-------------------------------------|
G|-------------------------------------|
D|----9---9------12--12-------7---7----|
A|--7---7---7---9---9---9---5---5---5--|
E|-------------------------------------|
    A           C           D
e|-------------------------------------|
B|-------------------------------------|
G|-------------------------------------|
D|----2---2-------5---5-------7---7----|
A|--0---0---0---3---3---3---5---5---5--|
E|-------------------------------------|
    Em
e|------------7--------|
B|----------8----------|
G|--------9---------8--|
D|------9--------9-----|
A|----7----------------|
E|--7------------------|

6.GATES OF TOMORROW

Intro
|---------------------------------------------------------|
|--9-7-7-9-7-7-10-7-7-9-7-7-10-7-9-7-7\\\-----------------|
|--7-7-7-7-7-7-7--7-7-7-7-7-7--7-7-7-7\\\-----------------|
|---------------------------------------------------------|
|---------------------------------------------------------|
|---------------------------------------------------------|

|---------------------------------------------------------|
|--5-5-5-7-5-5-8-5-5-7-5-5-8-5-7-///----------------------|
|--5-5-5-5-5-5-5-5-5-5-5-5-7-5-5-///----------------------|
|---------------------------------------------------------|
|---------------------------------------------------------|
|---------------------------------------------------------|

|---------------------------------------------------------|
|--9-7-7-9-7-7-10-7-7-9-7-7-10-7-9-7-7\\\-----------------|
|--7-7-7-7-7-7-7--7-7-7-7-7-7--7-7-7-7\\\-----------------|
|---------------------------------------------------------|
|---------------------------------------------------------|
|---------------------------------------------------------|

|---------------------------------------------------------|
|--5-5-5-7-5-5-8-5-5-7-5-5-8-5-7-///----------------------|
|--5-5-5-5-5-5-5-5-5-5-5-5-7-5-5-///----------------------|
|---------------------------------------------------------|
|---------------------------------------------------------|
|---------------------------------------------------------|

|---------------------------------------------------------|
|--9-7-7-9-7-7-10-7-7-9-7-7-10-7-9-7-7\\\-----------------|
|--7-7-7-7-7-7-7--7-7-7-7-7-7--7-7-7-7\\\-----------------|
|---------------------------------------------------------|
|---------------------------------------------------------|
|---------------------------------------------------------|

|---------------------------------------------------------|
|--5-5-5-7-5-5-8-5-5-7-5-5-8-5-7-\\\----------------------|
|--5-5-5-5-5-5-5-5-5-5-5-5-7-5-5-\\\----------------------|
|---------------------------------------------------------|
|---------------------------------------------------------|
|---------------------------------------------------------|

|---------------------------------------------------------|
|--3-3-3-5-3-3-6-3-3-5-3-3-6-3-5-///----------------------|
|--3-3-3-3-3-3-3-3-3-3-3-3-3-3-3-///----------------------|
|---------------------------------------------------------|
|---------------------------------------------------------|
|---------------------------------------------------------|

|---------------------------------------------------------|
|--5-5-5-7-5-5-8-5-5-7-5-5-8-5-7-\\\----------------------|
|--5-5-5-5-5-5-5-5-5-5-5-5-7-5-5-\\\----------------------|
|---------------------------------------------------------|
|---------------------------------------------------------|
|---------------------------------------------------------|

|---------------------------------------------------------|
|--3-3-3-5-3-3-6-3-3-5-3-3-6-3-5-///----------------------|
|--3-3-3-3-3-3-3-3-3-3-3-3-3-3-3-///----------------------|
|---------------------------------------------------------|
|---------------------------------------------------------|
|---------------------------------------------------------|

|---------------------------------------------------------|
|--5-5-5-7-5-5-8-5-5-7-5-5-8-5-7-\\\----------------------|
|--5-5-5-5-5-5-5-5-5-5-5-5-7-5-5-\\\----------------------|
|---------------------------------------------------------|
|---------------------------------------------------------|
|---------------------------------------------------------|

|---------------------------------------------------------|
|--9-7-7-9-7-7-10-7-7-9-7-7-10-7-9-7-7\\\-----------------|
|--7-7-7-7-7-7-7--7-7-7-7-7-7--7-7-7-7\\\-----------------|
|---------------------------------------------------------|
|---------------------------------------------------------|
|---------------------------------------------------------|

|---------------------------------------------------------|
|--5-5-5-7-5-5-8-5-5-7-5-5-8-5-7-\\\----------------------|
|--5-5-5-5-5-5-5-5-5-5-5-5-7-5-5-\\\----------------------|
|---------------------------------------------------------|
|---------------------------------------------------------|
|---------------------------------------------------------|

|---------------------------------------------------------|
|--9-7-7-9-7-7-10-7-7-9-7-7-10-7-9-7-7\\\-----------------|
|--7-7-7-7-7-7-7--7-7-7-7-7-7--7-7-7-7\\\-----------------|
|---------------------------------------------------------|
|---------------------------------------------------------|
|---------------------------------------------------------|

|---------------------------------------------------------|
|--5-5-5-7-5-5-8-5-5-7-5-5-8-5-7-\\\----------------------|
|--5-5-5-5-5-5-5-5-5-5-5-5-7-5-5-\\\----------------------|
|---------------------------------------------------------|
|---------------------------------------------------------|
|---------------------------------------------------------|

|---------------------------------------------------------|
|--3-3-3-5-3-3-6-3-3-5-3-3-6-3-5-///----------------------|
|--3-3-3-3-3-3-3-3-3-3-3-3-3-3-3-///----------------------|
|---------------------------------------------------------|
|---------------------------------------------------------|
|---------------------------------------------------------|

|---------------------------------------------------------|
|--5-5-5-7-5-5-8-5-5-7-5-5-8-5-7-\\\----------------------|
|--5-5-5-5-5-5-5-5-5-5-5-5-7-5-5-\\\----------------------|
|---------------------------------------------------------|
|---------------------------------------------------------|
|---------------------------------------------------------|

|---------------------------------------------------------|
|--3-3-3-5-3-3-6-3-3-5-3-3-6-3-5-///----------------------|
|--3-3-3-3-3-3-3-3-3-3-3-3-3-3-3-///----------------------|
|---------------------------------------------------------|
|---------------------------------------------------------|
|---------------------------------------------------------|

|---------------------------------------------------------|
|--5-5-5-7-5-5-8-5-5-7-5-5-8-5-7-\\\----------------------|
|--5-5-5-5-5-5-5-5-5-5-5-5-7-5-5-\\\----------------------|
|---------------------------------------------------------|
|---------------------------------------------------------|
|---------------------------------------------------------|

|---------------------------------------------------------|
|--9-7-7-9-7-7-10-7-7-9-7-7-10-7-9-7-7\\\-----------------|
|--7-7-7-7-7-7-7--7-7-7-7-7-7--7-7-7-7\\\-----------------|
|---------------------------------------------------------|
|---------------------------------------------------------|
|---------------------------------------------------------|

continue till melody

Melody
|----5--7--8--10--8--7--5--7--8--10---------(x2)----------|
|---------------------------------------------------------|
|---------------------------------------------------------|
|---------------------------------------------------------|
|---------------------------------------------------------|
|---------------------------------------------------------|

|---------------------------------------------------------|
|---7--9--10--12--10--9--7--9--10--12---------------------|
|---------------------------------------------------------|
|---------------------------------------------------------|
|---------------------------------------------------------|
|---------------------------------------------------------|

|---------------------------------------------------------|
|-------7--9--10-9--7-----7--9--10--9--7------------------|
|---9------------------9----------------------------------|
|---------------------------------------------------------|
|---------------------------------------------------------|
|---------------------------------------------------------|

7.NEW FRONTIER

Intro
|-------------------------------------------------------------------------------|
|------6------------------6-----------------------------------------------------|
|--7---5----5---------7---5---5----------------10--------10--------10--------10-|
|--7---3----5----5----7---3---5---5----5///12------12--0-----12--0----12--0-----|
|--5---3----3----5----5---3---3---5---------------------------------------------|
|----------------3----------------3---------------------------------------------|

|-------------------------------------------------------------------------------|
|-------------------------------------------------------------------------------|
|-----------------------------------------------------------------3-------5-----|
|--------10---------10---------10--------9---------7--------5-----3-------5-----|
|-12--0------12--0------12--0------12--0----10--0-----9--0----7---1-------3-----|
|-------------------------------------------------------------------------------|

Verse
|-------------------------------------------------------------------------------\\----|
|------------------------------------------------------------------------------- \\---|
|---------------------------------------------------------7---------------------  \\--|repeat 4 times
|-----9--9--9--------9------6--7--9--------9---9--9-------7--10-9--9------------------|  /
|-----7--7--7--------7------7--7--7--------7---7--7-------------7--7------------------| /
|--0-----------0--0-----0-0---0--0---0--0------------0--0-----------------------------|

------------------------------------------------------------|
------------------------------------------------------------|
------------------------------------------------------------|
-7---7--7------4--5--5--7--5---5--5--------2--3-----5-------|
-5---5--5------5--5--5--5--3---3--3--3--3--3--3-----3-------|
----------0--0-----------------------------------------0----| back to verse

pre chorus
|----------------------------------------------------------------------|
|----------------------------------------------------------------------|
|----------------------------------------------------------------------|
|--2-------------3--------------5-------------3----------3-----5-----3-|
|--0-------------1--------------3-------------1----------1-----3-----1-|
|----------------------------------------------------------------------|repeat 2

chorus
|-------------------------------------------------------------------------|
|-------------------------------------------------------------------------|
|--------10-7---10-------10-------10-------10-------10-------10--------7--|
|-5///12------0----12--0----12--0----12--0----12--0----12--0----12--0-----|
|-------------------------------------------------------------------------|
|-------------------------------------------------------------------------|

|-------------------------------------------------------------------------|
|-------------------------------------------------------------------------|
|--------7--------5-------10-7---10------10------10--------10-------10--7-|
|--9--0-----9--0----7--0-------0----12-0----12-0----12--0-----12--0-------|
|-------------------------------------------------------------------------|
|-------------------------------------------------------------------------|

|------------------------------------------------------------------------------------|
|------------------------------------------------------------------------------------|
|----10--------10--7-----12---------14---0//7-10-7---10------10------10------10------|
|-0------12--0--------0------14--0-----------------0----12-0----12-0----12-0----0-0--|
|------------------------------------------------------------------------------------|
|------------------------------------------------------------------------------------|

|-----------------------------------------------------------------------------------|
|-----------------------------------------------------------------------------------|
|-10-10-------10------10-------14------10-------------------------------------------|
|-------12-0-----12-0-----12-0----12-0--------3---------------5---------------------|
|------------------------------------------0--1---------------3---------------------|
|-----------------------------------------------------------------------------------|

Interlude
|-------------------------------------------------------------------|
|-------------------------------------------------------------------|
|-------------------------------------------------------------------|
|-7-------7-------7---9---10--12\\-5-------5-------5---10--9---5----|
|-5-5-5-5-5-5-5-5-5---7---8---10\\-3-3-3-3-3-3-3-3-3---8---7---3----|
|-------------------------------------------------------------------|

|-----------------------------------------|
|-----------------------------------------|
|-----------------------------------------|
|-7-------7-------7--9--10--12---3----5---|
|-5-5-5-5-5-5-5-5-5--7--8---10---1----3---|
|-----------------------------------------|

SOLO
|---------------------------------------8B---------------8B-----------------|
|-------------------------------3---------------13p10---------13p10---------|
|---7(wah-wah-/-slow-dive)--------------------------------------------------|
|---------------------------------------------------------------------------|
|-----------------------------------------------------------------------12--|
|---------------------------------------------------------------------------|

|---------------13----17p13----------13h17p13----13------12----------------------|
|-----------17--------------17p13h17----------17----17p3----13p/10--13p10--------|
|-------------------------------------------------------------------------13-----|
|--------------------------------------------------------------------------------|
|-(12)\\-------------------------------------------------------------------------|
|--------------------------------------------------------------------------------|

|--------------------------------------------------------------------------------------|
|-10-----------------------------------------------------------------------------------|
|-----12p10--12p10p\\9--10p9p\\7--9----------------------------------------------------|
|----------------------------------12p10--12p10p\\8--10p8p\\7--8p7p5--7p5h8--5~~~~~----|
|--------------------------------------------------------------------------------------|
|--------------------------------------------------------------------------------------|

|-----------------------15----------15--17------15--17--18--17--15-------15----|
|----15----15--17--18-------17--18----------18----------------------18---------|
|------------------------------------------------------------------------------|
|-x----------------------------------------------------------------------------|
|------------------------------------------------------------------------------|
|------------------------------------------------------------------------------|

|------------------------------------15-17-18----------15-17-18----------15-17--------15-17--|
|--18--17--15--14---14-----15-17-18-----------15-17-18----------15-17-18---------------------|
|--------------------------------------------------------------------------------------------|
|--------------------------------------------------------------------------------------------|
|--------------------------------------------------------------------------------------------|
|--------------------------------------------------------------------------------------------|

|--------------------------------------------------------------------------------|
|--------------------------------------------------------------------------------|
|--------------------------------------------------------------------------------|
|-3------------3-------------3-----3-----3------5-----------5----5----5----5-----|
|-1------------1-------------1-----1-----1------3-----------3----3----3----------|
|--------------------------------------------------------------------------------|

|--18----15----17----18----15----17----20---20B----20---20B----------|
|--------------------------------------------------------------------|
|--------------------------------------------------------------------|
|---------------------------------------------------------------0----|
|--------------------------------------------------------------------|
|--------------------------------------------------------------------|

chords above are harmony for this bit
Interlude
|----------------------------------------------------------------------|
|----------------------------------------------------------------------|
|--7---7p3----------8---8p5--------------------------------------------|
|-----------5--5-------------5---------8--8p5--8---------7---7p4-----5-|
|-------------------------------5---5-------------5---5-----------5----|
|----------------------------------------------------------------------|

|-----------------------------------------------------------------------|
|--15--15p11----------16--16p13-----------------------------------------|
|-------------12----------------12-----15--15p12---------14--14p11------|
|----------------12----------------12------------12--12------------12---|
|-----------------------------------------------------------------------|
|-----------------------------------------------------------------------|

|-----------------------------------------------------------------------|
|-10h11-13---13--11--13--13h5---16--25--13----15--13--11----13p11-------|
|------------------------------------------------------------------12---|
|-----------------------------------------------------------------------|
|-----------------------------------------------------------------------|
|-----------------------------------------------------------------------|

|----------------------------------------------------------------------------|
|-11---11p10-----------13--13p11p10-------15--15p13p11------13--13p11p10-----|
|-------------12--12-----------------11-----------------11----------------12-|
|----------------------------------------------------------------------------|
|----------------------------------------------------------------------------|
|----------------------------------------------------------------------------|


2 guitars play now
|---------------------------|
|--10---11--13--15----------|
|---------------------------|
|---4----5---7---8----2-----|
|---------------------0-----|
|---------------------------|

|-------------------------------------------------------------------------------|
|-11---11p10-----------13--13p11p10-------15--15p13p11--------10---11\\---------|
|-------------12--12-----------------11-------------------12--------------------|
|-------------------------------------------------------------------------------|
|-------------------------------------------------------------------------------|
|-------------------------------------------------------------------------------|

chorus
|-------------------------------------------------------------------------|
|-------------------------------------------------------------------------|
|--------10-7---10-------10-------10-------10-------10-------10--------7--|
|-5///12------0----12--0----12--0----12--0----12--0----12--0----12--0-----|
|-------------------------------------------------------------------------|
|-------------------------------------------------------------------------|

|-------------------------------------------------------------------------|
|-------------------------------------------------------------------------|
|--------7--------5-------10-7---10------10------10--------10-------10--7-|
|--9--0-----9--0----7--0-------0----12-0----12-0----12--0-----12--0-------|
|-------------------------------------------------------------------------|
|-------------------------------------------------------------------------|

|------------------------------------------------------------------------------------|
|------------------------------------------------------------------------------------|
|----10--------10--7-----12---------14---0//7-10-7---10------10------10------10------|
|-0------12--0--------0------14--0-----------------0----12-0----12-0----12-0----0-0--|
|------------------------------------------------------------------------------------|
|------------------------------------------------------------------------------------|

|-----------------------------------------------------------------------------------|
|-----------------------------------------------------------------------------------|
|-10-10-------10------10-------14------10-------------------------------------------|
|-------12-0-----12-0-----12-0----12-0--------3---------------5---------------------|
|------------------------------------------0--1---------------3---------------------|
|-----------------------------------------------------------------------------------|

8.PASCHENDALE

part "A"     4x

E|-----0h10t12---0h8t12---0h7t12---0h5t12---0h7t12-------------------||
B|-------------------------------------------------------------------||
G|-------------------------------------------------------------------||
D|-------------------------------------------------------------------||
A|-------------------------------------------------------------------||
E|-------------------------------------------------------------------||

E|-----0h7t12---0h5t12---0h3t12---0h2t12---0--t12----|
B|---------------------------------------------------|
G|---------------------------------------------------|
D|---------------------------------------------------|
A|---------------------------------------------------|  don't play the last
E|--------------------------------------------  t12--| the fourth times


0:28
part "B"

E|-------------------------------------------------------------------||
B|-------------------------------------------------------------------||
G|--9-9---7-7---5-5---4-4-----5-5---4-4---2-2------------------------||
D|--9-9---7-7---5-5---4-4-----5-5---4-4---2-2---2-2------------------||
A|--7-7---5-5---3-3---2-2-----3-3---2-2---0-0---2-2------------------||
E|----------------------------------------------0-0------------------||

E|-------------------------------------------------------------------||
B|-------------------------------------------------------------------||
G|--9-9---7-7---5-5---4-4-----5-5---7-7---7-7---9-9------------------||
D|--9-9---7-7---5-5---4-4-----5-5---7-7---7-7---9-9------------------||
A|--7-7---5-5---3-3---2-2-----3-3---5-5---5-5---7-7------------------||
E|-------------------------------------------------------------------||


0:45
part "A"     3x     (don't play the last t12 the third times)


1:02
part "C - 1"     1x

E|-------------------------------------------------------------------||
B|-------------------------------------------------------------------||
G|--5-5---4-4---2-2--------------------------------------------------||
D|--5-5---4-4---2-2---5-5-------------7-7---5-5---4-4---2-2---2\0/2--||
A|--3-3---2-2---0-0---5-5---5\4/5-----7-7---5-5---4-4---2-2---2\0/2--||
E|--------------------3-3---3\2/3-----5-5---3-3---2-2---0-0----------||


part "C - 2"     1x

E|-------------------------------------------------------------------||
B|-------------------------------------------------------------------||
G|--5-5---4-4---2-2--------------------------------------------------||
D|--5-5---4-4---2-2---5-5-------------7-7---5-5---4-4---2-2----------||
A|--3-3---2-2---0-0---5-5---5\4/5-----7-7---5-5---4-4---2-2----------||
E|--------------------3-3---3\2/3-----5-5---3-3---2-2---0-0----------||


1:13
part "D"

E|-------------------------------------------------------------------||
B|-------------------------------------------------------------------||
G|---7/9-9-9-9--7-7-7/9-9--9----9-9-9-9--5-5-5/7-7--7----------------||
D|---7/9-9-9-9--7-7-7/9-9--9----9-9-9-9--5-5-5/7-7--7----------------||
A|---5/7-7-7-7--5-5-5/7-7--7----7-7-7-7--3-3-3/5-5--5----------------||
E|-------------------------------------------------------------------||

E|-------------------------------------------------------------------||
B|-------------------------------------------------------------------||
G|---7/9-9-9-9--7-7-7/9-9--9----12-12-12-12--5-5-5/7-7--7------------||
D|---7/9-9-9-9--7-7-7/9-9--9----12-12-12-12--5-5-5/7-7--7------------||
A|---5/7-7-7-7--5-5-5/7-7--7----10-10-10-10--3-3-3/5-5--5------------||
E|-------------------------------------------------------------------||

E|-------------------------------------------------------------------||
B|-------------------------------------------------------------------||
G|---7/9-9-9-9--7-7-7/9-9--9----9-9-9-9--5-5-5/7-7--7----------------||
D|---7/9-9-9-9--7-7-7/9-9--9----9-9-9-9--5-5-5/7-7--7----------------||
A|---5/7-7-7-7--5-5-5/7-7--7----7-7-7-7--3-3-3/5-5--5----------------||
E|-------------------------------------------------------------------||

E|-------------------------------------------------------------------||
B|-------------------------------------------------------------------||
G|---7/9-9-9-9--7-7-7/9-9--9----12-12-12-12--------------------------||
D|---7/9-9-9-9--7-7-7/9-9--9----12-12-12-12--5-5-5/7-7--7------------||
A|---5/7-7-7-7--5-5-5/7-7--7----10-10-10-10--5-5-5/7-7--7------------||
E|-------------------------------------------3-3-3/5-5--5------------||


1:35
part "E"

E|-------------------------------------------------------------------||
B|-------------------------------------------------------------------||
G|--------5--------------7--------5--------------7-------------------||
D|--2-----5--5--2-----5--7--2-----5--5--2-----5--7-------------------||
A|--2-----3--5--2-----5--5--2-----3--5--2-----5--5-------------------||
E|--0--------3--0-----3-----0--------3--0-----3----------------------||


1:45
part "C - 1"     3x


part "C - 2"     1x


2:07
part "F"     2x

E|-------------------------------------------------------------------||
B|-------------------------------------------------------------------||
G|--9---9--9-9--9--12--5--7---7--7-7--7--4--7------------------------||
D|--9---9--9-9--9--12--5--7---7--7-7--7--4--7------------------------||
A|--7---7--7-7--7--10--3--5---5--5-5--5--2--5------------------------||
E|-------------------------------------------------------------------||

E|-------------------------------------------------------------------||
B|-------------------------------------------------------------------||
G|--9---9--9-9--9--12--5--5--7-7-------------------------------------||
D|--9---9--9-9--9--12--5--5--7-7-------------------------------------||
A|--7---7--7-7--7--10--3--3--5-5-------------------------------------||
E|-------------------------------------------------------------------||


2:28
part "G"     1x

E|-------------------------------------------------------------------||
B|-------------------------------------------------------------------||
G|--2-2--4-4--5-5--7-7--2-2--4-4--5-5--7-7-7-------------------------||
D|--2-2--4-4--5-5--7-7--2-2--4-4--5-5--7-7-7-------------------------||
A|--0-0--2-2--3-3--5-5--0-0--2-2--3-3--5-5-5-------------------------||
E|-------------------------------------------------------------------||

E|-------------------------------------------------------------------||
B|-------------------------------------------------------------------||
G|--2-2--4-4--5-5--7-5\4--2-2--4-4--5-5--7---------------------------||
D|--2-2--4-4--5-5--7-5\4--2-2--4-4--5-5--7---------------------------||
A|--0-0--2-2--3-3--5-3\2--0-0--2-2--3-3--5---------------------------||
E|-------------------------------------------------------------------||


2:49
part "C - 1"     4x

part "C - 2"     1x


3:20
part "H"     4x

guitar 1     4x
E|-------------------------------------------------------------------||
B|--5--7-8--5----7--8-10--7----8--10-12--8--10--7--8-----------------||
G|----------------------------------------------------4--------------||
D|-------------------------------------------------------------------||
A|-------------------------------------------------------------------||
E|-------------------------------------------------------------------||

guitar 2     last 3x
E|-------------------------------------------------------------------||
B|-------------------------------------------------------------------||
G|-------------------------------------------------------------------||
D|--2--4-5--2----4--5-7--4----5--7-9--5--7--4--5---------------------||
A|------------------------------------------------2------------------||
E|-------------------------------------------------------------------||

guitar 3     last 2x
E|--12--14-15--12----14--15-17--14----15--17-19--15--17--14--15------||
B|---------------------------------------------------------------12--||
G|-------------------------------------------------------------------||
D|-------------------------------------------------------------------||
A|-------------------------------------------------------------------||
E|-------------------------------------------------------------------||


3:42
part "I"     4x

guitar 1 with chords,
guitar 2 only the root note
E|-------------------------------------------------------------------||
B|-------------------------------------------------------------------||
G|----------4------------4---------------------------7---------------||
D|----------4------------4---------------------------7---------------||
A|--------0-2----3-2-0-3-2----3-2-0------0-2-0-------5---------------||
E|--0-2-3---------------------------3----------3-2-0-----------------||

guitar 3     last 2x
E|-------------------------------------------------------------------||
B|-------------------------------------------------------------------||
G|-------------------------------------------------------------------||
D|---------7-9----10-9-7-10-9----10-9-7-------7-9-7------------------||
A|--7-9-10------------------------------10----------10-9-7--5--------||
E|-------------------------------------------------------------------||


4:03
part ""J"

E|-------------------------------------------------------------------||
B|-------------------------------------------------------------------||
G|--7-9-9-9-9--5-5-5--7-7--7-----7-7-7-7--4-4-4--5-5--5--------------||
D|--7-9-9-9-9--5-5-5--7-7--7-----7-7-7-7--4-4-4--5-5--5--------------||
A|--5-7-7-7-7--3-3-3--5-5--5-----5-5-5-5--2-2-2--3-3--3--------------||
E|-------------------------------------------------------------------||

E|-------------------------------------------------------------------||
B|-------------------------------------------------------------------||
G|--9-9-9-9--5-5-5--7-7--7-----7-7-7-7--4-4-4--5-5--5----------------||
D|--9-9-9-9--5-5-5--7-7--7-----7-7-7-7--4-4-4--5-5--5----------------||
A|--7-7-7-7--3-3-3--5-5--5-----5-5-5-5--2-2-2--3-3--3----------------||
E|------------------------------------------------------3-2-0--------||

E|-------------------------------------------------------------------||
B|-------------------------------------------------------------------||
G|--9-9-9-9--5-5-5--7-7--7-----7-7-7-7--4-4-4--5-5--5----------------||
D|--9-9-9-9--5-5-5--7-7--7-----7-7-7-7--4-4-4--5-5--5----------------||
A|--7-7-7-7--3-3-3--5-5--5-----5-5-5-5--2-2-2--3-3--3----------------||
E|-------------------------------------------------------------------||

E|-------------------------------------------------------------------||
B|-------------------------------------------------------------------||
G|--9-9-9-9--5-5-5--7-7--7-----7-7-7-7--4-4-4--5-5--5----------------||
D|--9-9-9-9--5-5-5--7-7--7-----7-7-7-7--4-4-4--5-5--5----------------||
A|--7-7-7-7--3-3-3--5-5--5-----5-5-5-5--2-2-2--3-3--3----------------||
E|-------------------------------------------------------------------||


4:24
part "E"     1x

E|-------------------------------------------------------------------||
B|-------------------------------------------------------------------||
G|--------5--------------7--------5--------------7-------------------||
D|--2-----5--5--2-----5--7--2-----5--5--2-----5--7--2----------------||
A|--2-----3--5--2-----5--5--2-----3--5--2-----5--5--2----------------||
E|--0--------3--0-----3-----0--------3--0-----3-----0----------------||

part "H"

4:42
solo 1     3x
E|-------------------------------------------------------------------||
B|-------------------------------------------------------------------||
G|--9-----9-----9-----9------7--7-----7-----7-----7-----7------7--7--||
D|--9-----9-----9-----9------5--5-----7-----7-----7-----7------5--5--||
A|----7-7---7-7---7-7---7-7-------------5-5---5-5---5-5---5-5--------||
E|-------------------------------------------------------------------||

E|-------------------------------------------------------------------||
B|-------------------------------------------------------------------||
G|--9-----9-----9-----9------7--7-----7-----7-----7-----7------9--9--||
D|--9-----9-----9-----9------5--5-----7-----7-----7-----7------7--7--||
A|----7-7---7-7---7-7---7-7-------------5-5---5-5---5-5---5-5--------||
E|-------------------------------------------------------------------||

5:14
solo 2     4x
E|-------------------------------------------------------------------||
B|-------------------------------------------------------------------||
G|--6-----6-----6-----6------4--4-----4-----4-----4-----4------6--6--||
D|--6-----6-----6-----6------2--2-----4-----4-----4-----4------4--4--||
A|----4-4---4-4---4-4---4-4-------------2-2---2-2---2-2---2-2--------||
E|-------------------------------------------------------------------||

5:35
voice     4x
E|-------------------------------------------------------------------||
B|-------------------------------------------------------------------||
G|-------------------------------------------------------------------||
D|--6-----6-----6-----6------4--4-----4-----4-----4-----4------6--6--||
A|--6-----6-----6-----6------2--2-----4-----4-----4-----4------4--4--||
E|----4-4---4-4---4-4---4-4-------------2-2---2-2---2-2---2-2--------||

5:55
solo 3     4x
E|-------------------------------------------------------------------||
B|-------------------------------------------------------------------||
G|--7-----7-----7-----7------5--5-----5-----5-----5-----5------7--7--||
D|--7-----7-----7-----7------3--3-----5-----5-----5-----5------5--5--||
A|----5-5---5-5---5-5---5-5-------------3-3---3-3---3-3---3-3--------||
E|-------------------------------------------------------------------||


6:15
part "C - 1"     5x


part "C - 2"     1x

6:46
part "F"     4x

7:27
part "E"     1x

E|-------------------------------------------------------------------||
B|-------------------------------------------------------------------||
G|--------5--------------7--------5--------------7-------------------||
D|--2-----5--5--2-----5--7--2-----5--5--2-----5--7--2----------------||
A|--2-----3--5--2-----5--5--2-----3--5--2-----5--5--2----------------||
E|--0--------3--0-----3-----0--------3--0-----3-----0----------------||


7:49
part "A"     4x

9.FACE IN THE SAND

Intro- Part 1
E----------------------------------------------------------------|
B----------------------------------------------------------------|
G-----7--------------------------7-------------------------------|
D-9-9---9-7----7-9-7---------9-9---9-7----7-9-7------------------|
A-----------10-------10-9-7------------10------------------------|
E----------------------------------------------------------------|

E-----------------------------------------------------------------|
B-----------------------------------------------------------------|
G-----7-----------------------------------------------------------|
D-9-9---9-7----7-9-7----------------7-9-7-------------------------|
A-----------10-------10-9-7-9-10-10-------10-9--------------------|
E----------------------------------------------10-----------------|

Part 2

E----------------------------------------------------------------|
B----------------------------------------------------------------|
G----------------------------------------------------------------|
D----------------------------------------------------------------|
A-10-9-7--10-9-7--10-9-7--10-9-----10-9-7--10-9-7--10-9----------|
E------------------------------10-----------------------10-------|

E----------------------------------------------------------------|
B----------------------------------------------------------------|
G----------------------------------------------------------------|
D-------------------------------------------------7-9-7----------|
A-10-9-7--10-9-7--10-9-7--10-9-----10-9-7-9-10-10----------------|
E------------------------------10--------------------------------|


10.AGE OF INNOCENCE

  Clean
E---------------------------------------------------------------------------------------------|
B---------------------------------------------------------------------------------------------|
G----------------------------------------0----------------------------------------------0-----|
D----------------2-------------4-------------4----------------4------------4---------------4--|
A---------2-------------2----------2-------------------3-------------3----------3-------------|
E----0---------------------------------------------0------------------------------------------|


E---------------------------------------------------------------------------------------------|
B---------------------------------------------------------------------------------------------|
G---------------2------------0------------2----0-----------------0---------------------0------|
D-----------------------------------------------------------------------------4---------------|
A--------4------------4------------4----------------------3-----------3---------3----------4--|
E---0-----------------------------------------------0-----------------------------------------|


      Distorted
E-------------------------------------------------------------------------|
B---------------------12------8----8h10--------8------10------------8h10--|
G---9---------------------------------------------------------------------|
D-------------------------------------------------------------------------|
A-------------------------------------------------------------------------|
E-------------------------------------------------------------------------|

E-----------------------------------------------------------|
B---------10h12p10h8p7----7h8-------------------8h10p8p7h8--|
G-----------------------------------------------------------|
D-----------------------------------------------------------|
A-----------------------------------------------------------|
E-----------------------------------------------------------|

E-----------------------------------------------------------------|
B------------------------12------8-----10h12p10p8h10--------8h10--|
G----9------------------------------------------------------------|
D-----------------------------------------------------------------|
A-----------------------------------------------------------------|
E-----------------------------------------------------------------|

E--------10h12p10p8h10-----------8h10p8p7----7h8--------------------(8)--|
B------------------------------------------------------------------------|
G------------------------------------------------------------------------|
D------------------------------------------------------------------------|
A------------------------------------------------------------------------|
E------------------------------------------------------------------------|

11.JOURNEYMAN

INTRO :
e|--------------------------------------------------|
B|-1-----1----0-----0-----3-----3-----1-----1-------|
G|-----2----2-----2-----2-----2-----2-----2-----2---|
D|---2----2-----2-----2-----2-----2-----2-----2-----|REPEAT X2
A|-0----------0-----------0-----------0-------------|
E|--------------------------------------------------|

THEN...
 RIFF 1 :

  guitar 1 :
e|--------------------------------------------------|
B|-1-----1----0-----0-----3-----3-----1-----1-------|
G|-----2----2-----2-----2-----2-----2-----2-----2---|
D|---2----2-----2-----2-----2-----2-----2-----2-----|
A|-0----------0-----------0-----------0-------------|
E|--------------------------------------------------|
 |                                                  |
 |guitar 2 :                                        |
e|--------------------------------------------------|
B|-1---------0------------3-----------1-------------|
G|-2---------2------------2-----------2-------------|
D|-2---------2------------2-----------2-------------|
A|-0---------0------------0-----------0-------------|
E|--------------------------------------------------|
 |                                                  |
 |                                                  |
 |guitar 3                                          |
e|--------------------------------------------------|
B|--------------------3s5---------------------------|
G|----3s5--4--5s7--5-------7---3s5--4---------------|
D|--------------------------------------------------|
A|--------------------------------------------------|
E|--------------------------------------------------|

 RIFF 2 :
e|-0-----0------------------------------------------|
B|-----1----1-3-----3-----1-----1----0-----0--------|
G|---2----2-------2-----2-----2----2-----2-----2----|
D|-3----------3-3-----3-----0----0-----0-----0------|
A|--------------------------------------------------|
E|------------------------3----------3--------------|
 |                                                  |
 |                                                  |
e|-0---------0-----------0-----------0--------------|
B|-1---------3-----------1-----------0--------------|
G|-2---------2-----------2-----------2--------------|
D|-3---------3-----------0-----------0--------------|
A|-0---------0--------------------------------------|
E|-----------------------3-----------3--------------|
 |                                                  |
 |                                                  |
 |
e|--------------------------------------------------|
B|--------------------3s5---------------------------|
G|----3s5--4--5s7--5-------7---3s5--4---------------|
D|--------------------------------------------------|
A|--------------------------------------------------|
E|--------------------------------------------------|

Repeat riff 1 and riff 2
and then ....

 ( F7+ e A ) few times

F7+				A
From the red sky of the east. To the sunset in the west
F7+				           A
We have cheated death. And he has cheated us
F7+				A
But that was just a dream. And this is what it means
F7+					A
We are sleeping and we'll dream for Evermore


C		    D		A
And the fragment remains. Of our memories
C                   D           G
And the shadows we made. With our hands
C		D		C		D
Deeper grey, came to mourn. All the colours of  the dawn
C		D		A
Will this journeyman's day. Be his last

Chorus :
Dm	            F
I know what I want. And I say what I want
C 			Bb9  C9
And no one can take it away

(F7+  A)

F7+				A
But the memory still remains. All the past years not so strange
F7+					A
Our winter times are. Like a silent shroud

F7+                 		A
And the heartbeat of the day. Drives the mist away
F7+					A
And the winter's not the only dream around

C		    D        A
In your life you choose desoltaion
C			D 		G
And the shadow's you build with your hands
C		     D               C            D
If you turn to the light. That is burning in the night
C              D               A
Then your journeyman's day has begun

Chorus

C                   D        A
In your life you choose desoltaion
C                      D 		G
And the shadow's you build with your hands
C         	      D 	        C           D
If you turn to the light. That is burning in the night
C               D                A
Then your journeyman's day has begun

Chorus


  	E A D G B e
A 	0 0 2 2 2 0
C 	0 3 2 0 1 0
G 	3 2 0 0 3 3
F7+	0 0 3 2 1 0
F       1 3 3 2 1 1
D       0 0 0 2 3 2
Dm      0 0 0 2 3 1
Bb9     1 1 3 3 1 1
C9      3 3 5 5 3 3
comments
print report bad tab
5 comments total. Showing first comments.
0 reply
benwahballs wrote on November 1 2005, 08:24 am

havent looked through this but no more lies is a bit off. awesome work put in.

0 reply
Spartan 117 wrote on January 14 2006, 10:00 am

You sure did a lot of album tabs!

0 reply
Symphon wrote on April 26 2006, 07:25 am

hey i have to say its good you take teh time out to make album tabs, but usually when people tab stuff they use there own tabs and not rob from other people. i know you have robbed cus your Rainmaker tab is exactly the the same as the 18page tab on mxtabs.net and if you are that good you will know its in dropD no standard. And again you gates of tomorrow is also robbed of mxtabs.net i knwo that cus it was my tab and it was totally wrong lol. if ya dont believe me check out tabber "incognitosteve" on mxtabs.

just thought i would let ya know

I want to post or [tab]
guest
You may want to rate the tab now too:
select rating
Please do not post tabs as comments. Select "correction" instead!