Oops, an error
Loading. Please wait.

Dance Of Death Bass Tab

ver2
ver2

Whole song

Interactive

More versions @911Tabs.com
1,375 views 3 this week
no commentswrite comment
1 2 3 4 5
worth learning
x 1
Autoscroll
+/-
esc
set tempo
stop
Difficulty
intermediate
WARNING: You are trying to view
                                    content from Ultimate-Guitar.com
                                    in an unauthorized application,
                                    which is prohibited.

                                    Please use an official Ultimate
                                    Guitar Tabs application for iPhone,
                                    iPad or Android to access legitimate
                                    chords, guitar, bass, and drum tabs
                                    from Ultimate-Guitar.com database.

                                    Type "ultimate guitar tabs" in Apple
                                    App Store's or Android Market's
                                    search to find the application.
     Q    Q    Q       Q    Q    Q       Q    Q    Q       Q    Q    Q     
G||-----------------|-----------------|-----------------|-----------------|
D||-----------------|-----------------|-----------------|-----------------|
A||-----------------|-----------------|-----------------|-----------------|
E||-----------------|-----------------|-----------------|-----------------|


  Q    Q    Q       Q    Q    Q       Q    Q    Q       Q    Q    Q     
-----------------|-----------------|-----------------|-----------------|
-----------------|-----------------|-----------------|-----------------|
-----------------|-----------------|-----------------|-----------------|
-----------------|-----------------|-----------------|-----------------|


  E  E  E  E  E  E     E   E  E   E  E  E     E  E  E  E  E  E   
--------------------|----------------------|--------------------|
-----9-----9--------|-----12-----12--------|-----7-----7--------|
--7-----7-----7-----|--9------9------9-----|--5-----5-----5-----|
--------------------|----------------------|--------------------|


  E  E  E  E  E  E     E  E  E  E  E  E     E  E  E  E  E  E   
--------------------|--------------------|--------------------|
-----5-----5--------|-----5-----5--------|-----7-----7--------|
--3-----3-----3-----|--3-----3-----3-----|--5-----5-----5-----|
--------------------|--------------------|--------------------|


  E  E  E  E  E  E     E  E  E  E  E  E     E  E  E  E  E  E   
--------------------|--------------------|--------------------|
-----9-----9--------|-----9-----9--------|-----9-----9--------|
--7-----7-----7-----|--7-----7-----7-----|--7-----7-----7-----|
--------------------|--------------------|--------------------|


  E   E  E   E  E  E     E  E  E  E  E  E     E  E  E  E  E  E   
----------------------|--------------------|--------------------|
-----12-----12--------|-----7-----7--------|-----2-----2--------|
--9------9------9-----|--5-----5-----5-----|--0-----0-----0-----|
----------------------|--------------------|--------------------|


  E  E  E  E  E  E     E  E  E  E  E  E     E  E  E  E  E  E   
--------------------|--------------------|--------------------|
-----5-----5--------|-----7-----7--------|-----9-----9--------|
--3-----3-----3-----|--5-----5-----5-----|--7-----7-----7-----|
--------------------|--------------------|--------------------|


  E  E  E  E  E  E     E  E  E  E  E  E     E   E  E   E  E  E   
--------------------|--------------------|----------------------|
-----9-----9--------|-----9-----9--------|-----12-----12--------|
--7-----7-----7-----|--7-----7-----7-----|--9------9------9-----|
--------------------|--------------------|----------------------|


  E  E  E  E  E  E     E  E  E  E  E  E     E  E  E  E  E  E   
--------------------|--------------------|--------------------|
-----7-----7--------|-----5-----5--------|-----5-----5--------|
--5-----5-----5-----|--3-----3-----3-----|--3-----3-----3-----|
--------------------|--------------------|--------------------|


  E  E  E  E  E  E     E  E  E  E  E  E     E  E  E  E  E  E   
--------------------|--------------------|--------------------|
-----7-----7--------|-----9-----9--------|-----9-----9--------|
--5-----5-----5-----|--7-----7-----7-----|--7-----7-----7-----|
--------------------|--------------------|--------------------|


  E  E  E  E  E  E     E   E  E   E  E  E     E  E  E  E  E  E   
--------------------|----------------------|--------------------|
-----9-----9--------|-----12-----12--------|-----7-----7--------|
--7-----7-----7-----|--9------9------9-----|--5-----5-----5-----|
--------------------|----------------------|--------------------|


  E  E  E  E  E  E     E  E  E  E  E  E     E  E  E  E  E  E   
--------------------|--------------------|--------------------|
-----2-----2--------|-----5-----5--------|-----7-----7--------|
--0-----0-----0-----|--3-----3-----3-----|--5-----5-----5-----|
--------------------|--------------------|--------------------|


  E  E  E  E  E  E     E  E  E  E  E  E     E  E  E  E  E  E   
--------------------|--------------------|--------------------|
-----9-----9--------|-----9-----9--------|-----9-----9--------|
--7-----7-----7-----|--7-----7-----7-----|--7-----7-----7-----|
--------------------|--------------------|--------------------|


  E   E  E   E  E  E     E  E  E  E  E  E     E  E  E  E  E  E   
----------------------|--------------------|--------------------|
-----12-----12--------|-----7-----7--------|-----5-----5--------|
--9------9------9-----|--5-----5-----5-----|--3-----3-----3-----|
----------------------|--------------------|--------------------|


  E  E  E  E  E  E     E  E  E  E  E  E     E  E  E  E  E  E   
--------------------|--------------------|--------------------|
-----5-----5--------|-----7-----7--------|-----9-----9--------|
--3-----3-----3-----|--5-----5-----5-----|--7-----7-----7-----|
--------------------|--------------------|--------------------|


  E  E  E  E  E  E     E  E  E  E  E  E     E   E  E   E  E  E   
--------------------|--------------------|----------------------|
-----9-----9--------|-----9-----9--------|-----12-----12--------|
--7-----7-----7-----|--7-----7-----7-----|--9------9------9-----|
--------------------|--------------------|----------------------|


  E  E  E  E  E  E     E  E  E  E  E  E     E  E  E  E  E  E   
--------------------|--------------------|--------------------|
-----7-----7--------|-----2-----2--------|-----5-----5--------|
--5-----5-----5-----|--0-----0-----0-----|--3-----3-----3-----|
--------------------|--------------------|--------------------|


  E  E  E  E  E  E     E  E  E  E  E  E     E  E  E  E  E  E   
--------------------|--------------------|--------------------|
-----7-----7--------|-----9-----9--------|-----9-----9--------|
--5-----5-----5-----|--7-----7-----7-----|--7-----7-----7-----|
--------------------|--------------------|--------------------|


  E  E  E  E  E  E      E   E   E   E   E   E     E  E  E  E  E  E   
--------------------|--------------------------|--------------------|
--9--9--9--9--9--9--|--12--12--12--12--12--12--|--7--7--7--7--7--7--|
--7--7--7--7--7--7--|---9---9---9---9---9---9--|--5--5--5--5--5--5--|
--------------------|--------------------------|--------------------|


  E  E  E  E  E  E     E  E  E  E  E  E     E  E  E  E  E  E   
--------------------|--------------------|--------------------|
--5--5--5--5--5--5--|--5--5--5--5--5--5--|--7--7--7--7--7--7--|
--3--3--3--3--3--3--|--3--3--3--3--3--3--|--5--5--5--5--5--5--|
--------------------|--------------------|--------------------|


  E  E  E  E  E  E     E  E  E  E  E  E     E  E  E  E  E  E   
--------------------|--------------------|--------------------|
--9--9--9--9--9--9--|--9--9--9--9--9--9--|--9--9--9--9--9--9--|
--7--7--7--7--7--7--|--7--7--7--7--7--7--|--7--7--7--7--7--7--|
--------------------|--------------------|--------------------|


   E   E   E   E   E   E     E  E  E  E  E  E     E  E  E  E  E  E   
--------------------------|--------------------|--------------------|
--12--12--12--12--12--12--|--7--7--7--7--7--7--|--2--2--2--2--2--2--|
---9---9---9---9---9---9--|--5--5--5--5--5--5--|--0--0--0--0--0--0--|
--------------------------|--------------------|--------------------|


  E  E  E  E  E  E     E  E  E  E  E  E     E  E  E  E  E  E   
--------------------|--------------------|--------------------|
--5--5--5--5--5--5--|--7--7--7--7--7--7--|--9--9--9--9--9--9--|
--3--3--3--3--3--3--|--5--5--5--5--5--5--|--7--7--7--7--7--7--|
--------------------|--------------------|--------------------|


  E  E  E  E  E  E     E  E  E  E  E  E      E   E   E   E   E   E   
--------------------|--------------------|--------------------------|
--9--9--9--9--9--9--|--9--9--9--9--9--9--|--12--12--12--12--12--12--|
--7--7--7--7--7--7--|--7--7--7--7--7--7--|---9---9---9---9---9---9--|
--------------------|--------------------|--------------------------|


  E  E  E  E  E  E     E  E  E  E  E  E     E  E  E  E  E  E   
--------------------|--------------------|--------------------|
--7--7--7--7--7--7--|--5--5--5--5--5--5--|--5--5--5--5--5--5--|
--5--5--5--5--5--5--|--3--3--3--3--3--3--|--3--3--3--3--3--3--|
--------------------|--------------------|--------------------|


  E  E  E  E  E  E     E  E  E  E  E  E     E  E  E  E  E  E   
--------------------|--------------------|--------------------|
--7--7--7--7--7--7--|--9--9--9--9--9--9--|--9--9--9--9--9--9--|
--5--5--5--5--5--5--|--7--7--7--7--7--7--|--7--7--7--7--7--7--|
--------------------|--------------------|--------------------|


  E  E  E  E  E  E      E   E   E   E   E   E     E  E  E  E  E  E   
--------------------|--------------------------|--------------------|
--9--9--9--9--9--9--|--12--12--12--12--12--12--|--7--7--7--7--7--7--|
--7--7--7--7--7--7--|---9---9---9---9---9---9--|--5--5--5--5--5--5--|
--------------------|--------------------------|--------------------|


  E  E  E  E  E  E     E  E  E  E  E  E     E  E  E  E  E  E   
--------------------|--------------------|--------------------|
--2--2--2--2--2--2--|--5--5--5--5--5--5--|--7--7--7--7--7--7--|
--0--0--0--0--0--0--|--3--3--3--3--3--3--|--5--5--5--5--5--5--|
--------------------|--------------------|--------------------|


  W                   W                   W                   W                 
-------------------|-------------------|-------------------|-------------------|
-------------------|-------------------|-------------------|-------------------|
-------------------|-------------------|-------------------|-------------------|
-------------------|-------------------|-------------------|-------------------|


  W                   W                   W                   W                 
-------------------|-------------------|-------------------|-------------------|
-------------------|-------------------|-------------------|-------------------|
-------------------|-------------------|-------------------|-------------------|
-------------------|-------------------|-------------------|-------------------|


  W                   W                   S E.  Q    E  E  Q     
-------------------|-------------------|------------------------|
-------------------|-------------------|-------------4--4--4----|
-------------------|-------------------|--7-7---7---------------|
-------------------|-------------------|------------------------|


  S E.  Q    E  E  Q       S E.  Q    E  S S E  E   
------------------------|--------------------------|
------------------------|--------------------------|
--5-5---5---------------|--3-3---3----5--5-5-5--5--|
-------------5--5--5----|--------------------------|


  E  S S E  S S E  S S E  S S    S E.  Q    E  E  Q     
------------------------------|------------------------|
----------------4--4-4--------|-------------4--4--4----|
--7--7-7-7--7-7--------5--5-5-|--7-7---7---------------|
------------------------------|------------------------|


  S E.  Q    E  E  Q       S E.  Q    E  S S E  E   
------------------------|--------------------------|
------------------------|--------------------------|
--5-5---5---------------|--3-3---3----5--5-5-5--5--|
-------------5--5--5----|--------------------------|


  E  S S E  S S E  S S E  S S    S E.  Q    E  E  Q     
------------------------------|------------------------|
----------------4--4-4--------|-------------4--4--4----|
--7--7-7-7--7-7--------5--5-5-|--7-7---7---------------|
------------------------------|------------------------|


  S E.  Q    E  E  Q       S E.  Q    E  S S E  E   
------------------------|--------------------------|
------------------------|--------------------------|
--5-5---5---------------|--3-3---3----5--5-5-5--5--|
-------------5--5--5----|--------------------------|


  E  S S E  S S E  S S E  S S    S E.  Q    S E.  Q     
------------------------------|------------------------|
----------------4--4-4--------|-------------4-4---4----|
--7--7-7-7--7-7--------5--5-5-|--7-7---7---------------|
------------------------------|------------------------|


  S E.  Q    S E.  Q       S E.  Q    S E.  Q       W                 
------------------------|------------------------|-------------------|
------------------------|------------------------|-------------------|
--5-5---5---------------|--3-3---3----5-5---5----|--7----------------|
-------------5-5---5----|------------------------|-------------------|


  H           W                   W                   Q    Q.      
-----------|-------------------|-------------------|--------------|
-----------|-------------------|-------------------|--------------|
-----------|-------------------|-------------------|--------------|
-----------|-------------------|-------------------|--------------|


  S S S S E  S S S S S S E  S S    S S S S E  S S S S S S E  S S  
--------------------------------|--------------------------------|
--------------------------------|--4-4-4-4-4--4-4-5-4------------|
--7-7-7-7-7--7-7-7-7-7-7-7--7-7-|---------------------7-5-7--7-7-|
--------------------------------|--------------------------------|


  S S S S E  S S S S S S E  S S    S S S S E  S S S S S S E  S S  
--------------------------------|--------------------------------|
--------------------------------|--4-4-4-4-4--4-4-5-4------------|
--7-7-7-7-7--7-7-7-7-7-7-7--7-7-|---------------------7-5-7--7-7-|
--------------------------------|--------------------------------|


  S S S S E  S S S S S S E  S S    S S S S E  S S S S S S E  S S  
--------------------------------|--------------------------------|
--------------------------------|--4-4-4-4-4--4-4-5-4------------|
--7-7-7-7-7--7-7-7-7-7-7-7--7-7-|---------------------7-5-7--7-7-|
--------------------------------|--------------------------------|


  S S S S E  S S S S S S E  S S    S S S S E  S S S S S S E  S S  
--------------------------------|--------------------------------|
--------------------------------|--4-4-4-4-4--4-4-5-4------------|
--7-7-7-7-7--7-7-7-7-7-7-7--7-7-|---------------------7-5-7--7-7-|
--------------------------------|--------------------------------|


  S S S S E  S S S S S S E  S S    S S S S E  S S S S S S E  S S  
--------------------------------|--------------------------------|
--------------------------------|--4-4-4-4-4--4-4-5-4------------|
--7-7-7-7-7--7-7-7-7-7-7-7--7-7-|---------------------7-5-7--7-7-|
--------------------------------|--------------------------------|


  S S S S E  S S S S S S E  S S    S S S S E  S S S S S S E  S S  
--------------------------------|--------------------------------|
--------------------------------|--4-4-4-4-4--4-4-5-4------------|
--7-7-7-7-7--7-7-7-7-7-7-7--7-7-|---------------------7-5-7--7-7-|
--------------------------------|--------------------------------|


  Q    E  S S E  E  Q       Q    E  S S E  E  Q        Q    E  S S E  E  Q     
-------------------------|--------------------------|-------------------------|
--------------------4----|--5----L----5-5--5--7S----|--------------------5----|
--7----L----7-7--7-------|--------------------------|--5----L----5-5--5-------|
-------------------------|--------------------------|-------------------------|


  Q    E  E  S S S S S S S S    Q    E  S S E  E  Q     
-------------5-4-2---4-2-----|-------------------------|
-------------------5-----5-4-|--------------------4----|
--7----7--7------------------|--7----L----7-7--7-------|
-----------------------------|-------------------------|


  Q    E  S S E  E  Q        Q    E  S S E  E  Q     
--------------------------|-------------------------|
--5----L----5-5--5--7S----|--------------------5----|
--------------------------|--5----L----5-5--5-------|
--------------------------|-------------------------|


  Q    S S S S S S S S Q       Q    E  S S E  E  Q     
----------------------------|-------------------------|
---------------5-5-5---4----|--------------------4----|
--7----7-7-7-7--------------|--7----L----7-7--7-------|
----------------------------|-------------------------|


  Q    E  S S E  E  Q        Q    E  S S E  E  Q     
--------------------------|-------------------------|
--5----L----5-5--5--7S----|--------------------5----|
--------------------------|--5----L----5-5--5-------|
--------------------------|-------------------------|


  Q    E  E  S S S S S S S S    Q    E  S S E  E  Q     
-------------5-4-2---4-2-----|-------------------------|
-------------------5-----5-4-|--------------------4----|
--7----7--7------------------|--7----L----7-7--7-------|
-----------------------------|-------------------------|


  Q    E  S S E  E  Q        Q    E  S S E  E  Q       Q    S S S S Q    Q     
--------------------------|-------------------------|-------------------------|
--5----L----5-5--5--7S----|--------------------5----|-------------------------|
--------------------------|--5----L----5-5--5-------|--7----7-7-7-7-3----2----|
--------------------------|-------------------------|-------------------------|


  S S S S E  S S S S S S E  S S    S S S S E  S S S S S S E  S S  
--------------------------------|--------------------------------|
--------------------------------|--4-4-4-4-4--4-4-5-4------------|
--7-7-7-7-7--7-7-7-7-7-7-7--7-7-|---------------------7-5-7--7-7-|
--------------------------------|--------------------------------|


  S S S S E  S S S S S S E  S S    S S S S E  S S S S S S E  S S  
--------------------------------|--------------------------------|
--------------------------------|--4-4-4-4-4--4-4-5-4------------|
--7-7-7-7-7--7-7-7-7-7-7-7--7-7-|---------------------7-5-7--7-7-|
--------------------------------|--------------------------------|


  S S S S E  S S S S S S E  S S    S S S S E  S S S S S S E  S S  
--------------------------------|--------------------------------|
--------------------------------|--4-4-4-4-4--4-4-5-4------------|
--7-7-7-7-7--7-7-7-7-7-7-7--7-7-|---------------------7-5-7--7-7-|
--------------------------------|--------------------------------|


  S S S S E  S S S S S S E  S S    S S S S E  S S S S S S E  S S  
--------------------------------|--------------------------------|
--------------------------------|--4-4-4-4-4--4-4-5-4------------|
--7-7-7-7-7--7-7-7-7-7-7-7--7-7-|---------------------7-5-7--7-7-|
--------------------------------|--------------------------------|


  S S S S E  S S S S S S E  S S    S S S S E  S S S S S S E  S S  
--------------------------------|--------------------------------|
--------------------------------|--4-4-4-4-4--4-4-5-4------------|
--7-7-7-7-7--7-7-7-7-7-7-7--7-7-|---------------------7-5-7--7-7-|
--------------------------------|--------------------------------|


  S S S S E  S S S S S S E  S S    S S S S E  S S S S S S E  S S  
--------------------------------|--------------------------------|
--------------------------------|--4-4-4-4-4--4-4-5-4------------|
--7-7-7-7-7--7-7-7-7-7-7-7--7-7-|---------------------7-5-7--7-7-|
--------------------------------|--------------------------------|


  S S S S E  S S S S S S E  S S    S S S S E  S S S S S S E  S S  
--------------------------------|--------------------------------|
--------------------------------|--4-4-4-4-4--4-4-5-4------------|
--7-7-7-7-7--7-7-7-7-7-7-7--7-7-|---------------------7-5-7--7-7-|
--------------------------------|--------------------------------|


  S S S S E  S S S S S S E  S S    S S S S E  S S S S S S E  S S  
--------------------------------|--------------------------------|
--------------------------------|--4-4-4-4-4--4-4-5-4------------|
--7-7-7-7-7--7-7-7-7-7-7-7--7-7-|---------------------7-5-7--7-7-|
--------------------------------|--------------------------------|


  Q    E  S S E  E  Q       Q    E  S S E  E  Q        Q    E  S S E  E  Q     
-------------------------|--------------------------|-------------------------|
--------------------4----|--5----L----5-5--5--7S----|--------------------5----|
--7----L----7-7--7-------|--------------------------|--5----L----5-5--5-------|
-------------------------|--------------------------|-------------------------|


  Q    E  E  S S S S S S S S    Q    E  S S E  E  Q     
-------------5-4-2---4-2-----|-------------------------|
-------------------5-----5-4-|--------------------4----|
--7----7--7------------------|--7----L----7-7--7-------|
-----------------------------|-------------------------|


  Q    E  S S E  E  Q        Q    E  S S E  E  Q     
--------------------------|-------------------------|
--5----L----5-5--5--7S----|--------------------5----|
--------------------------|--5----L----5-5--5-------|
--------------------------|-------------------------|


  Q    S S S S S S S S Q       Q    E  S S E  E  Q     
----------------------------|-------------------------|
---------------5-5-5---4----|--------------------4----|
--7----7-7-7-7--------------|--7----L----7-7--7-------|
----------------------------|-------------------------|


  Q    E  S S E  E  Q        Q    E  S S E  E  Q     
--------------------------|-------------------------|
--5----L----5-5--5--7S----|--------------------5----|
--------------------------|--5----L----5-5--5-------|
--------------------------|-------------------------|


  Q    E  E  S S S S S S S S    Q    E  S S E  E  Q     
-------------5-4-2---4-2-----|-------------------------|
-------------------5-----5-4-|--------------------4----|
--7----7--7------------------|--7----L----7-7--7-------|
-----------------------------|-------------------------|


  Q    E  S S E  E  Q        Q    E  S S E  E  Q     
--------------------------|-------------------------|
--5----L----5-5--5--7S----|--------------------5----|
--------------------------|--5----L----5-5--5-------|
--------------------------|-------------------------|


  Q    S S S S S S S S Q        Q    E  S S E  E  E  E   
----------------------------|---------------------------|
---------------5-5-5---4----|--11----L------------------|
--7----7-7-7-7--------------|---9----L--9-9-9--9--7--7--|
----------------------------|---------------------------|


  Q    E  S S E  E  E  E     Q    E  S S E  E  E  E   
--------------------------|--------------------------|
--7----L------------------|--9----L------------------|
--5----L--5-5-5--5--5--5--|--7----L--7-7-7--7--7--7--|
--------------------------|--------------------------|


  E  E  E  E  S S E  S S E      Q    E  S S E  E  E  E   
----------------------------|---------------------------|
----------------------------|--11----L------------------|
----------------------------|---9----L--9-9-9--9--7--7--|
--2--2--2--2--2-2-2--2-2-2--|---------------------------|


  Q    E  S S E  E  E  E     Q    E  S S E  E  E  E   
--------------------------|--------------------------|
--7----L------------------|--9----L------------------|
--5----L--5-5-5--5--5--5--|--7----L--7-7-7--7--7--7--|
--------------------------|--------------------------|


  E  E  E  E  S S E  S S E      Q    E  S S E  E  E  E   
----------------------------|---------------------------|
----------------------------|--11----L------------------|
----------------------------|---9----L--9-9-9--9--7--7--|
--2--2--2--2--2-2-2--2-2-2--|---------------------------|


  Q    E  S S E  E  E  E     Q    E  S S E  E  E  E   
--------------------------|--------------------------|
--7----L------------------|--9----L------------------|
--5----L--5-5-5--5--5--5--|--7----L--7-7-7--7--7--7--|
--------------------------|--------------------------|


  E  E  E  E  S S E  S S E      Q    E  S S E  E  E  E   
----------------------------|---------------------------|
----------------------------|--11----L------------------|
----------------------------|---9----L--9-9-9--9--7--7--|
--2--2--2--2--2-2-2--2-2-2--|---------------------------|


  Q    E  S S E  E  E  E     Q    E  S S E  E  E  E   
--------------------------|--------------------------|
--7----L------------------|--9----L------------------|
--5----L--5-5-5--5--5--5--|--7----L--7-7-7--7--7--7--|
--------------------------|--------------------------|


  E  E  E  E  S S E  S S E      Q    E  S S E  E  E  E   
----------------------------|---------------------------|
----------------------------|--11----L------------------|
----------------------------|---9----L--9-9-9--9--7--7--|
--2--2--2--2--2-2-2--2-2-2--|---------------------------|


  Q    E  S S E  E  E  E     Q    E  S S E  E  E  E   
--------------------------|--------------------------|
--7----L------------------|--9----L------------------|
--5----L--5-5-5--5--5--5--|--7----L--7-7-7--7--7--7--|
--------------------------|--------------------------|


  E  E  E  E  S S E  S S E      Q    E  S S E  E  E  E   
----------------------------|---------------------------|
----------------------------|--11----L------------------|
----------------------------|---9----L--9-9-9--9--7--7--|
--2--2--2--2--2-2-2--2-2-2--|---------------------------|


  Q    E  S S E  E  E  E     Q    E  S S E  E  E  E   
--------------------------|--------------------------|
--7----L------------------|--9----L------------------|
--5----L--5-5-5--5--5--5--|--7----L--7-7-7--7--7--7--|
--------------------------|--------------------------|


  E  E  E  E  S S E  S S E     E  E  E  S S E  E  Q      
----------------------------|---------------------------|
----------------------------|---------------------5S----|
----------------------------|--7--7--7--7-7-7--7--------|
--2--2--2--2--2-2-2--2-2-2--|---------------------------|


  E  E  E  S S E  E  Q        E  E  E  S S E  E  E   E   
---------------------------|----------------------------|
---------------------5S----|---------------------5p--4--|
--3--3--3--3-3-3--3--------|--5--5--5--5-5-5--5---------|
---------------------------|----------------------------|


  E  E  E  E  S S E  E  E     E  E  E  S S E  E  Q      
---------------------------|---------------------------|
---------------------------|---------------------5S----|
--7--7--7--7--7-7-7--7--7--|--7--7--7--7-7-7--7--------|
---------------------------|---------------------------|


  E  E  E  S S E  E  Q        E  E  E  S S E  E  E   E   
---------------------------|----------------------------|
---------------------5S----|---------------------5p--4--|
--3--3--3--3-3-3--3--------|--5--5--5--5-5-5--5---------|
---------------------------|----------------------------|


  E  E  E  E  S S E  E  E     E  E  E  S S E  E  Q      
---------------------------|---------------------------|
---------------------------|---------------------5S----|
--7--7--7--7--7-7-7--7--7--|--7--7--7--7-7-7--7--------|
---------------------------|---------------------------|


  E  E  E  S S E  E  Q        E  E  E  S S E  E  E   E   
---------------------------|----------------------------|
---------------------5S----|---------------------5p--4--|
--3--3--3--3-3-3--3--------|--5--5--5--5-5-5--5---------|
---------------------------|----------------------------|


  E  E  E  E  S S E  E  E     E  E  E  S S E  E  Q      
---------------------------|---------------------------|
---------------------------|---------------------5S----|
--7--7--7--7--7-7-7--7--7--|--7--7--7--7-7-7--7--------|
---------------------------|---------------------------|


  E  E  E  S S E  E  Q        E  E  E  S S E  E  E   E   
---------------------------|----------------------------|
---------------------5S----|---------------------5p--4--|
--3--3--3--3-3-3--3--------|--5--5--5--5-5-5--5---------|
---------------------------|----------------------------|


  E  E  E  E  S S E  E  E     Q    E  S S E  E  Q     
---------------------------|-------------------------|
---------------------------|--------------------4----|
--7--7--7--7--7-7-7--7--7--|--7----L----7-7--7-------|
---------------------------|-------------------------|


  Q    E  S S E  E  Q        Q    E  S S E  E  Q     
--------------------------|-------------------------|
--5----L----5-5--5--7S----|--------------------5----|
--------------------------|--5----L----5-5--5-------|
--------------------------|-------------------------|


  Q    E  E  S S S S S S S S    Q    E  S S E  E  Q     
-------------5-4-2---4-2-----|-------------------------|
-------------------5-----5-4-|--------------------4----|
--7----7--7------------------|--7----L----7-7--7-------|
-----------------------------|-------------------------|


  Q    E  S S E  E  Q        Q    E  S S E  E  Q       Q    S S S S Q    Q     
--------------------------|-------------------------|-------------------------|
--5----L----5-5--5--7S----|--------------------5----|-------------------------|
--------------------------|--5----L----5-5--5-------|--7----7-7-7-7-3----2----|
--------------------------|-------------------------|-------------------------|


  E  E  E  S S E  E  E  E     E  E  E  S S E  E  E  E   
---------------------------|---------------------------|
---------------------------|---------------------------|
--------7------------5--5--|--3--3--3--3-3-3--3--3--3--|
--0--0-----0-0-0--0--------|---------------------------|


  E  E  E  S S E  E  E  E     E  E  E  E  E  E  S S E   
---------------------------|---------------------------|
---------------------------|---------------------------|
--5--5--5--5-5-5--5--5--5--|--------------------7-7-7--|
---------------------------|--0--0--0--0--0--0---------|


  E  E  E  S S E  E  E  E     E  E  E  S S E  E  E  E   
---------------------------|---------------------------|
---------------------------|---------------------------|
--------7------------5--5--|--3--3--3--3-3-3--3--3--3--|
--0--0-----0-0-0--0--------|---------------------------|


  E  E  E  S S E  E  E  E     E  E  E  E  E  E  E  E   
---------------------------|--------------------------|
---------------------------|--------------------------|
--5--5--5--5-5-5--5--5--5--|--------------------------|
---------------------------|--0--0--0--0--0--0--0--0--|


  E  E  E  S S E  E  E  E     E  E  E  S S E  E  E  E   
---------------------------|---------------------------|
---------------------------|---------------------------|
--------7------------5--5--|--3--3--3--3-3-3--3--3--3--|
--0--0-----0-0-0--0--------|---------------------------|


  E  E  E  S S E  E  E  E     E  E  E  E  E  E  S S E   
---------------------------|---------------------------|
---------------------------|---------------------------|
--5--5--5--5-5-5--5--5--5--|--------------------7-7-7--|
---------------------------|--0--0--0--0--0--0---------|


  E  E  E  S S E  E  E  E     E  E  E  S S E  E  E  E   
---------------------------|---------------------------|
---------------------------|---------------------------|
--------7------------5--5--|--3--3--3--3-3-3--3--3--3--|
--0--0-----0-0-0--0--------|---------------------------|


  E  E  E  S S E  E  E  E     E  E  E  E  Q    Q     
---------------------------|------------------------|
---------------------------|------------------------|
--5--5--5--5-5-5--5--5--5--|--------------3----2----|
---------------------------|--0--0--0--0------------|


  S S S S E  S S S S S S E  S S    S S S S E  S S S S S S E  S S  
--------------------------------|--------------------------------|
--------------------------------|--4-4-4-4-4--4-4-5-4------------|
--7-7-7-7-7--7-7-7-7-7-7-7--7-7-|---------------------7-5-7--7-7-|
--------------------------------|--------------------------------|


  S S S S E  S S S S S S E  S S    S S S S E  S S S S S S E  S S  
--------------------------------|--------------------------------|
--------------------------------|--4-4-4-4-4--4-4-5-4------------|
--7-7-7-7-7--7-7-7-7-7-7-7--7-7-|---------------------7-5-7--7-7-|
--------------------------------|--------------------------------|


  S S S S E  S S S S S S E  S S    S S S S E  S S S S S S E  S S  
--------------------------------|--------------------------------|
--------------------------------|--4-4-4-4-4--4-4-5-4------------|
--7-7-7-7-7--7-7-7-7-7-7-7--7-7-|---------------------7-5-7--7-7-|
--------------------------------|--------------------------------|


  S S S S E  S S S S S S E  S S    S S S S E  S S S S S S E  S S  
--------------------------------|--------------------------------|
--------------------------------|--4-4-4-4-4--4-4-5-4------------|
--7-7-7-7-7--7-7-7-7-7-7-7--7-7-|---------------------7-5-7--7-7-|
--------------------------------|--------------------------------|


  S S S S E  S S S S S S E  S S    S S S S E  S S S S S S E  S S  
--------------------------------|--------------------------------|
--------------------------------|--4-4-4-4-4--4-4-5-4------------|
--7-7-7-7-7--7-7-7-7-7-7-7--7-7-|---------------------7-5-7--7-7-|
--------------------------------|--------------------------------|


  S S S S E  S S S S S S E  S S    S S S S E  S S S S S S E  S S  
--------------------------------|--------------------------------|
--------------------------------|--4-4-4-4-4--4-4-5-4------------|
--7-7-7-7-7--7-7-7-7-7-7-7--7-7-|---------------------7-5-7--7-7-|
--------------------------------|--------------------------------|


  S S S S E  S S S S S S E  S S    S S S S E  S S S S S S E  S S  
--------------------------------|--------------------------------|
--------------------------------|--4-4-4-4-4--4-4-5-4------------|
--7-7-7-7-7--7-7-7-7-7-7-7--7-7-|---------------------7-5-7--7-7-|
--------------------------------|--------------------------------|


  S S S S E  S S S S S S E  S S    S S S S E  S S S S S S E  S S  
--------------------------------|--------------------------------|
--------------------------------|--4-4-4-4-4--4-4-5-4------------|
--7-7-7-7-7--7-7-7-7-7-7-7--7-7-|---------------------7-5-7--7-7-|
--------------------------------|--------------------------------|


  S S S S E  S S S S S S E  S S    S S S S E  S S S S S S E  S S  
--------------------------------|--------------------------------|
--------------------------------|--4-4-4-4-4--4-4----------------|
--7-7-7-7-7--7-7-7-7-7-7-7--7-7-|-----------------5-5-5-5-5--5-5-|
--------------------------------|--------------------------------|


  S S S S E  S S S S S S E  S S    S S S S E  S S S S S S E  S S  
--------------------------------|--------------------------------|
--------------------------------|--4-4-4-4-4--4-4-5-4------------|
--7-7-7-7-7--7-7-7-7-7-7-7--7-7-|---------------------7-5-7--7-7-|
--------------------------------|--------------------------------|


  S S S S E  S S S S S S E  S S    S S S S E  S S S S S S E  S S  
--------------------------------|--------------------------------|
--------------------------------|--4-4-4-4-4--4-4-5-4------------|
--7-7-7-7-7--7-7-7-7-7-7-7--7-7-|---------------------7-5-7--7-7-|
--------------------------------|--------------------------------|


  S S S S E  S S S S S S E  S S    S S S S E  S S S S S S E  E   
--------------------------------|-------------------------------|
--------------------------------|--4-4-4-4-4--4-4-5-4-----------|
--7-7-7-7-7--7-7-7-7-7-7-7--7-7-|---------------------7-5-7--5--|
--------------------------------|-------------------------------|


  H.           Q       H.           Q       E  E  E  E  E  E   
--------------------|--------------------|--------------------|
---------------5----|--------------------|-----9-----9--------|
--7-----------------|--7------------5----|--7-----7-----7-----|
--------------------|--------------------|--------------------|


  E   E  E   E  E  E     E  E  E  E  E  E     E  E  E  E  E  E   
----------------------|--------------------|--------------------|
-----12-----12--------|-----7-----7--------|-----5-----5--------|
--9------9------9-----|--5-----5-----5-----|--3-----3-----3-----|
----------------------|--------------------|--------------------|


  E  E  E  E  E  E     E  E  E  E  E  E     E  E  E  E  E  E   
--------------------|--------------------|--------------------|
-----5-----5--------|-----7-----7--------|-----9-----9--------|
--3-----3-----3-----|--5-----5-----5-----|--7-----7-----7-----|
--------------------|--------------------|--------------------|


  E  E  E  E  E  E     E  E  E  E  E  E     E   E  E   E  E  E   
--------------------|--------------------|----------------------|
-----9-----9--------|-----9-----9--------|-----12-----12--------|
--7-----7-----7-----|--7-----7-----7-----|--9------9------9-----|
--------------------|--------------------|----------------------|


  E  E  E  E  E  E     E  E  E  E  E  E     E  E  E  E  E  E   
--------------------|--------------------|--------------------|
-----7-----7--------|-----2-----2--------|-----5-----5--------|
--5-----5-----5-----|--0-----0-----0-----|--3-----3-----3-----|
--------------------|--------------------|--------------------|


  E  E  E  E  E  E     E  E  E  E  E  E     E  E  E  E  E  E   
--------------------|--------------------|--------------------|
-----7-----7--------|-----9-----9--------|-----9-----9--------|
--5-----5-----5-----|--7-----7-----7-----|--7-----7-----7-----|
--------------------|--------------------|--------------------|


  E  E  E  E  E  E     E   E  E   E  E  E     E  E  E  E  E  E   
--------------------|----------------------|--------------------|
-----9-----9--------|-----12-----12--------|-----7-----7--------|
--7-----7-----7-----|--9------9------9-----|--5-----5-----5-----|
--------------------|----------------------|--------------------|


  E  E  E  E  E  E     E  E  E  E  E  E     E  E  E  E  E  E   
--------------------|--------------------|--------------------|
-----5-----5--------|-----5-----5--------|-----7-----7--------|
--3-----3-----3-----|--3-----3-----3-----|--5-----5-----5-----|
--------------------|--------------------|--------------------|


  E  E  E  E  E  E     E  E  E  E  E  E     E  E  E  E  E  E   
--------------------|--------------------|--------------------|
-----9-----9--------|-----9-----9--------|-----9-----9--------|
--7-----7-----7-----|--7-----7-----7-----|--7-----7-----7-----|
--------------------|--------------------|--------------------|


  E   E  E   E  E  E     E  E  E  E  E  E     E  E  E  E  E  E   
----------------------|--------------------|--------------------|
-----12-----12--------|-----7-----7--------|-----2-----2--------|
--9------9------9-----|--5-----5-----5-----|--0-----0-----0-----|
----------------------|--------------------|--------------------|


  E  E  E  E  E  E     E  E  E  E  E  E     W                 
--------------------|--------------------|-------------------|
-----5-----5--------|-----7-----7--------|-------------------|
--3-----3-----3-----|--5-----5-----5-----|-------------------|
--------------------|--------------------|--0----------------|


  W                   W                   W                  
-------------------|-------------------|-------------------||
-------------------|-------------------|-------------------||
-------------------|-------------------|-------------------||
--L----------------|--L----------------|--L----------------||




Duration Legend
---------------
W - whole
H - half
Q - quarter
E - 8th
S - 16th
T - 32nd
X - 64th
. - note dotted
|-n-|  - n-tuplets


Tablature Legend
----------------
L - tied note
x - dead note
g - grace note
(n) - ghost note
> - accentuded note
NH - natural harmonic
AH - artificial harmonic
TH - tapped harmonic
SH - semi harmonic
PH - pitch harmonic
h - hammer on
p - pull off
b - bend
br - bendRelease
pb - preBend
pbr - preBendRelease
brb - bendReleaseBend
\n/ - tremolo bar dip
\n - tremolo bar dive
-/n - tremolo bar Release up
/n\ - tremolo bar inverted dip
/n - tremolo bar return
-\n - tremolo bar Release down
S - shift slide
s - legato slide
/ -  slide into from below or out of upwards
\ -  slide into from above or out of downwards
~ - vibrato
W - wide vibrato
tr - trill
TP - tremolo picking
T - tapping
S - slap
P - pop
< - fade in
^ - brush up
v - brush down
comments
We did not receive enough feedback on this tab! Please rate:
print report bad tab
1 2 3 4 5
I want to post or [tab]
guest
You may want to rate the tab now too:
select rating
Please do not post tabs as comments. Select "correction" instead!