Oops, an error
Loading. Please wait.

Fear Of The Dark Tab

ver1
ver1
More versions @911Tabs.com
165,910 views 131 this week
no commentswrite comment
1 2 3 4 5
accurate
x 11
Autoscroll
+/-
esc
set tempo
stop
Contributor
Hey! There's an official Ultimate Guitar app which is ideal
for learning songs when you're away from computer. Get the app
WARNING: You are trying to view
                                    content from Ultimate-Guitar.com
                                    in an unauthorized application,
                                    which is prohibited.

                                    Please use an official Ultimate
                                    Guitar Tabs application for iPhone,
                                    iPad or Android to access legitimate
                                    chords, guitar, bass, and drum tabs
                                    from Ultimate-Guitar.com database.

                                    Type "ultimate guitar tabs" in Apple
                                    App Store's or Android Market's
                                    search to find the application.
IRON MAIDEN - FEAR OF THE DARK ALBUM

1. Be Quick Or Be Dead
2. From Here To Eternity
3. Afraid to Shoot Strangers
4. Fear is The Key
5. Childhood's End
6. Wasting Love
7. The Fugitive
8. Chains Of Misery
9. The Apparition
10. Judas Be My Guide
11. Weekend Warrior
12. Fear Of The Dark

TABLATURE LEGEND
----------------
 h   - hammer-on
 p   - pull-off
 b   - bend
 pb  - pre-bend
 r   - bend release (if no number after the r, then release immediately)
 /\  - slide into or out of (from/to "nowhere")
 s   - legato slide
 S   - shift slide
  - natural harmonic
[n]  - artificial harmonic
n(n) - tapped harmonic
 ~   - vibrato
 tr  - trill
 T   - tap
 TP  - trem. picking
 PM  - palm muting
\n/  - tremolo bar dip; n = amount to dip
 \n  - tremolo bar down
 n/  - tremolo bar up
/n\  - tremolo bar inverted dip
 =   - hold bend; also acts as connecting device for hammers/pulls
 <>  - volume swell (louder/softer)
 x   - on rhythm slash represents muted slash
 o   - on rhythm slash represents single note slash
 |  - bar
||  - double bar
||o - repeat start
o|| - repeat end
*|  - double bar (ending)
 :  - bar (freetime)
 $  - Segno

1. BE QUICK OR BE DEAD
Tuning: Standard EADGBE

e|------------------------------------------------------|
B|------------------------------------------------------|
G|------------------------------------------------------|  Play
D|----5-5-0-0-1-1-3-3-1-0--------5-5-0-0-1-1-3-3-1------|    4
A|--------------------------------------------------3---|  Times
E|-3--------------------------3-------------------------|

e|---------------------------------------------------|
B|---------------------------------------------------|
G|---------------------------------------------------|
D|-------------------------------------------7--8----|
A|-5--5-5--5-5-5-5--5-5--5-5-5-5--5-5--5-5-5-5--6----|
E|-3--3-3--3-3-3-3--3-3--3-3-3-3--3-3--3-3-3---------|
   .  . .  . . . .  . .  . . . .  . .  . . .
   Covered in    sinners   and dripping  with guilt

e|---------------------------------------------------|
B|---------------------------------------------------|
G|---------------------------------------------------|
D|-----------------------------3----5--------8----8\-|
A|-5--5-5--5-5-5-5--5-5--5-5-5-1----3--------6----5\-|
E|-3--3-3--3-3-3-3--3-3--3-3-3-----------------------|
   .  . .  . . . .  . .  . . .
   Making  your  money    from slime and from filth

e|---------------------------------------------------|
B|---------------------------------------------------|
G|---------------------------------------------------|
D|-------------------------------------------7--8----|
A|-5--5-5--5-5-5-5--5-5--5-5-5-5--5-5--5-5-5-5--6----|
E|-3--3-3--3-3-3-3--3-3--3-3-3-3--3-3--3-3-3---------|
   .  . .  . . . .  . .  . . . .  . .  . . .
 Parading your bellies    in i -     vory towers

e|---------------------------------------------------|
B|---------------------------------------------------|
G|---------------------------------------------------|
D|-----------------------------3----5--------8----8\-|
A|-5--5-5--5-5-5-5--5-5--5-5-5-1----3--------6----5\-|
E|-3--3-3--3-3-3-3--3-3--3-3-3-----------------------|
   .  . .  . . . .  . .  . . .
  Investing our  lives in your schemes and your powers

e|---------------------------------------------------|
B|---------------------------------------------------|
G|---------------------------------------------------|
D|---------------------------------------------------|
A|-3--3--3-3-3--3--3--3-3-3-1--1--1-1-1--------------|
E|---------------------------------------1--1--1-1-1-|
   .  .  . . .  .  .  . . . .  .  . . .  .  .  . . .
   You've got to watch them be quick or be dead

e|---------------------------------------------------|
B|---------------------------------------------------|
G|---------------------------------------------------|
D|---------------------------------------8---7---8---|
A|-3--3--3-3-3--3--3--3-3-3-1--1--1-1-1--6---5---6---|
E|---------------------------------------------------|
   .  .  . . .  .  .  . . . .  .  . . .
   Snake eyes in heaven the thief in your head

e|---------------------------------------------------|
B|---------------------------------------------------|
G|---------------------------------------------------|
D|---------------------------------------------------|
A|-3--3--3-3-3--3--3--3-3-3-1--1--1-1-1--------------|
E|---------------------------------------1--1--1-1-1-|
   .  .  . . .  .  .  . . . .  .  . . .  .  .  . . .
   You've got to watch them be quick or be dead

e|---------------------------------------------------|
B|---------------------------------------------------|
G|---------------------------------------------------|
D|---------------------------------------8---7---8---|
A|-3--3--3-3-3--3--3--3-3-3-1--1--1-1-1--6---5---6---|
E|---------------------------------------------------|
   .  .  . . .  .  .  . . . .  .  . . .
   Snake eyes in heaven the thief in your head...

e|---------------------------------------------|
B|---------------------------------------------|
G|---------------------------------------------|
D|----7--5--0----5--3-------3--1-------1--1p0--|
A|---------------------5----------3----------1-|
E|-3----------3----------3----------3----------|
                                             Be

e|---------------------------------------------|
B|---------------------------------------------|
G|---------------------------------------------|
D|----7--5--0----5--3-------3--1-------1--1p0--|
A|---------------------5----------3----------1-|
E|-3----------3----------3----------3----------|
   Quick          Or be  dead                Be

e|---------------------------------------------|
B|---------------------------------------------|
G|---------------------------------------------|
D|----7--5--0----5--3-------3--1-------1--1p0--|
A|---------------------5----------3----------1-|
E|-3----------3----------3----------3----------|
   Quick      (quick)    (quick) (quick) or be

e|---------------------------------------------|
B|---------------------------------------------|
G|---------------------------------------------|
D|----7--5--0----5--3-------3--1-------1--1p0--|
A|---------------------5----------3----------1-|
E|-3----------3----------3----------3----------|
   Dead       (dead)     (dead)     (dead)

e|----------------------------------|
B|----------------------------------|
G|----------------------------------|
D|----------------------------------|
A|-3-----------------5--------------|
E|-1-----------------3--------------|
   See what's ruling all our lives

e|-----------------------------------|
B|-----------------------------------|
G|-----------------------------------|
D|-----------------------------------|
A|-3------------------5--------------|
E|-1------------------3--------------|
   See who's pullling strings

e|----------------------------------|
B|----------------------------------|
G|----------------------------------|
D|----------------------------------|
A|-3-----------------5--------------|
E|-1-----------------3--------------|
   See what's ruling all our lives

e|----------------------------------|
B|----------------------------------|
G|----------------------------------|
D|-3-----------------5--------------|
A|-3-strum-----------5-strum--------|
E|-1-----------------3--------------|
   See who pulls the strings

e|------------------------------------------|
B|------------------------------------------|
G|------------------------------------------|
D|---3-------------5------------3-----------|
A|---1---3---------3----5-------1---3---5---|
E|-------1--------------3-----------1---3---|
I'll bet you won't fall on your face

e|----------------------------------------------------------|
B|----------------------------------------------------------|
G|----------------------------------------------------------|
D|---3----------5-----------3---5---7---------8------10-----|
A|---1---3------3----5------1---3---5---------6------8------|
E|-------1-----------3--------------------------------------|
Your belly will hold you in place...

e|------------------------------------------------------|
B|------------------------------------------------------|
G|------------------------------------------------------|  Play
D|----5-5-0-0-1-1-3-3-1-0--------5-5-0-0-1-1-3-3-1------|    4
A|--------------------------------------------------3---|  Times
E|-3--------------------------3-------------------------|

Play 3rd and 4th time
e|------------------------------------------------------|
B|------------------------------------------------------|
G|----8--------------------------8----------------------|
D|--------7---8---10--8-7------------7---8---10--8------|
A|--------------------------------------------------10--|
E|------------------------------------------------------|

Go back and do the same thing for the next verse and chorus.
Then it goes to the guitar solo. Then it goes finally into
the last chorus. End the song with this chord:
e|--------|
B|--------|
G|--------|
D|--------|
A|-5------|
E|-3------|

SOLO

------------------------------------------------------------------------------|
------------------------------------------------------------------------------|
-10^12vvvv--15-17-15----15----------------------------------------------------|
---------------------17----17-15-13h15p13-------13vvvv------------------------|
------------------------------------------15-13-------------------------------|
------------------------------------------------------------------------------|


------------------------------------------------------------------------------|
------------------------------------------------------------------------------|
------------------------------------------------------------------------------|
-12h13p12-12h13p12-12h13p12-12h13p12-10---------------------------------------|
------------------------------------------------------------------------------|
------------------------------------------------------------------------------|


------------------------------------------------------------------------------|
------------------------------------------------------------------------------|
-------17--------17-----------------------------------------------------------|
-15h17-17--15h17----15h17p15-15h17p15-15h17p15-15h17p15-----------------------|
------------------------------------------------------------------------------|
------------------------------------------------------------------------------|


-13vv-15-13-11-13-11----------------------------------------------------------|
--------------------13-11h13-11-----------------------------------------------|
--------------------------------12-10h12-10-----------------------------------|
--------------------------------------------13-10-13-10-8---8-----------------|
----------------------------------------------------------10--10-8-10-8-------|
------------------------------------------------------------------------8/----|


------------------------------------------------------------------------------|
------------------------------------------------------------------------------|
-7/10--12-10-9--10-9----------------------------------------------------------|
--------------12-----12-10-12-11h12p11h12p11----------------------------------|
---------------------------------------------11h12p11h12p11-------------------|
------------------------------------------------------------9h10p9h10p9-------|


------------------------------------------------------------------------------|
------------------------------------------------------------------------------|
------------------------------------------------------------------------------|
-------10-10-------10-10-10h12p10\*-------------------------------------------|
-10h12-------10h12------------------------------------------------------------|
------------------------------------------------------------------------------|
                                   * slide down while hammering and pulling

------------------------------------------------------------------------------|
------------------------------------------------------------------------------|
------------------17vvv-15p14-12vvv-14p12-10h12p10-10h12p10-7h10p7-7h10p7-----|
------15-12-15p12-------------------------------------------------------------|
-13-12------------------------------------------------------------------------|
------------------------------------------------------------------------------|


------------------------------------------------------------------------------|
------------------------------------------------------------------------------|
---------------------------------12h15p12-12-17p15p12-17p15p12-17p15p12-17vv--|
-10h12p10-10h12p10-7h10p7-7h10p7----------------------------------------------|
------------------------------------------------------------------------------|
------------------------------------------------------------------------------|

=======================TABLATURE LEGEND=====================================
| \ slide down
| h hammeron
| p pulloff
| . palm mute
============================================================================


 2. FROM HERE TO ETERNITY

rythm guitar:
   D5                   C5
|------------------------------------------------------|
|------------------------------------------------------|
|--7--7--7--7--7--7--7--5-----5--5--5--5--5--5--5--5---|
|--7--7--7--7--7--7--7--5-----5--5--5--5--5--5--5--5---|
|------------------------------------------------------|
|------------------------------------------------------|

                                         repeat 3x
                      (solo guitar begins after 2x)
   B5          C5       D5               C5     D5
|------------------------------------------------------|
|------------------------------------------------------|
|--4--4--4--4--5--4--5--7-----7--7--7--7--5--5--7------|
|--4--4--4--4--5--4--5--7-----7--7--7--7--5--5--7------|
|------------------------------------------------------|
|------------------------------------------------------|

 last time:
   D5                   C5
|------------------------------------------------------|
|------------------------------------------------------|
|--7--7--7--7--7--7--7--5-----5--5--5--5--5--5--5--5---|
|--7--7--7--7--7--7--7--5-----5--5--5--5--5--5--5--5---|
|------------------------------------------------------|
|------------------------------------------------------|

   Bb5         C5       D5                C5    E5
|------------------------------------------------------|
|------------------------------------------------------|
|--3--3--3--3--5--3--5--7-----7--7--7--7--5------------|
|--3--3--3--3--5--3--5--7-----7--7--7--7--5-----9------|
|-----------------------------------------------7------|
|------------------------------------------------------|


solo guitar:
   D5                   C5
|------------------------------------------------------|
|-----------------------12b(13)r12---------------------|
|--------10----10----10-12b(13)r12--10-----------------|
|--10/12----12----12-------------------12--------------|
|------------------------------------------------------|
|------------------------------------------------------|

   B5          C5       D5    D5         C5     D5
|------------------------------------------------------|
|-----------------------12b(13)r12-----13b(15)---------|
|--------10----10----10-12b(13)r12--10-----------------|
|--10/12----12----12-----------------------------------|
|------------------------------------------------------|
|------------------------------------------------------|

   D5                   C5
|------------------------------------------------------|
|-----------------------12b(13)r12---------------------|
|--------10----10----10-12b(13)r12--10-----------------|
|--10/12----12----12-------------------12--------------|
|------------------------------------------------------|
|------------------------------------------------------|

   Bb5         C5       D5                C5    E5
|-------------------------------------------21b(22)----|
|--------------------------18-20b(22)r20p18------------|
|--------------------17-19-----------------------------|
|--------15-17-17/19-----------------------------------|
|--15/17-----------------------------------------------|
|------------------------------------------------------|


1st, 2nd verse:

     She fell in love...
   E5                   D5                         C5
|------------------------------------------------------|
|------------------------------------------------------|
|------------------------------------------------------|
|--9-----9-----9--9--9--7-----7--7--------7--7--7--5---|
|--7-----7-----7--7--7--5-----5--5--------5--5--5--3---|
|------------------------------------------------------|

     she leaned over...
   C5                   D5                   C5    E5
|------------------------------------------------------|
|------------------------------------------------------|
|------------------------------------------------------|
|--5-----5-----5--5--5--7-----7--7--------7--5--5--9---|
|--3-----3-----3--3--3--5-----5--5--------5--3--3--7---|
|------------------------------------------------------|

     she'd never seen...
   E5                   D5                         C5
|------------------------------------------------------|
|------------------------------------------------------|
|------------------------------------------------------|
|--9-----9-----9--9--9--7-----7--7--------7--7--7--5---|
|--7-----7-----7--7--7--5-----5--5--------5--5--5--3---|
|------------------------------------------------------|

                                           repeat 2x
     she left there...                             Hell
   C5                   D5 (E)
|------------------------------------------------------|
|------------------------------------------------------|
|------------------------------------------------------|
|--5-----5-----5--5--5-----9-----9-----------------9---|
|--3-----3-----3--3--3-----7-----7-----------------7---|
|-----------------------------------------5--3--0------|


Chorus:
            ain't a  bad   place,                  hell
         (E)
|------------------------------------------------------|
|--------0-----------0-----0--0--------------------0---|
|--------1-----------2-----1--1--------------------2---|
|--------2-----------2-----2--2--------------------2---|
|--------2--------------------2------------------------|
|--------0--------------------0------------------------|

                          after 1st verse: repeat 2x
                          after 2nd verse: repeat 4x

         is from here to eternity.

|------------------------------------------------------|
|------------------------------------------------------|
|--------1--1--2-----1--1--2-----1--4-----4-----4------|
|--------2--2--2-----2--2--2-----2--2-----2-----2------|
|--------------------------------------------------2---|
|--------------------------------------------------0---|

Bridge:

   E5                   D5
|------------------------------------------------------|
|------------------------------------------------------|
|--9--9--9--9--9--9--9--7-----7--7--7--7--7--7--7--7---|
|--9--9--9--9--9--9--9--7-----7--7--7--7--7--7--7--7---|
|------------------------------------------------------|
|------------------------------------------------------|

   C#5         D5             E5          D5    E5
|------------------------------------------------------|
|------------------------------------------------------|
|--6--6--6--6--7--6--7--9-----9--9--9--9--7--7--9------|
|--6--6--6--6--7--6--7--9-----9--9--9--9--7--7--9------|
|------------------------------------------------------|
|------------------------------------------------------|

   E5                   D5
|------------------------------------------------------|
|------------------------------------------------------|
|--9--9--9--9--9--9--9--7-----7--7--7--7--7--7--7--7---|
|--9--9--9--9--9--9--9--7-----7--7--7--7--7--7--7--7---|
|------------------------------------------------------|
|------------------------------------------------------|

   C5          D5             E5          D5    E5
|------------------------------------------------------|
|------------------------------------------------------|
|--5--5--5--5--7--5--7--9-----9--9--9--9--7--7--9------|
|--5--5--5--5--7--5--7--9-----9--9--9--9--7--7--9------|
|------------------------------------------------------|
|------------------------------------------------------|

   E5                   D5
|------------------------------------------------------|
|------------------------------------------------------|
|--9--9--9--9--9--9--9--7-----7--7--7--7--7--7--7--7---|
|--9--9--9--9--9--9--9--7-----7--7--7--7--7--7--7--7---|
|------------------------------------------------------|
|------------------------------------------------------|

   C#5         D5             E5          D5    E5
|------------------------------------------------------|
|------------------------------------------------------|
|--6--6--6--6--7--6--7--9-----9--9--9--9--7--7--9------|
|--6--6--6--6--7--6--7--9-----9--9--9--9--7--7--9------|
|------------------------------------------------------|
|------------------------------------------------------|

(solo begins)
   E5                   D5
|------------------------------------------------------|
|------------------------------------------------------|
|--9--9--9--9--9--9--9--7-----7--7--7--7--7--7--7--7---|
|--9--9--9--9--9--9--9--7-----7--7--7--7--7--7--7--7---|
|------------------------------------------------------|
|------------------------------------------------------|

   C5          D5             E5          D5    E5
|------------------------------------------------------|
|------------------------------------------------------|
|--5--5--5--5--7--5--7--9-----9--9--9--9--7--7--9------|
|--5--5--5--5--7--5--7--9-----9--9--9--9--7--7--9------|
|------------------------------------------------------|
|------------------------------------------------------|

solo guitar:

   E5                   D5
|------------------------------------------------------|
|-----------------------14b(15)r14---------------------|
|--------12----12----12-14b(15)r14--12-----------------|
|--12/14----14----14-------------------14--------------|
|------------------------------------------------------|
|------------------------------------------------------|

   C5          D5       E5                D5    E5
|----------------------------------------22b(24)-------|
|-----------------15-17-20-22b(24)r22-20---------------|
|--------12-14/16--------------------------------------|
|--12/14-----------------------------------------------|
|------------------------------------------------------|
|------------------------------------------------------|

Rythm for solo 1:
 /  /  /  /  /
E5 D5 C5 D5 E5 (repeat 2x)

Rythm for solo 2:
 /  /  /   /  /
D5 C5 Bb5 C5 D5 (repeat 2x)

Repeat chorus 2x after solos and then:

  Hell       ain't a bad   place,
         (E)
|------------------------------------------------------|
|--------0-----------0---------------------------------|
|--------1-----------2-----4---------------------------|
|--------2-----------2-----2---------------------------|
|-2------2---------------------------------------------|
|-0------0-----------------3---------------------------|

  hell   is   from  here  to    e-    ter-  ni-   ty.4
   A5    G#5   E5    A5    G#5   E5    A5    G#5  (E)
|------------------------------------------------------|
|------------------------------------------------------|
|------------------------------------------------------|
|------------------------------------------------------|
|--7-----6-----2-----7-----6-----2-----7-----6-----2---|
|--5-----4-----0-----5-----4-----0-----5-----4-----0---|

Strum last note (E5) a lot of times(with solo guitar).

3. AFRAID TO SHOOT STRANGERS

B:bend( hold )  ~:vibratto          |:end of measure         Guitar 1:Dave Murray
H:hammer-on     /:slide             B...R:bend and release     Guitar 2:Janick Gers
P:pull-off    N.H:natural harmonics

Riff 1: On the original track this Riff is played without distortion, but LIVE with distortion.


Guitar 1: Intro:
    E5                                   G5                                Db5           B5
E---------------------------------------------------------------------------------------------|
B-------7--7/9--7^9^7-------------------10/12--10--8^10--7------------------------------------|
G--7/9-----------H--P---9--8--6^8^6-----------------H-------9--7--6--------6--6--6--6^4-------|
D-----------------------------H--P---9-------------------------------9--7------------P---6/9--|
A---------------------------------------------------------------------------------------------|
E---------------------------------------------------------------------------------------------|


Guitar 2:Play each chord 4 times.
   E5                  G5              Db5               B5
E---------------|----------------|----------------|-----------------|
B---------------|----------------|----------------|-----------------|
G---------------|----------------|------6---6-----|------4---4------|
D------2---2----|-------5---5----|----6---6---6---|----4---4---4----|
A----2---2---2--|----5---5---5---|--4-------------|--2--------------|
E--0------------|--3-------------|----------------|-----------------|


Guitar 1:
   E5                                 G5                                Db5
E------------------------------------------|--------------------------------|
B-------7--7/9--7^9^7---------------10/12--|--10--8^10--7-------------------|
G--7/9----------H--P--9--8--6^8^6----------|-------H-------9--7--6-------6--|
D---------------------------H--P--9--------|-----------------------9--7-----|
A------------------------------------------|--------------------------------|
E------------------------------------------|--------------------------------|

              B5        G#5
----------------------------|
----------------------------|
--6--6--6^4-----------------|
---------P----6/9--6--9--6--|
----------------------------|
----------------------------|

Guitar 2:Play each chord 4 times except G#5 only 2 times.
     E5                 G5              Db5             B5              G#5
E----------------|---------------|---------------|---------------|--------------|
B----------------|---------------|---------------|---------------|--------------|
G----------------|---------------|------6---6----|-------4---4---|--------------|
D------2---2-----|-------5---5---|----6---6---6--|----4---4---4--|------6---6---|
A----2---2---2---|----5---5---5--|--4------------|--2------------|----6---6---6-|
E--0-------------|--3------------|---------------|---------------|--4-----------|


Riff 2:Play 2 times.


Guitar 1 & Guitar 2:Play each chord 4 times.
     E5                  Db5             D5                  B5
E---------------|----------------|-----------------|-----------------|
B---------------|----------------|-----------------|-----------------|
G---------------|-------6---6----|-------7---7-----|--------4---4----|
D------2---2----|-----6---6---6--|-----7---7---7---|------4---4---4--|
A----2---2---2--|--4-------------|--5--------------|---2-------------|
E--0------------|----------------|-----------------|-----------------|


Verse 1:

 E5                      Db5
Lying, awake at night l wipe the sweat from my brow
                 D5                      B5
But it's not the fear, cos l'd rather go now.
 E5                        Db5.
Trying, to visualize the horrors that will lay ahead
                D5               B5
The desert sand mound, a burial ground.


Riff 3:


Guitar 1 & Guitar 2:
     C5            Db5            Bb5         C5               C5          C5           C5
E-------------------------------------------------------------------------------------------------|
B-------------------------------------------------------------------------------------------------|
G------5---5--------6---6--------3---3----------5---5--------5---5---------5---5---------5---5----|
D----5---5---5----6---6---6----3---3---3-----5---5---5-----5---5---5-----5---5---5-----5---5---5--|
A--3------------4------------1-------------3-------------3-------------3-------------3------------|
E-------------------------------------------------------------------------------------------------|


Chorus:
        C5           Db5         Bb5         C5
When it comes to the time are we partners in crime
        C5           Db5         Bb5         C5
When it comes to the time we'll be ready to die.


Now play Riff 2 again.


Verse 2:


 E5                     Db5
God, let us go now and finish what's to be done
             D5                B5
Thy kingdom come, thy shall be done, on earth
 E5                     Db5
Trying, to justify to ourselves the reasons to go
                         D5               B5
Should we live and let live? Forget or forgive?


Riff 4:Play 4 times.


Guitar 1 & Guitar 2:
    C5              C5            Db5            Bb5           C5
E-----------------------------------------------------------------------------|
B-----------------------------------------------------------------------------|
G------5---5---------5---5----------6---6---------3---3---------5---5---------|
D----5---5---5-----5---5---5------6---6---6-----3---3---3-----5---5---5----5--|
A--3-------------3-------------4--------------1-------------3------------3----|
E-----------------------------------------------------------------------------|

C5          C5           C5
---------------------------------|
---------------------------------|
5---5-------5---5--------5---5---|
-5---5----5---5---5----5---5---5-|
--------3------------3-----------|
---------------------------------|

Chorus:


    C5          Db5     Bb5        C5
But how can we let them go on this way?
     C5       Db5      Bb5          C5
The reign of terror corruption must end.
       C5          Db5         Bb5      C5
And we know, deep down there's no other way
    C5         Db5     Bb5        C5
No trust, no reasoning no more to say.


Riff 5:Play 4 times.    (The chords with the asterisk are played the 2nd and 4th time only)


Guitar 1 & Guitar 2:
E----------------------------------9-----------------------------------------------------------|
B-------9--10--9-----10----10--12----12--10--12----9--10--12-----9--10--12--10--9-----------9--|
G----11-----------11----11----------------------9-------------9-------------------11--9--11----|
D-11-------------------------------------------------------------------------------------------|
A----------------------------------------------------------------------------------------------|
E----------------------------------------------------------------------------------------------|


Riff 6: Play 4 times (The chords with the asterisk are played the 2nd and 4th time only)


Guitar 1 & Guitar 2:                                         (B5)*     (C#5)*
Bass:F#5                   D5            E5                   D5         E5
E-------------------------------------------|--------------------------------------------|
B---------10--10---10--12--10--9--10-----9--|--9--9--9--9-----------------------9--------|
G-----11-----------------------------11-----|--------------9--11--11--11--9--11----11^9--|
D-------------------------------------------|----------------------------------------P---|
A-------------------------------------------|--------------------------------------------|
E-------------------------------------------|--------------------------------------------|


The 3rd and 4th time, Bruce sings: Afraid to shoot strangers.


Now play Riff 5 again 2 times.


Riff 7:


Guitar 1 & Guitar 2:
E-----------------------------------|-------------------------------|
B-----------------------------------|-------------------------------|
G-----------------------------------|-------------------------------|
D---7/9--9--9--9--9--9--9--9--9--9--|--7/9--9--9--9--9--7--7--5--5--|
A---5/7--7--7--7--7--7--7--7--7--7--|--5/7--7--7--7--7--5--5--3--3--|
E-----------------------------------|-------------------------------|

E-----------------------------------|-------------------------------|
B-----------------------------------|-------------------------------|
G-----------------------------------|-------------------------------|
D---5/7--3--3--3--3--3--3--3--3--3--|--5/7--7--7--7--7--------------|
A---3/5--5--5--5--5--5--5--5--5--5--|--3/5--5--5--5--5--7--7--9--9--|
E-----------------------------------|-------------------5--5--7--7--|


E-----------------------------------|--------------------------------|
B-----------------------------------|--------------------------------|
G-----------------------------------|--------------------------------|
D--7/9--9--9--9--9--9--9--9--9--9---|--7/9--9--9--9--9--7--7--5--5---|
A--5/7--7--7--7--7--7--7--7--7--7---|--5/7--7--7--7--7--5--5--3--3---|
E-----------------------------------|--------------------------------|


Guitar 1 now plays Riff 7 ( once ) and Guitar 2 plays the solo (As played on the album).


Guitar 2: Solo


E--15^12------------12--15^12-------------12--15^12--------------12--15^12----|
B----P---15^12^15---------P---15--12--15--------P----15--12--15--------P----15|
G----------P--H---------------------------------------------------------------|
D-----------------------------------------------------------------------------|
A-----------------------------------------------------------------------------|
E-----------------------------------------------------------------------------|


E---------12--15^12-------------12--15^12-------------------------|
B--12--15-------P---15--12--15--------P---15--12--15^12--15^17^15-|
G---------------------------------------------------P------B--R---|
D-----------------------------------------------------------------|
A-----------------------------------------------------------------|
E-----------------------------------------------------------------|

-19-------------------------------------------------------------------|
-----19---------------------------------------------------------------|
---------19-----------------------------------------------------------|
--------------19--12--19--12------------------------------------------|
---------------------------------19--12--19--12-----------------------|
-----------------------------------------------------19--12--12--19/3-|

E-------12-----------------------------------------------------------------------------|
B-15^17----15^14^12------12------------------------------------------------------------|
G---B--------P---P---15-----14^13^12-----12--------------------------------------------|
D-----------------------------P--P----14------14^12-----12-----------------------------|
A-----------------------------------------------P----14-----14^13^12-----12----12------|
E-------------------------------------------------------------P--P----15----15----12/3-|

-----------------|
-----------------|
-14^16--12-[16]--|
---B-------A.H---|
-----------------|
-----------------|
        [Tremolo]
       [ Dive-bomb]


Riff 8:


Guitar 1:
E-----------------------|---------------------------------------------10^12~--|
B--8--10--10^12--10--8--|--8--10--10^12--10--8--7--10^12--10--8--7--8---B-----|
G-----------B-----------|-----------B----------------B------------------------|
D-----------------------|-----------------------------------------------------|
A-----------------------|-----------------------------------------------------|
E-----------------------|-----------------------------------------------------|


Guitar 2:
E-----------------------|-----------------------------------------------------|
B-----------------------|---------------------------------------------10^12~--|
G--9--11---12---11---9--|--9--11----12----11--9------12----11--9----9---B-----|
D-----------------------|------------------------12--------------12-----------|
A-----------------------|-----------------------------------------------------|
E-----------------------|-----------------------------------------------------|


Guitar 1:
E--8--10--10^12--10--8--|--8--10--10^12--10--8--7--10^12--10--8--7--8---15^17--15^17--|
B-----------B-----------|-----------B----------------B--------------------B------B----|
G-----------------------|-------------------------------------------------------------|
D-----------------------|-------------------------------------------------------------|
A-----------------------|-------------------------------------------------------------|
E-----------------------|-------------------------------------------------------------|


Guitar 2:
E-----------------------|------------------------------------------------10^12--10^12-|
B--10--12--13---12--10--|--10--12--13---12--10-------13---12--10-----10----B------B---|
G-----------------------|-----------------------12---------------12-------------------|
D-----------------------|-------------------------------------------------------------|
A-----------------------|-------------------------------------------------------------|
E-----------------------|-------------------------------------------------------------|


Chorus:


Riff 9: Play 2 times.


Guitar 1 & Guitar 2:
  Db5  E5   Db5 E5   A5  G5    C5  Db5      C5  Db5 A5  G5     Db5  E5     Db5 E5   A5  G5
E--------|-------------------|----------|-------------------|-----------|-------------------|
B--------|-------------------|----------|-------------------|-----------|-------------------|
G--------|-------------------|----------|-------------------|-----------|-------------------|
D--7---9-|---7---9---14--12--|--5---7---|---5---7---14--12--|---7---9---|---7---9---14--12--|
A--5---7-|---5---7---12--10--|--3---5---|---3---5---12--10--|---5---7---|---5---7---12--10--|
E--------|-------------------|----------|-------------------|-----------|-------------------|
  < ------Play 2 times----------------------------------------------------------------------| >


Chorus:


Db5 E5  Db5 E5      A5  G5
Afraid, afraid to shoot strangers


Db5 E5  Db5 E5      A5  G5
Afraid, afraid to shoot strangers


C5  Db5  C5  Db5    A5  G5
Afraid, afraid to shoot strangers


Db5 E5  Db5 E5      A5  G5
Afraid, afraid to shoot strangers


Now Guitar 2 plays Riff 7 (once) and Guitar 1 the solo:
Guitar 1: Solo:
E12^13^12----12-------12--------------------------------------------------------------------------|
B--H--P---15----15^17----15--13--12^13^12----12--15--13--12----12--10^11^10-----10----------------|
G-----------------B----------------H--P---14----------------14-------H--P----12----10-12-9^10^9^10|
D-----------------------------------------------------------------------------------------H--P--H-|
A-------------------------------------------------------------------------------------------------|
E-------------------------------------------------------------------------------------------------|


E-------------------------------------------------------------------------------------------------|
B-10(hold)----------------------------------12^13^12-----12--15^13^12----12----12^13^15^12--13^15-|
G-12^14^12--14^16--12/14--14^12---------------H--P----14-------P--P---14----14---H--H--P------B---|
D---B--R------B-------------P---14^12-------------------------------------------------------------|
A---------------------------------P---14----------------------------------------------------------|
E-----------------------------------------15------------------------------------------------------|


E--0--0--18--0--0--15--0--0--14--0--0--12--0--0--10--0--0--8--0--0--7--0--0--|
B----------------------------------------------------------------------------|
G----------------------------------------------------------------------------|
D----------------------------------------------------------------------------|
A----------------------------------------------------------------------------|
E----------------------------------------------------------------------------|


E--------------------------------------------|---------------------------------------------|
B--------------------------------------------|---------------------------------------------|
G--------------------------------------------|---------------------------------------------|
D-14^16^17^16^17^16^14--17^16^14^15--14------|--14^16^17^16--14/17--19^20^19--17^19^20^19--|
A---H--H--P--H--P--P------P--P--H-------17---|----H--H--P-------------H--P------H--H---P---|
E--------------------------------------------|---------------------------------------------|


E---------------------------------------------------------|
B---------------------------------------------------------|
G---------------------------------------------------------|
D--17^19^20^19--17^19^20^19^20^19--17^19^20^19^17---------|
A----H--H--P------H--H--P--H--P------H--H--P--P-----20----|
E---------------------------------------------------------|


E------------------------------------------12--13--12-----12--13--15--------15--17--17^19~--|
B------------------------------12--13/15---------------15-------------15/17-----------B-----|
G------12--14--15--14--12/14----------------------------------------------------------------|
D--14---------------------------------------------------------------------------------------|
A-------------------------------------------------------------------------------------------|
E-------------------------------------------------------------------------------------------|


Riff 10: Play 4 times.


Guitar 1 & Guitar 2:
Bass:F#5                  D5                     E5
E---------------------9--|--10--9-----------------|-------------------|
B----------9--10--12-----|---------12--10--9--10--|--12--10^9---------|
G------11----------------|------------------------|--------P----9--9--|
D------------------------|------------------------|-------------------|
A------------------------|------------------------|-------------------|
E------------------------|------------------------|-------------------|


    (B5)*  (C#5)*
     D5      E5
----------------------------------|
----------10--10--10--10^9--------|
------------------------P-----9---|
--11--12--------------------------|
----------------------------------|
----------------------------------|

Play Riff 6 (6 times).      The last 4 times Bruce sings: Afraid to shoot strangers


Ending:
Guitar 1 & Guitar 2:
Bass:F#5
E----------------|
B----------------|
G-----11~~~~-----|
D----------------|
A----------------|
E----------------|

4. FEAR IS THE KEY

-|-||--------------------------------------------|----------------------------|
-|-||--------------------------------------------|----------------------------|
-|6||---9-9-10---x-x-7/9-----9-9-10---x-x-14--13-|---9-9-10---x-x-7/9-----9-9-|
-|4||------------x-x------------------x-x--------|------------x-x-------------|
-|-||---7-7--8---x-x-5/7-----7-7--8---x-x-12--11-|---7-7--8---x-x-5/7-----7-7-|
-|-||0--------------------0----------------------|0--------------------0------|
     (INTRO)              e  s s  e   s s e    e (etc.)

--------------|---------------------------------------------------------------|
--------------|---------------------------------------------------------------|
------------4-|9-------------------------9------9--------7--5--4--------------|
--------------|---------------------------------------------------------------|
--------------|---------------------------------------------------------------|
--------------|---------------------------------------------------------------|
  Gtr.2     s |w                         s      e        s  e  e            |

--------------|--------------------------------------------|------------------|
--------------|--------------------------------------------|------------------|
-10-x-x--5--4-|---9-9-10---x-x-7/9-----9-9-10---x-x-14--13-|---9-9-10---x-x---|
----x-x-------|------------x-x------------------x-x--------|------------x-x---|
--8-x-x--3--2-|---7-7--8---x-x-5/7-----7-7--8---x-x-12--11-|---7-7--8---x-x---|
--------------|0--------------------0----------------------|0-----------------|
  Gtr.1 (end)

----------------------------|-|-------------|10--------x----------------||----|
--------------------------5-|-|10-----------|---10---9---6----5---------||----|
----------------------------|4|-------------|---------------------------||----|
----------------------------|4|-------------|---------------------------||----|
----------------------------|-|-------------|---------------------------||----|
----------------------------|-|-------------|---------------------------||----|
  Gtr.2                   s | | w            e  s   e  e s    e         ||  |

----------------------------|-|-------------|---------------------------||----|
----------------------------|-|-------------|---------------------------||----|
-7-/9-----9-9-10---x-x-5--4-|4|-------------|---------------------------||----|
-------------------x-x------|4|2------------|-----------------2---------||----|
-5-/7-----7-7--8---x-x-3--2-|-|0------------|-----------------0-5-------||----|
-------0--------------------|-|-------------|-------------------3-------||----|
  Gtr.1                        w                              s e

-----------------------------------|------------------------------------------|
--5\-------0-----------------------|------------------------------------------|
-----------------------------------|------------------------------------------|
-----------------------------------|------------------------------------------|
-----------------------------------|------------------------------------------|
-----------------------------------|------------------------------------------|
 (gn) end Gtr.2                    |

-----------------------------------|------------------------------|-----------|
-----------------------------------|------------------------------|-----------|
-----------------------------------|------------------------------|-----------|
---------------------5-2---------5-|------------------5-2---------|-----------|
--2--2-2--2--2-2--2------4---2-4---|2--2-2--2--2-2--2-----4---2-4-|2--2-2--2--|
--0--0-0--0--0-0--0--------5-------|0--0-0--0--0-0--0-------5-----|0--0-0--0--|
 Rhy.Fig 1

----------------------|------------------------------|------------------------|
----------------------|------------------------------|------------------------|
----------------------|------------------------------|------------------------|
--------5-2---------2-|------------------5-2---------|------------------5-2---|
-2-2--2-----4---2-4---|2--2-2--2--2-2--2-----4---2-4-|2--2-2--2--2-2--2-------|
-0-0--0-------5-------|0--0-0--0--0-0--0-------2-----|0--0-0--0--0-0--0-------|
                                                   We live our lives__ in fe-

-----------|------------------------------|--------------------------------|--|
-----------|------------------------------|--------------------------------|--|
-----------|------------------------------|--------------------------------|--|
---------5-|------------------5-2---------|------------------5-2---------2-|--|
-4---2-4---|2--2-2--2--2-2--2-----4---2-4-|2--2-2--2--2-2--2-----4---2-4---|--|
---5-------|0--0-0--0--0-0--0-------5-----|0--0-0--0--0-0--0-------5-------|--|
 ver,__________                         in a choking sweat of fear.__________

-------------------------------|--------------------------------|-------------|
-------------------------------|--------------------------------|-------------|
-------------------------------|--------------------------------|-------------|
-------------------5-2---------|------------------5-2---------5-|-------------|
-2--2-2--2--2-2--2-----4---2-4-|2--2-2--2--2-2--2-----4---2-4---|2--2-2--2----|
-0--0-0--0--0-0--0-------5-----|0--0-0--0--0-0--0-------5-------|0--0-0--0----|
 _____                    In the heat of the night you can feel so much__

--------------------|--------------------------------|-----------------------|
--------------------|--------------------------------|-----------------------|
--------------------|--------------------------------|-----------------------|
--------5-2---------|------------------5-2---------2-|----------------2-2----|
-2-2--2-----4---2-4-|2--2-2--2--2-2--2-----4---2-4---|2--2-2--2--2-2--2-2----|
-0-0--0-------5-----|0--0-0--0--0-0--0-------5-------|0--0-0--0--0-0----0----|
            in the heat of the night I scream 'Don't touch!________(chorus)I

------------------------|---------------------|------------------------|------|
------------------------|---------------------|------------------------|------|
------------------------|---------------------|------------------------|------|
----5------------7------|---9--9----7---------|-5--------------7-------|---9--|
----3------------5------|---7--7----5---------|-3--------------5-------|---7--|
------------------------|0--------------------|------------------------|0-----|
 remember a time when we used not abused,  we fought all our battles in vain.

------------|-----------------------------|--------------------------------|--|
------------|-----------------------------|--------------------------------|--|
------------|-----------------------------|--------------------------------|--|
-9---7------|-5-------------7-------------|--------------------------------|--|
-7---5------|-3-------------5-------------|2--2-2--2--2-2--2--2-2--2--2-2--|--|
------------|-----------------------------|0--0-0--0--0-0--0--0-0--0--0-0--|--|
         I remember a time we thought that pas-sion was____  free,___ in the

-------------------------|--------------------------------------------|-------|
-------------------------|--------------------------------------------|-------|
-------------------------|---9-9-10---x-x-7/9-----9-9-10---x-x-14--13-|-------|
---5-------------7-------|------------x-x------------------x-x--------|-------|
---3-------------5-------|---7-7--8---x-x-5/7-----7-7--8---x-x-12--11-|-------|
-------------------------|0--------------------0----------------------|-------|
 heat of the night____    bod  -     ies___ a - flame,_______________________

-------------------------------------------|----------------------------------|
-------------------------------------------|----------------------------------|
-----------------------------------------7-|9----------------------------7----|
-------------------------------------------|----------------------------------|
-------------------------------------------|----------------------------------|
-------------------------------------------|----------------------------------|
 |Gtr.2                                                                     |

-------------------------------------------|----------------------------------|
-------------------------------------------|----------------------------------|
----9-9-10---x-x-7/9-----9-9-10---x-x-5--4-|---9-9-10---x-x-7/9-----9-9-10----|
-------------x-x------------------x-x------|------------x-x-------------------|
----7-7--8---x-x-5/7-----7-7--8---x-x-3--2-|---7-7--8---x-x-5/7-----7-7--8----|
-0--------------------0--------------------|0--------------------0------------|
 ____________________________________________________________________________

------------|------------------------------------------|-|-------------|------|
------------|------------------------------------------|-|-------------|------|
----------5-|--4---------------------------------------|4|-------------|5*----|
------------|------------------------------------------|4|2------------|------|
------------|------------------------------------------|-|0------------|------|
------------|------------------------------------------|-|-------------|------|
 |Gtr.2                                                     \ bar dives \   |

------------|------------------------------------------|-|-------------|------|
------------|------------------------------------------|-|-------------|------|
-x-x-14--13-|---9-9-10---x-x-7/9-----9-9-10---x-x-5--4-|4|-------------|------|
-x-x--------|------------x-x------------------x-x------|4|2------------|-2----|
-x-x-12--11-|---7-7--8---x-x-5/7-----7-7--8---x-x-3--2-|-|0------------|-0-5--|
------------|0--------------------0--------------------|-|-------------|---3--|
 _ we live in fever.______               (end chorus)     w              s e

-|-|-----------------||----------------------------||-------------------------|
-|-|-----------------||----------------------------||-------------------------|
-|4|-----------------||----------------------------||-------------------------|
-|4|-----------------||----------------------------||-------------------------|
-|-|-----------------||----------------------------||-------------------------|
-|-|-----------------||----------------------------||-------------------------|
    Repeat Rhy.Fig 1.   (chorus)first 8 bars;then

------12-11--12--11------------------------|14------14-14-14-14--12-----------|
--------------------13--12-----------------|-----------------------------10-9-|
-------------------------------------------|----------------------------------|
-------------------------------------------|----------------------------------|
-------------------------------------------|----------------------------------|
-------------------------------------------|----------------------------------|
 |Grt.2                                                                     |

-------------------------------------------|----------------------------------|
-------------------------------------------|----------------------------------|
----9-9-10---x-x-7/9-----9-9-10---x-x-5--4-|---9-9-10---x-x-7/9------9-9-10---|
-------------x-x------------------x-x------|------------x-x-------------------|
----7-7--8---x-x-5/7-----7-7--8---x-x-3--2-|---7-7--8---x-x-5/7------7-7--8---|
-0--------------------0--------------------|0---------------------0-----------|
 Gtr.1                             we live______ in fever______         we

------------|-|------------------------------------------|-|------------------|
------------|-|------------------------------------------|-|------------------|
------------|6|10---9------9-------9-------10------------|-|------------------|
------------|4|------------------------------------------|-|------------------|
------------|-|------------------------------------------|-|------------------|
------------|-|------------------------------------------|-|------------------|
 |Gtr.2                                                    |

------------|-|------------------------------------------|-|------------------|
------------|-|------------------------------------------|-|------------------|
-x-x-14--13-|6|---9-9-10---x-x-7/9-----9-9-10---x-x-5--4-|-|------------------|
-x-x--------|4|------------x-x------------------x-x------|-|------------------|
-x-x-12--11-|-|---7-7--8---x-x-5/7-----7-7--8---x-x-3--2-|-|------------------|
------------|-|0--------------------0--------------------|-|------------------|
 live ___      in     fe - ver.

--|-|----------------------------|--------------------------|-----------------|
--|-|----------------------------|--------------------------|-----------------|
--|4|----------------------------|--------------------------|-----------------|
--|4|---------2-------------5----|-4--------------------7---|-5---------------|
--|-|---------0-------------3----|-2--------------------5---|-3---------------|
--|-|----------------------------|--------------------------|-----------------|
 Gtr 1 and 2    Now we live   in a world__ of uncertainty.    fear is the

--------|---------------------------|-------------------------|---------------|
--------|---------------------------|-------------------------|---------------|
--------|---------------------------|-------------------------|---------------|
-----9--|-7-------------------------|-2------------------5----|-4-------------|
-----7--|-5-------------------------|-0------------------3----|-2-------------|
--------|---------------------------|-------------------------|---------------|
 key   to what you want to be.    You don't get a say,   the majority gets

-------------------------|-----------------------------|---------------------|
-------------------------|-----------------------------|---------------------|
-------------------------|-----------------------------|---------------------|
------------7------------|-5-----------------9---------|-7-------------------|
------------5------------|-3-----------------7---------|-5-------------------|
-------------------------|-----------------------------|---------------------|
 its way,  you're out numbered by the ........ 'til the day you die._________

--------------------|------------------------|--------------------|-----------|
--------------------|------------------------|--------------------|-----------|
--------------------|------------------------|--------------------|-----------|
--------------------|------------------------|--------------------|-----------|
-2-----------2------|-2---------3-2-0-------0|-2-----------2------|-2---------|
-0-----------0------|-0---------------3-2-3--|-0-----------0------|-0---------|
     rest        rest     rest                     rest       rest      rest

------------|---------------------|--------------------------|----------------|
------------|---------------------|--------------------------|----------------|
------------|---------------------|--------------------------|----------------|
--5---------|---------------------|--------------------------|----------------|
--3--2-0----|-2-----------2-------|-2-----------3-2-0-------0|-2-----------2--|
---------3-2|-0-----------0-------|-0-----------------3-2-3--|-0-----------0--|
                  rest       rest        rest                      rest

------------------------------|---------------------|-------------------------|
------------------------------|---------------------|-------------------------|
------------------------------|---------------------|-------------------------|
------------------------------|---------------------|-------------------------|
-----------2------------------|-2-----------2-------|-------------------------|
-----------0-----------3-3-2-3|-0-----------0-------|-------------------------|
  rest          rest                rest       rest

------------------|-------------------------|------------------------|--------|
------------------|-------------------------|------------------------|--------|
------------------|----------------14b16r14p12-----------------------|--------|
----------2-4-5---|----4--5--7--------------|-14------------2-4-5----|-4-5-7--|
----------------3-|------------5------------|---------------------3--|--------|
------------------|-------------------------|------------------------|--------|
 |Gtr.2                                                                     |

--------------------|-------------------------|----------------------|--------|
--------------------|-------------------------|----------------------|--------|
--------------------|-------------------------|----------------------|--------|
--------------------|-5------------7----------|---9----9----7--------|-5------|
---2----------------|-3------------5----------|---7----7----5--------|-3------|
---0----------------|-------------------------|0---------------------|--------|
 Gtr.1    rest

--------|-------------------------|-----------------------|-------------------|
--------|-----------17b-----------|-----------------------|-------------------|
----14b16r14p12-------------------|---------------14b16r14p12-----------------|
--------|-------14---------2-4-5--|-------4-5-7-----------|---14--------------|
-5------|------------------------3|-------------5---------|-------------------|
--------|-------------------------|-----------------------|-------------------|
  |Gtr.2                                                                    |

--------|-------------------------|-----------------------|-------------------|
--------|-------------------------|-----------------------|-------------------|
--------|-------------------------|-----------------------|-------------------|
-7------|---9-----9-----7---------|-5-----------7---------|-------------------|
-5------|---7-----7-----5---------|-3-----------5---------|2--2-2--2--2-2--2--|
--------|0------------------------|-----------------------|0--0-0--0--0-0--0--|
 Gtr.1

-----------|-------------------------|---------------0------------------------|
-----------|-------------------------|---------------1------------------------|
-----------|-------------------------|---------------0------------------------|
---2-4-5---|-------4-5-7-------------|----------------------------------------|
---------3-|-------------5-----------|---0--0-0-0-0----------------------0--0-|
-----------|-------------------------|----------------------------------------|
 |Gtr.2                    (Fig 2) I |hear your silent heartbeat and I hear

-----------|-------------------------|----------------------------------------|
-----------|-------------------------|----------------------------------------|
-----------|-------------------------|----------------------------------------|
-----------|-5------------7----------|----------------------------------------|
-2-2-2--2-2|-3------------5----------|----------------------------------------|
-0-0-0--0-0|-------------------------|----------------------------------------|
  Gtr.1                            Gtr.1&2

----------0-------------|---------------0------------------|--------------0---|
----------0-------------|---------------0------------------|--------------0---|
----------0-------------|---------------2------------------|--------------0---|
------------------------|---------------4------------------|------------------|
--0-0-0-----------------|---0--0-0-0-0---------------------|--0--0-0-0-0------|
------------------------|----------------------------------|------------------|
  your silent cries.                          Oh__________

-----------|-------------0-------|-------------0------|-------------0--------|
-----------|-------------1-------|-------------0------|-------------0--------|
-----------|-------------0-------|-------------0------|-------------2--------|
-----------|---------------------|--------------------|-------------4--------|
-----------|-0--0-0-0-0----------|-0--0-0-0-0---------|-0--0-0-0-0-----------|
-----------|---------------------|--------------------|----------------------|
     lies________________________________________ and lies.

-------------0------|-------------0--------|-------------0--------|-----------|
-------------0------|-------------3--------|-------------2--------|-----------|
-------------0------|-------------2--------|-------------2--------|-----------|
--------------------|----------------------|----------------------|-----------|
-0--0-0-0-0---------|-2--2-2-2-2-----------|-2--2-2-2-2-----------|-2--2-2-2--|
--------------------|----------------------|----------------------|-----------|
              The kids have lost their freedom and nobody cares 'til

----0------|-------------0-------|-------------0-------|-------------0-------|
----3------|-------------2-------|-------------1-------|-------------0-------|
----2------|-------------2-------|-------------0-------|-------------0-------|
-----------|---------------------|---------------------|---------------------|
-2---------|-2--2-2-2-2----------|-0--0-0-0-0----------|-0--0-0-0-0----------|
-----------|---------------------|---------------------|---------------------|
 somebody famous dies.    They're telling lies_________ and lies__ and lies

-------------0------|-------------0-------|-|----------|---------|------------|
-------------0------|-------------0-------|-|----------|---------|------------|
-------------2------|-------------0-------|6|-2----5---|-4----7--|-5----9-----|
-------------4------|---------------------|8|-2----3---|-4----7--|-5----9-----|
-0--0-0-0-0---------|-0--0-0-0-0----------|-|-0----3---|-2----5--|-3----7-----|
--------------------|---------------------|-|----------|---------|------------|
 and lies and lies and lies______.             rest  (Oh) rest (Aagh) rest

------------------|-------------------||-|--------------|-|---------|---------|
------------------|-------------------||-|--------------|-|---------|---------|
-8----------------|-------------------||3|8---12---11---|6|2----5---|-4-------|
-8----------------|-------------------||4|8---12---11---|8|2----5---|-4-------|
-6----------------|-------------------||-|6---10----9---|-|0----3---|-2-------|
------------------|-------------------||-|--------------|-|---------|---------|
   rest (end Fig)   Repeat Fig.2 then        Aagh_________   rest       rest

-----|----------|-|--------------||-|---------------7-8--8p7----7-------------|
-----|----------|-|--------------||-|-12b-------12b----------10---10-8-----8--|
-7---|-5----9---|3|8---12---11---||6|-----------------------------------------|
-7---|-5----9---|4|8---12---11---||4|-----------------------------------------|
-5---|-3----7---|-|6---10----9---||-|-----------------------------------------|
-----|----------|-|--------------||-|-----------------------------------------|
  rest  rest                       (Gtr solo) (w/Intro 5xs)

-------|---------------11-h-12--11-12-11-12-11-|------------------------------|
-7-8p7-|---------------------------------------|13p12-13p12-10------10--10-8--|
-------|-9--8h9--------------------------------|------------------------------|
-------|---------------------------------------|------------------------------|
-------|---------------------------------------|------------------------------|
-------|---------------------------------------|------------------------------|


----------------|------------------------------------------------------------|
-10----9-10-9-6-|--6p5h6p5------------------------------------------x-17b----|
----------------|----------6p5h6p5----5---5\4---4h5p4---4---------x----------|
----------------|-------------------7---7-----6-------6---6---/7-------------|
----------------|-------------------------------------------7----------------|
----------------|------------------------------------------------------------|


---------------------------------------------------|--------------------------|
-17b---17b---15-13p12-13-12------------------------|--------------------------|
---------------------------------14p13-14p13-------|--------------------------|
---------------------------------------------------|---------13-14p13----13---|
---------------------------------------------------|------------------15------|
---------------------------------------------15p14-|12-14-15------------------|


---------------------12-------11-------|--------------------------------------|
------------------13-------13----13p12-|13p12----12---------------/15-br--13--|
-------12p11--/14-------14-------------|------14-----14-12-11-----------------|
----13---------------------------------|--------------------------------------|
-14------------------------------------|--------------------------------------|
---------------------------------------|--------------------------------------|


--------------------------|--------------------------------------15-----------|
-12-13----12--h-13p12--12-|12h13p12----12-15--12h13p12-----12h13----12h13p12--|
---------------------14---|---------14------------------14--------------------|
--------------------------|---------------------------------------------------|
--------------------------|---------------------------------------------------|
--------------------------|---------------------------------------------------|


------------------|-|---------------------------------------------------------|
----12-------19---|-|22b------------------------------------------------------|
-14----14-17------|4|---------------------------------------------------------|
------------------|4|---------------------------------------------------------|
------------------|-|---------------------------------------------------------|
------------------|-|---------------------------------------------------------|
                  | Gtr.2                      |end Gtr.2 (end solo)

------------------|-|--------------------------|-----------------------------|
------------------|-|--------------------------|-----------------------------|
------------------|4|--------------------------|-----------------------------|
------------------|4|2-------------------5-----|-----4-----------------7-----|
------------------|-|0-------------------3-----|-----2-----------------5-----|
------------------|-|--------------------------|-----------------------------|
                    Gtr.1 Now we're living in,  in a world of uncertainty,

-|-------------------|--------------------------|----------------------------|
-|-------------------|--------------------------|----------------------------|
-|-------------------|--------------------------|----------------------------|
-|5--------------9---|-7------------------------|-2-----------------5--------|
-|3--------------7---|-5------------------------|-0-----------------3--------|
-|-------------------|--------------------------|----------------------------|
 fear is the key  to waht you want to be.   You don't get to say,    the

--------------------------|-------------------------------------|-------------|
--------------------------|-------------------------------------|-------------|
--------------------------|-------------------------------------|-------------|
-4----------------------7-|-----5-----------------------9-------|---7---------|
-2----------------------5-|-----3-----------------------7-------|---5---------|
--------------------------|-------------------------------------|-------------|
 majority gets its way, you're outnumbered by the ........  'til the day you

------|--------------------------|--------------------------------------------|
------|--------------------------|--------------------------------------------|
------|---9--9--10----7/9-----9--|--------------------------------------------|
------|--------------------------|--------------------------------------------|
------|---7--7---8----5/7-----7--|--------------------------------------------|
------|0-------------------------|--------------------------------------------|
 die.


 5. CHILDHOOD'S END


E-|-----------------------------|---------------------------------------------|
B-|-----------------------------|---------------------------------------------|
G-|--------12--11---------------|---------12--11------14--12--11--------------|
D-|-9--14----------12--9--14----|--9--14----------12--------------14----------|
A-|-----------------------------|---------------------------------------------|
E-|-----------------------------|---------------------------------------------|


    Last time :
E-|---------------------------------------------------------------------------|
B-|---------------------------------------------------------------------------|
G-|--------12--11-------------------------------------------------------------|
D-|-9--14----------12--9------------------------------------------------------|
A-|---------------------------------------------------------------------------|
E-|---------------------------------------------------------------------------|


    3 times                           The 4th time
E-|---------------------------------|-----------------------------------------|
B-|-9--12--14--12--14--12--11--12---|--7--12--14--12--14--12--11--12----------|
G-|---------------------------------|-----------------------------------------|
D-|---------------------------------|-----------------------------------------|
A-|---------------------------------|-----------------------------------------|
E-|---------------------------------|-----------------------------------------|


   Verse :
E-|---------------------------------------------------------------------------|
B-|---------------------------------------------------------------------------|
G-|---------------------------------------------------------------------------|
D-|-9----------------7-------------5-----------4-----5------------------------|
A-|-7----------------5-------------3-----------2-----3------------------------|
E-|---------------------------------------------------------------------------|

   Chorus :
    3 times                           The 4th time
E-|---------------------------------|-----------------------------------------|
B-|-9--12--14--12--14--12--11--12---|--7--12--14--12--14--12--11--12----------|
G-|---------------------------------|-----------------------------------------|
D-|---------------------------------|-----------------------------------------|
A-|---------------------------------|-----------------------------------------|
E-|---------------------------------|-----------------------------------------|
    No Home , No life....


   Verse :
E-|---------------------------------------------------------------------------|
B-|---------------------------------------------------------------------------|
G-|---------------------------------------------------------------------------|
D-|-9----------------7-------------5-----------4-----5------------------------|
A-|-7----------------5-------------3-----------2-----3------------------------|
E-|---------------------------------------------------------------------------|

  Chorus :
    3 times                           The 4th  time
E-|---------------------------------|-----------------------------------------|
B-|-9--12--14--12--14--12--11--12---|--7--12--14--12--14--12--11--12----------|
G-|---------------------------------|-----------------------------------------|
D-|---------------------------------|-----------------------------------------|
A-|---------------------------------|-----------------------------------------|
E-|---------------------------------|-----------------------------------------|

E-|---------------------------------------------------------------------------|
B-|-7---7--9--10--9--7-7---7--9--10--9-7-7--etc-------------------------------|
G-|---7------------------7----------------------------------------------------|
D-|---------------------------------------------------------------------------|
A-|---------------------------------------------------------------------------|
E-|---------------------------------------------------------------------------|


    Rhythm for solo

E-|--------------------2--------|---------------------------------------------|
B-|--------------------3--------|---------------------------------------------|
G-|-7-----4------------2--------|-7------4-----2------------------------------|
D-|-7-----4-----2---------------|-7------4-----2------------------------------|
A-|-5-----2-----2---------------|-5------2-----0------------------------------|
E-|-------------0---------------|---------------------------------------------|


   I've split this part into sections so listen to the song and learn it.
E-|----------------------|----------------------------------------------------|
B-|-7-7-9-10-12-10-9-7-5-|-9-9-10-12-14-12-10-9-7-----------------------------|
G-|----------------------|----------------------------------------------------|
D-|----------------------|----------------------------------------------------|
A-|----------------------|----------------------------------------------------|
E-|----------------------|----------------------------------------------------|


E-|------------|----------------|-14b--12--11--9---7--4(or5)------------------|
B-|-14-12-10-9-|-11-12-14-12-11-|---------------------------------------------|
G-|------------|----------------|---------------------------------------------|
D-|------------|----------------|---------------------------------------------|
A-|------------|----------------|---------------------------------------------|
E-|------------|----------------|---------------------------------------------|


   Verse :
E-|---------------------------------------------------------------------------|
B-|---------------------------------------------------------------------------|
G-|---------------------------------------------------------------------------|
D-|-9----------------7-------------5-----------4-----5------------------------|
A-|-7----------------5-------------3-----------2-----3------------------------|
E-|---------------------------------------------------------------------------|


  Chorus :
    3 times                           The 4th time
E-|---------------------------------|-----------------------------------------|
B-|-9--12--14--12--14--12--11--12---|--7--12--14--12--14--12--11--12----------|
G-|---------------------------------|-----------------------------------------|
D-|---------------------------------|-----------------------------------------|
A-|---------------------------------|-----------------------------------------|
E-|---------------------------------|-----------------------------------------|

    End of Song
E-|---------------------------------------------------------------------------|
B-|---------------------------------------------------------------------------|
G-|---------------------------------------------------------------------------|
D-|-7-7----9------------------------------------------------------------------|
A-|-5-5----7------------------------------------------------------------------|
E-|---------------------------------------------------------------------------|
    Childhood's End

6. WASTING LOVE

 H - hammer-on
P - pull-off
^ - half bend
^^ - full bend
~  - vibrato


Intro

E|------------^^--------------------------------------------|
B|------------10-10-----12-10-------------------------------|
G|-9-11-12----------11--------12-11-12-11-9----------   <---| 4 times
D|---------10-------------------------------12--------------|
A|----------------------------------------------------------|
E|----------------------------------------------------------|


Verse


E|---------------------------------------------------------------------------|
B|-------------------------3-------------------------------3-----------------|
G|---------0-----------0-------0-----------0-----------0---------------------|
D|-----4-------4-----4---4---4---4-----4-----4---4---4---4-------------------|
A|---2---2---2---2-3-----------------2---2-----2---3-------------------------|
E|-0-------------------------------0-----------------------------------------|
           maybe one day       I'll be a honest man...


Bridge1:

E|---------------------------------------------------------------------------|
B|---------1---------------3-------------------------------------------------|
G|-----0-----0---0-----0-------0---------------------------------------------|
D|---2---2-----2-----4---4---4---4-------------------------------------------|
A|-0---------------0---------------------------------------------------------|
E|---------------------------------------------------------------------------|

           long roads...


The Chorus is only chords:


        Em        C          D         G    F#m

     spend your days full of emptiness


Bridge 2:

E|---------------0-------------------0----------------------------------------|
B|---------------0-------------------0----------------------------------------|
G|-----0-----0---0------0-----0------0----------------------------------------|
D|---4-----2-----2----4-----2--------2----------------------------------------|
A|-5-----3-------2--5-----3----------2----------------------------------------|
E|-------------0----------------0-0-------------------------------------------|


Bridge 3:


E|---------------------------------------------------------------------------|
B|------------------------1--------------------------------------------------|
G|----------0---------0------------------------------------------------------|
D|-----4------4-----4---4----------------------------------------------------|
A|---2---2------2-3----------------------------------------------------------|
E|-0-------------------------------------------------------------------------|


Solo:

E|-8------------------------------------15----14----12----12~~~--------------|
B|---11-9P8H9~-----------------------12----12----12----12-------15-14-12-----|
G|-------------9-7-----------------------------------------------------------|
D|-----------------10-9-10-9-7----7------------------------------------------|
A|-----------------------------11--------------------------------------------|
E|---------------------------------------------------------------------------|


E|----12----14----15----14----15----17----19~~~---19-17-15-14-15~~-----------|
B|-12----12----12----12----12----12----12------------------------------------|
G|---------------------------------------------------------------------------|
D|---------------------------------------------------------------------------|
A|---------------------------------------------------------------------------|
E|---------------------------------------------------------------------------|


E|-19-17-15-14-------19-17-15-14-15-14---------------------15-14-12----12----|
B|-------------15~~--------------------17-15-17~~-15~~--12----------15----15-|
G|---------------------------------------------------------------------------|
D|---------------------------------------------------------------------------|
A|---------------------------------------------------------------------------|
E|---------------------------------------------------------------------------|

E|--------------------12----14----15----17-19~~--17~~------------------------|
B|-13-12-13-12-----12----12----12----12--------------------------------------|
G|-------------14------------------------------------------------------------|
D|---------------------------------------------------------------------------|
A|---------------------------------------------------------------------------|
E|---------------------------------------------------------------------------|


        The song goes like this:


        - Intro
        - Verse (4 times or so)
        - Bridge1 (2 times or so)
        - Verse
        - Chorus
        - Bridge2 (2 times)
        - Verse (4 times or so)
        - Bridge1 (2 times or so)
        - Verse (4 times or so)
        - Bridge1
        - Verse
        - Chorus
        - Bridge2 (2 times)
        - Intro
        - Bridge3 (4 times)
        - Solo
        - Chorus

7. THE FUGITIVE

Intro :
E-|-------------------------|-------------------------------------------------|
B-|-------------------------|-------------------------------------------------|
G-|-------------------------|-------------------------------------------------|
D-|-9--9--9--9--12-12-12-12-|-9--9--9--9--10-10-7-7---------------------------|
A-|-7xx7xx7xx7--10-10-10-10-|-7xx7xx7xx7--8--8--5-5---------------------------|
E-|-------------------------|-------------------------------------------------|


E-|-------------------------|-------------------------------------------------|
B-|-------------------------|-------------------------------------------------|
G-|-------------------------|-------------------------------------------------|
D-|-9--9--9--9--12-12-12-12-|-9-9-9-10-10-10--7-7-7--5-5-5--4-4-4-------------|
A-|-7xx7xx7xx7--10-10-10-10-|-7-7-7-8--8--8---5-5-5--3-3-3--2-2-2-------------|
E-|-------------------------|-------------------------------------------------|


E-|---------------------------------------------------------------------------|
B-|---------------------------------------------------------------------------|
G-|-9-10b--9-10-12--10-9-7----------------------------------------------------|
D-|---------------------------------------------------------------------------|
A-|---------------------------------------------------------------------------|
E-|---------------------------------------------------------------------------|


E-|-------------------------|-------------------------------------------------|
B-|-------------------------|-------------------------------------------------|
G-|-------------------------|-------------------------------------------------|
D-|-9--9--9--9--12-12-12-12-|-9--9--9--9--10-10-7-7---------------------------|
A-|-7xx7xx7xx7--10-10-10-10-|-7xx7xx7xx7--8--8--5-5---------------------------|
E-|-------------------------|-------------------------------------------------|


E-|-------------------------|-------------------------------------------------|
B-|-------------------------|-------------------------------------------------|
G-|-------------------------|-------------------------------------------------|
D-|-9--9--9--9--12-12-12-12-|-9-9-9-10-10-10--7-7-7--5-5-5--4-4-4-------------|
A-|-7xx7xx7xx7--10-10-10-10-|-7-7-7-8--8--8---5-5-5--3-3-3--2-2-2-------------|
E-|-------------------------|-------------------------------------------------|


   Start of Verse :
          Dm         Am             C              E
E-|-------1-------------------------------------------------------------------|
B-|-----3---3---------1-------------1--------------0--------------------------|
G-|---2-------2-----2---2---------0---0----------1---1------------------------|
D-|-0-------------2-------2-----2-------2------2-------2----------------------|
A-|--------------0------------3--------------2--------------------------------|
E-|---------------------------------------------------------------------------|
    On a cold october mornin ....

E-|-----------------------------------1------------1--------------------------|
B-|-------0-------------1-----------3---3--------3---3------------------------|
G-|-----1---1---------0---0-------2-------2----2-------2----------------------|
D-|---2-------2-----2-------2---0------------0--------------------------------|
A-|-2-------------3-----------------------------------------------------------|
E-|---------------------------------------------------------------------------|


E-|---------------------------------------------------------------------------|
B-|---------------------------------------------------------------------------|
G-|---------------------------------------------------------------------------|
D-|--------------------------7-7-7-7-7----------------------------------------|
A-|--------------------------5-5-5-5-5----------------------------------------|
E-|---------------------------------------------------------------------------|
   I carefully pick my time


E-|------------------------------------|--------------------------------------|
B-|------------------------------------|--------------------------------------|
G-|------------------------------------|--------------------------------------|
D-|-7--7--7--5--5--5--2--2--2--3--3--3-|-3--3--3--5--5--5--7--7--7------------|
A-|-5xx5xx5--3xx3xx3--0xx0xx0--1xx1xx1-|-1xx1xx1--3xx3xx3--5xx5xx5------------|
E-|------------------------------------|--------------------------------------|
   I'm sick and ....

E-|------------------------------------|--------------------------------------|
B-|------------------------------------|--------------------------------------|
G-|------------------------------------|--------------------------------------|
D-|-7--7--7--5--5--5--2--2--2--3--3--3-|-3--3--3--5--5--5--7--7--7--7--7------|
A-|-5xx5xx5--3xx3xx3--0xx0xx0--1xx1xx1-|-1xx1xx1--3xx3xx3--5xx5xx5xx5xx5------|
E-|------------------------------------|--------------------------------------|


   Chorus :
E-|---------------------------------------------------------------------------|
B-|---------------------------------------------------------------------------|
G-|----------7------5-----5-5-----2-----------------3-------------------------|
D-|----------7------5-----5-5---2-2-----------------3-------------------------|
A-|----------5-x----3----x3x3---0-0---------------x-1-------------------------|
E-|---------------------------------------------------------------------------|
    I'm the fugi - tive         Being hunted ...    my game

E-|------------------------------------|--------------------------------------|
B-|------------------------------------|--------------------------------------|
G-|------------------------------------|--------------------------------------|
D-|-7--7--7--5--5--5--2--2--2--3--3--3-|-3--3--3--5--5--5--7--7--7------------|
A-|-5xx5xx5--3xx3xx3--0xx0xx0--1xx1xx1-|-1xx1xx1--3xx3xx3--5xx5xx5------------|
E-|------------------------------------|--------------------------------------|


E-|------------------------------------|--------------------------------------|
B-|------------------------------------|--------------------------------------|
G-|------------------------------------|--------------------------------------|
D-|-7--7--7--5--5--5--2--2--2--3--3--3-|-3--3--3--5--5--5--7--7--7--7--7------|
A-|-5xx5xx5--3xx3xx3--0xx0xx0--1xx1xx1-|-1xx1xx1--3xx3xx3--5xx5xx5xx5xx5------|
E-|------------------------------------|--------------------------------------|

   Chorus :
E-|---------------------------------------------------------------------------|
B-|---------------------------------------------------------------------------|
G-|----------7------5-----5-5-----2-----------------3-------------------------|
D-|----------7------5-----5-5---2-2-----------------3-------------------------|
A-|----------5-x----3----x3x3---0-0---------------x-1-------------------------|
E-|---------------------------------------------------------------------------|
    I'm the fugi - tive         Being hunted ...    my game


 Rhythm for solos

E-|-------------------------|-------------------------------------------------|
B-|-------------------------|-------------------------------------------------|
G-|-------------------------|-------------------------------------------------|
D-|-9--9--9--9--12-12-12-12-|-9--9--9--9--10-10-7-7---------------------------|
A-|-7xx7xx7xx7--10-10-10-10-|-7xx7xx7xx7--8--8--5-5---------------------------|
E-|-------------------------|-------------------------------------------------|


E-|-------------------------|-------------------------------------------------|
B-|-------------------------|-------------------------------------------------|
G-|-------------------------|-------------------------------------------------|
D-|-9--9--9--9--12-12-12-12-|-9-9-9-10-10-10--7-7-7--5-5-5--4-4-4-------------|
A-|-7xx7xx7xx7--10-10-10-10-|-7-7-7-8--8--8---5-5-5--3-3-3--2-2-2-------------|
E-|-------------------------|-------------------------------------------------|

E-|---------------------------------------------------------------------------|
B-|---------------------------------------------------------------------------|
G-|-9-10b--9-10-12--10-9-7----------------------------------------------------|
D-|---------------------------------------------------------------------------|
A-|---------------------------------------------------------------------------|
E-|---------------------------------------------------------------------------|

   Not sure ...
E-|---------------------------------------------------------------------------|
B-|---------------------------------------------------------------------------|
G-|---------------------3-----------------------------------------------------|
D-|---------3-2-----3-5---5-3-5-----------------------------------------------|
A-|-3-0-3-5-----3-5-----------------------------------------------------------|
E-|---------------------------------------------------------------------------|


   Rhythm for the last Solo :
E-|---------------------------------------------------------------------------|
B-|---------------------------------------------------------------------------|
G-|---------------------------------------------------------------------------|
D-|-7-----10-----12-----------------------------------------------------------|
A-|-5-----8------10-----------------------------------------------------------|
E-|---------------------------------------------------------------------------|


 8. CHAINS OF MISERY
  intro
e:---------------------------------------------------------------------------|
B:---------------------------------------------------------------------------|
G:---------------------------------------------------------------------------|
D:---------------------------------------------------------------------------|
A:---------------------------------------------------------------------------|
E:0-0-0--0-0-0--0-0-0--0-0-0--0-0-0--0-0-0--0-0-0--0-0-0---------------------|

e:---------------------------------------------------------------------------|
B:---------------------------------------------------------------------------|
G:---------------------------------------------------------------------------|
D:---------------------------------------------------------------------------|
A:---------------------------------------------------------------------------|
E:---------------------------------------------------------------------------|

  riffA                                     riffa.1
e:---------------------------------------------------------------------------|
B:---------------------------------------------------------------------------|
G:---------------------------------------------------------------------------|
D:------5--5-----9--7-----5-4---------------------5--5-----9--7-----5--4-----|
A:------2--3-----7--5-----7-7----3--0--2----------2--3-----7--5-----7--7-----|
E:0--0--------0--------0-------0------------0--0--------0--------0--------0--|

e:---------------------------------------------------------------------------|
B:---------------------------------------------------------------------------|
G:---------------------------------------------------------------------fill1-|
D:---------------------------------------------------------------------------|
A:---------------------------------------------------------------------------|
E:---------------------------------------------------------------------------|

                                     riffA.2
e:---------------------------------------------------------------------------|
B:------------------------------------------------8--------------------------|
G:------------------------------------------------7--------------------------|
D:-----------------------------------------5--5---5--7-----------------------|
A:3--0--2----------------------------------2--3------5-----------------------|
E:-----------------------------------0--0------------------------------------|

e:---------------------------------------------------------------------------|
B:---------------------------------------------------------------------------|
G:---------------------------------------------------------------------------|
D:---------------------------------------------------------------------------|
A:---------------------------------------------------------------------------|
E:---------------------------------------------------------------------------|

       verse riff                        riffB
e:---------------------------------------------------------------------------|
B:---------------------------------------------------------------------------|
G:---------------------------------------------------------------------------|
D:-----9--------9--7----7--7--7--5-------5-5-5--5-5-5--5-5-5--5-5-5----------|
A:-----7--------7--5----4--4--4--3-------2-2-2--2-2-2--2-2-2--2-2-2----------|
E:--------0--0---------------------------------------------------------------|

e:----------------------------------------------2-------------2--------------|
B:-----------------------------------------2-3----3-2----2-3----3-2----------|
G:---------------------------------------4-------------4---------------------|
D:---------------------------------------------------------------------------|
A:---------------------------------------------------------------------------|
E:---------------------------------------------------------------------------|


e:---------------------------------------------------------------------------|
B:---------------------------------------------------------------------------|
G:---------------------------------------------------------------------------|
D:------5-5-5--5-5-5--5-5-5--5-5-5--------7-7-7--7-7-7--7-7-7--7-7-7---------|
A:------3-3-3--3-3-3--3-3-3--3-3-3--------4-4-4--4-4-4--4-4-4--4-4-4---------|
E:---------------------------------------------------------------------------|

e:-------------3---------------3-----------------3-------------3-------------|
B:--------3-5-----5-3-----3-5-----5-3-------3-5-----5-3---3-5----5-3---------|
G:------5--------------5------------------6-------------6--------------------|
D:---------------------------------------------------------------------------|
A:---------------------------------------------------------------------------|
E:---------------------------------------------------------------------------|

                                               chorus riff
e:---------------------------------------------------------------------------|
B:---------------------------------------------------------------------------|
G:---------------------------------------------------------------------------|
D:----7-7-7--7-7-7--9-9-9--9-9-9---------------------5--5----9-7----4-5------|
A:----5-5-5--5-5-5--6-6-6--6-6-6---------------------2--3----7-5----7-7---3-0|
E:---------------------------------------------0--0-------0------0------0----|

e:-----------5-------------5-------------------------------------------------|
B:------5-7----7-5----5-7-----7----------------------------------------------|
G:----7-------------8------------8-------------------------------------------|
D:---------------------------------------------------------------------------|
A:---------------------------------------------------------------------------|
E:---------------------------------------------------------------------------|

                                       riff C
e:--------------------3------------------------------------------------------|
B:--------------------3------------------------------------------------------|
G:--------------------0---2--------------------------------------------------|
D:----------5-5----9--0---0--2---------9-------9--7---7-7-7--5---9-----9-7--7|
A:-2--------2-3----7---------0---------7-------7--5---4-4-4--3---7-----7-5--4|
E:-----0-0-------0----3-----------0-------0-0----------------------0-0-------|

e:--------------------------------------------------------------------fill1--|
B:---------------------------------------------------------------------------|
G:---------------------------------------------------------------------------|
D:---------------------------------------------------------------------------|
A:---------------------------------------------------------------------------|
E:---------------------------------------------------------------------------|

           fill1                              slow riff
e:-----------------------------------------------------------0---------------|
B:-----------------------------------------------------3--------3-----3------|
G:--------------------------------------------------2-----2--------2---------|
D:-7-7-7-----------------------------------------0---------------------------|
A:-4-4-5---------------------------------------------------------------------|
E:---------------------------------------------------------------------------|

e:---------------------------------------------------------------------------|
B:---------------------------------------------------------------------------|
G:------------------------4--5-----4-----------------------------------------|
D:---------------4--5--7--------7--------------------------------------------|
A:---------5--7--------------------------------------------------------------|
E:---------------------------------------------------------------------------|


e:----------------------0----------------------------------0-----------------|
B:----------------3--------3-----3-------------------3--------3-----3--------|
G:-------------0-----0--------0-------------------0-----0--------0-----------|
D:---------------------------------------------------------------------------|
A:----------1----------------------------------2-----------------------------|
E:---------------------------------------------------------------------------|

e:---------------------------------------------------------------------------|
B:---------------------------------------------------------------------------|
G:---------------------------------------------------------------------------|
D:---------------------------------------------------------------------------|
A:---------------------------------------------------------------------------|
E:---------------------------------------------------------------------------|


                                                   riff under solo
e:--------------------0------------------------------------------------------|
B:--------------3--------3-----3---------------------------------------------|
G:-----------0-----0--------0------------------------------------------------|
D:-------------------------------------------------7--9--10--3--5-----3-----5|
A:--------3----------------------------------------5--7--8---1--3-----1--3--3|
E:-----------------------------------------------------------------------1---|

e:---------------------------------------------------------------------------|
B:---------------------------------------------------------------------------|
G:---------------------------------------------------------------------------|
D:---------------------------------------------------------------------------|
A:---------------------------------------------------------------------------|
E:---------------------------------------------------------------------------|

              last time                              finish
e:--------------------------------------------------0------------------------|
B:--------------------------------------------------0------------------------|
G:--------------------------------------------------9---------------0--------|
D:------------7--9--10--2---3-----5-----------------9------------9--0--------|
A:------------5--7--8---0---1-----3-----------------7------------7--0--------|
E:--------------------------------------------------0------------------------|

9. THE APPARITION

-|-||------------------------------|-----------------------------------------|
-|-||*-----------------------------|-----------------------------------------|
-|4||------------------------------|-----------------------------------------|
-|4||---9-9-9--------------10-10---|--7-7-7------------9-9-9-----------------|
-|-||*--7-7-7---------------7--7---|--5-5-5------------7-7-7-----------------|
-|-||0-----------------------------|-----------------------------------------|
      Now I'm here can you see me,    'cos I'm out    on my own.___

-|-------------------------------------|---------------------------|----------|
-|-------------------------------------|---------------------------|----------|
-|-------------------------------------|---------------------------|----------|
-|-9-9-9------------10-10-10-----------|-------7-7-7------9-9-9----|----------|
-|-7-7-7-------------7--7--7-----------|-------5-5-5------7-7-7----|----------|
-|-------------------------------------|---------------------------|----------|
  When the room goes cold,  tell me you can feel me,'cos I'm here.

-|--------------------------|------------------------------|------------------|
-|--------------------------|------------------------------|------------------|
-|--------------------------|------------------------------|------------------|
-|9-9-9---------10-10-------|---7-7-7---------9-9-9--------|-9-9-9-----10-10--|
-|7-7-7----------7--7-------|---5-5-5---------7-7-7--------|-7-7-7------7--7--|
-|--------------------------|------------------------0-0-0-|------------------|
 Here I am,  can you see me  passing through on my way__  to place I'd been

----------|---------------------|-----------------------|---------------------|
----------|---------------------|-----------------------|---------------------|
----------|---------------------|-9-9-9---------7-7-7---|---------------------|
-10-------|--7--9---------------|-7-7-7---------5-5-5---|----7-7-7------------|
--7-------|--5--7---------------|-7-7-7---------5-5-5---|----5-5-5------------|
----------|---------------------|-----------------------|---------------------|
 to only in my dreams   before.  In a world of delusion,    never turn your

----------------------|--------------------------------------|----------------|
----------------------|--------------------------------------|----------------|
----------------------|-9-9-9-------------7-7-7--------------|----------------|
--7-7-7---------------|-7-7-7-------------5-5-5--------------|-5--7------7----|
--5-5-5----7-7-7------|-7-7-7-------------5-5-5--------------|-3--5------5----|
-----------5-5-5------|--------------------------------------|----------------|
 back on a friend.___  You can count your real true friends on one hand,___

-----------------|----------------------------------|-------------------------|
-----------------|----------------------------------|-------------------------|
-----------------|--9-9-9------------------7-7-7----|-------------------------|
-----------------|--7-7-7------------------5-5-5----|---7-7-7--------7-7-7----|
-----------------|--7-7-7------------------5-5-5----|---5-5-5--------5-5-5----|
-----------------|----------------------------------|-------------------------|
 through life.___  There are those that deceive you, there are those that'll

---------------|---------------------------------|---------------------------|
---------------|---------------------------------|---------------------------|
---------------|----9-9-9-----------7-7-7--------|---------------------------|
---------------|----7-7-7-----------5-5-5--------|--5---7--------7-----------|
---7-7-7-------|----7-7-7-----------5-5-5--------|--3---5--------5-----------|
---5-5-5-------|---------------------------------|---------------------------|
 let you down.  Is there someone there that would die for you, thought not.

-|------------------------------|----------------------|----------------------|
-|------------------------------|----------------------|----------------------|
-|------------------------------|----------------------|----------------------|
-|-9-9-9---------------10-10-10-|-7-7-7-------9-9-9----|------9-9-9-----------|
-|-7-7-7----------------7--7--7-|-5-5-5-------7-7-7----|------7-7-7-----------|
-|------------------------------|----------------------|----------------------|
 Live your life with a passion, everything do, do well.  You only get out of

---------------|---------------------|-------------------------|--------------|
---------------|---------------------|-------------------------|--------------|
---------------|---------------------|-------------------------|--------------|
------10-10-10-|--7-7-7------9-9-9---|-9-9-9----------10-10----|---7-7-7------|
-------7--7--7-|--5-5-5------7-7-7---|-7-7-7-----------7--7----|---5-5-5------|
---------------|---------------------|-------------------------|--------------|
 life what you put in,  so they say.  In a world of confusion,  people never

--------------------|---------------------------------|-----------------------|
--------------------|---------------------------------|-----------------------|
--------------------|---------------------------------|-----------------------|
---9-9-9------------|-----9-9-9---------10-10-10------|--7-----9--------------|
---7-7-7------------|-----7-7-7----------7--7--7------|--5-----7--------------|
-----------0-0-0----|---------------------------------|-----------------------|
 say what they mean   If you want a straight answer go look for one right

----|----------------------------|-------------------------------------------|
----|----------------------------|-------------------------------------------|
----|---9-9-9------------7-7-7---|-------------------------------------------|
----|---7-7-7------------5-5-5---|--7-7-7---------7-7-7----------------------|
----|---7-7-7------------5-5-5---|--5-5-5---------5-5-5-----7-7-7------------|
----|----------------------------|--------------------------5-5-5------------|
 now. In a room ful of strangers, do you stand with your back to the wall?

-|-----------------------------------------|---------------------------------|
-|-----------------------------------------|---------------------------------|
-|-9-9-9-------------7-7-7-----------------|---------------------------------|
-|-7-7-7-------------5-5-5-----------------|---5----7------7-----------------|
-|-7-7-7-------------5-5-5-----------------|---3----5------5-----------------|
-|-----------------------------------------|---------------------------------|
   Do you  sometimes feel like you're on the outside, looking in?

-|---------------------------|----------------------------|-------------------|
-|---------------------------|----------------------------|-------------------|
-|---9-9-9------------7-7-7--|----------------------------|-9-9-9--------7-7--|
-|---7-7-7------------5-5-5--|---7-7-7-------7-7-7--------|-7-7-7--------5-5--|
-|---7-7-7------------5-5-5--|---5-5-5-------5-5-5---7-7-7|-7-7-7--------5-5--|
-|---------------------------|-----------------------5-5-5|-------------------|
  You can make your own luck, you create your destiny.      I believe you

---------------------||------------------------------||-----------------------|
--------------------*||------------------------------||-----------------------|
-7-------------------||------------------------------||-----------------------|
-5-------------------||--5----7-------7--------------||-----------------------|
-5------------------*||--3----5-------5--------------||-----------------------|
---------------------||------------------------------||-----------------------|
 have the power if you want to,           it's true.

-||---------------------------|----------------------------------||-----------|
-||---------------------------|----------------------------------||-----------|
-||---------------------------|----------------------------------||-----------|
-||----------------------5----|------------------5-5-5-7-5\4-----||-----------|
-||7----7-5h7-7----7-5h7-5-7--|----7-5h7-7-7-5h7-5-5-5-7-5\4--7--||-----------|
-||7----7-5h7-7----7-5h7---7--|----7-5h7-7-7-5h7--------------7--||-----------|
    rest       rest            rest                                repeat

-------------||---------------------------|-------------------------------||--|
-------------||---------------------------|-------------------------------||--|
-------------||---------------------------|-------------------------------||--|
-------------||----------------------7----|--------------7-7-7-9-7\6------||--|
-------------||9----9-7h9-9----9-7h9-7-9--|9-7h9-9-9-7h9-7-7-7-9-7\6-9----||--|
-------------||9----9-7h9-9----9-7h9---9--|9-7h9-9-9-7h9-------------9----||--|
 previous Rhy   rest       rest

--------------------||--------------------------------------------------------|
--------------------||--------------------------------------------------------|
--------------------||-13b-------13b-----11-9h11p9----9-9-11p9----9-9-9h11p9--|
--------------------||-----------------------------11----------11-------------|
--------------------||--------------------------------------------------------|
--------------------||--------------------------------------------------------|
 repeat previous Rhy   (solo)

------------------------------------------16b-----16b----14-12-\11--12--------|
----------------------------12-b-r-p9-12--------------------------------------|
----9----9h11p9----9----9-----------------------------------------------------|
-11---11--------11---11-------------------------------------------------------|
------------------------------------------------------------------------------|
------------------------------------------------------------------------------|


-12p11h12----------11-12p11----11----12h14p12----11-12p11----11---------------|
----------14-12-14----------14----11----------14----------14----14------------|
-------------------------------------------------------------------12brp9-----|
------------------------------------------------------------------------------|
------------------------------------------------------------------------------|
------------------------------------------------------------------------------|


---------------------||--------------------------7--9--7-|-7--6--7--9--7--6---|
---------------------||----5----5-----5-7/9-7-9----------|--------------------|
-12p9----------------||\6----6-----6---------------------|--------------------|
------12-11p9-11---\2||----------------------------------|--------------------|
---------------------||----------------------------------|--------------------|
---------------------||----------------------------------|--------------------|
           (end solo)||Gtr.2

---------------------||----------------------------------|--------------------|
---------------------||--------------------------5--7--7-|-5--4--5--7--5--4---|
---------------------||----2----2-----2-4/6-4-6----------|--------------------|
---------------------||/4----4-----4---------------------|--------------------|
---------------------||----------------------------------|--------------------|
---------------------||----------------------------------|--------------------|
                       Gtr.1

-----------------------------|------------------------------------------------|
-7--7--7--5--7--9--7--5------|------------------------------------------------|
-------------------------6\4-|------------------------------------------------|
-----------------------------|------------------------------------------------|
-----------------------------|------------------------------------------------|
-----------------------------|------------------------------------------------|
 |Gtr.2                      | Repeat previous rhythms                      |

-----------------------------|------------------------------------------------|
-----------------------------|------------------------------------------------|
-4--4--4-----4--6--4--2------|------------------------------------------------|
----------7--------------4\2-|------------------------------------------------|
-----------------------------|------------------------------------------------|
-----------------------------|------------------------------------------------|
  Gtr.1

-----14h16p14----14--------14h17p14----14-------14----------14h16p14---------|
---x----------17----19b-------------17----19b------17p14h17----------17\14---|
-x---------------------------------------------------------------------------|
-----------------------------------------------------------------------------|
-----------------------------------------------------------------------------|
-----------------------------------------------------------------------------|
 |(solo2) Gtr.2                                                             |

-|----------------------------------------------------------------------------|
-|----------------------------------------------------------------------------|
-|----------------------------------------------------------------------------|
-|-----2---4-----------------2---4----------------2---4---------------2---4---|
-|-----2---4-----------------2---4----------------2---4---------------2---4---|
-|----------------------------------------------------------------------------|
 Gtr.1            rest                 rest                rest

----|------------------------------------------------------------------------|
-14-|-19b-\-12----------14h17p14------------------14--17p14------------14----|
----|----------------------------\16p14-------18b------------18br---------16-|
----|--------------------------------------16--------------------------------|
----|------------------------------------------------------------------------|
----|------------------------------------------------------------------------|
    |Gtr.2     \bar dive       bar dive                                     |

----|-------------------------------------------------------------------------|
----|-------------------------------------------------------------------------|
----|-------------------------------------------------------------------------|
----|-4------------------4-----------------------4----------------------2-----|
----|-4-----2---2--------4-------------2---2-----4-------------2---2----2-----|
----|-------------------------------------------------------------------0-----|
 Gtr.1

--------------14-17p14--------17-19--21br---------|-16h17p16-16-17p16---------|
-17p14-------------------/19----------------------|---------------------------|
--------------------------------------------------|---------------------------|
--------------------------------------------------|---------------------------|
--------------------------------------------------|---------------------------|
--------------------------------------------------|---------------------------|
   |Gtr.2                                                                   |

--------------------------------------------------|---------------------------|
--------------------------------------------------|---------------------------|
-----------------------------------------2---4----|--4----------------4-------|
---2---4------2---4-------2---4----------2---4----|--4----------------4-------|
---2---4------2---4-------2---4-------------------|---------2---2---------2---|
--------------------------------------------------|---------------------------|
  Gtr.1

----------------------------------------|-------------------------------------|
-19p17p14-17p15h17p15p14h15-------------|-13--------13---------13--------13---|
------------------------------18b-\-----|-12b-------12b--------12b------------|
----------------------------------------|-------------------------------------|
----------------------------------------|-------------------------------------|
----------------------------------------|-------------------------------------|
 |Gtr.2                                   (wah-wah pedal)                   |

----------------------------------------|-------------------------------------|
----------------------------------------|-------------------------------------|
----------------------------------------|---------------------------------10--|
-----------4----------------------2-----|-10----12---10----12---10----12--10--|
-2---------4----------2---2-------2-----|-10----12---10----12---10----12------|
----------------------------------0-----|-------------------------------------|
  Gtr.1                                           rest rest  rest rest

-------------|------------------------------------------|--17b----------17b---|
-------------|------------------------------------------|---------------------|
-12brp10-----|-10---------------------------------------|---------------------|
----------12-|------------12-10-------------------------|---------------------|
-------------|------------------12-11-10-8-10----8------|---------------------|
-------------|--------------------------------10--------|---------------------|
 |Gtr.2                                                                     |

-------------|------------------------------------------|---------------------|
-------------|------------------------------------------|---------------------|
-12----------|12---------12----------12-----------------|---------------------|
-12----------|12---------12----------12----------10-----|--10---12------10----|
-------------|---10--10------10--10-----10--10---10-----|--10---12------10----|
-------------|------------------------------------8-----|---------------------|
 Gtr.1

-17brp13----13-|----------------------------------------17b----r\-------2----|
---------15----|15brp13-----15p13------15p13------13-------------------------|
---------------|--------14---------14---------14-----------------------------|
---------------|-------------------------------------------------------------|
---------------|-------------------------------------------------------------|
---------------|-------------------------------------------------------------|
 |Gtr.2                                                                     |

---------------|-------------------------------------------------------------|
---------------|-------------------------------------------------------------|
----------10-12|12-------------12------------12------------------------------|
-12-10-12-10-12|12-------------12------------12-----------10-----------------|
-12-10-12------|------10--10--------10--10-------10--10---10-----------------|
---------------|-------------------------------------------8-----------------|
 Gt1                                                              (end solo)

-||--------------------------------------------------|------------------------|
-||--------------------------------------------------|------------------------|
-||--------------------------------------------------|------------------------|
-||-------------------------------------5------------|------------------------|
-||5--------5--------5--------5------------5--7------|5--------5--------5-----|
-||---6--7-----6--7-----6--7-----6--7----------------|---6--7-----6--7-----6--|
 Gtr.1 and 2                                    rest

------------------|------------------------------------------------|3---------|
------------------|------------------------------------------------|3---------|
------------------|------------------------------------------------|0---------|
------------------|------------------------------------5-----------|----------|
----5-------------|5--------5--------5--------5-----------5--7-----|3---------|
-7-----6--7--3--0-|---6--7-----6--7-----6--7-----6--7--------------|----------|
                                                               rest

-3--------||------------------||---------------||--------------------|--------|
-3--------||------------------||*-------------*||--------------------|--------|
-0--------||------------------||---------------||--------------------|--------|
-0--------||------------------||---------------||-----5-------7------|--------|
----------||------------------||*-------------*||-----3-------5------|--------|
-3--------||------------------||---------------||--------------------|--------|
            Repeat bars marked  w/second verse (then) way     one     day.___

------------------------------|
------------------------------|
------------------------------|
------------------------------|
------------------------------|
------------------------------|


10. JUDAS BE MY GUIDE

       Dm                  C
Lights out, we leave in a world of darkness
    Gm                 Bb      F
No doubt, everything's up for sale
    Dm                C
We sleep, all of the world is burning
    Gm                Bb     F
We pray to god for a better deal
Dm Em       F  G    Bb           F  G
Nothing is sacred, back then or now
Dm Em         F  G       Bb                      F   G
Everything's wasted, is that all there is? Can I go now?

Dm C     Dm C    C  Bb   Dm C    Dm  C
Judas my guide, whispers in the night
Dm C     C Bb   Dm C
Judas my guide

       Dm             C
Fight wars, die in a blaze of glory
      Gm              Bb      F
Come home, meat in a plastic sack
      Dm                 C
Fall down, pray to your god for mercy
    Gm                  Bb        F
So kneel, and help the blade cut clean
Dm  Em      F  G    Bb           F  G
Nothing is sacred, back then or now
Dm  Em      F     G    Bb                        F      G
Everyone's wasted, is that all there is? Is that it now?

Dm C     Dm C    C  Bb   Dm C    Dm  C
Judas my guide, whispers in the night
Dm C     C Bb   Dm C
Judas my guide

Dm C     Dm C    C  Bb   Dm C    Dm  C
Judas my guide, whispers in the night
Dm C     C Bb   Dm C
Judas my guide

bridge: | Dm | Dm | Bb | Bb |
        | C  | C  | Gm | Bb |

   Bb          C            Dm          C
I live in the black, I have no guiding light
      Bb       C        Am
I'm whispering in your dreams

solo 2: | Dm | Dm | Bb | Bb | C | C | Dm | Dm |
        | Dm | Dm | Bb | Bb | C | C | Gm | Gm |

Dm C     Dm C    C  Bb   Dm C    Dm  C
Judas my guide, whispers in the night
Dm C     C Bb   Dm C
Judas my guide

Dm C     Dm C    C  Bb   Dm C    Dm  C
Judas my guide, whispers in the night
Dm C     C Bb   Dm C   Dm
Judas my guide


>>>> Tabs

Maybe one day I'm going to post the solos; I haven't figured them
out yet. Just use the D pentatonic minor or the F major scale.
For now, here's a few licks from the intro & bridge.

intro:

Am Dm                            Am Bb                             Am Dm
---------------------------------------------------------------------------|
--------6---5---------6---5---8---6-5-------6---5---------6---5---8-6-5-8--|
----------7---5---7-----7---5---5---------7---5---5---7-----7---5----------|
----------------7-----------------------7-----------7----------------------|
---------------------------------------------------------------------------|
---------------------------------------------------------------------------|

                           Am Bb            Gm
---------------------------------------------------------------------------|
--------6---5-----6---5---8-6-5---6---8-6h8-5------------------------------|
----------7---5-----7-----------5---7--------------------------------------|
----------------7-----------------------------5----------------------------|
---------------------------------------------------------------------------|
---------------------------------------------------------------------------|


bridge:

lead guitar:

Dm                    Dm                     Bb                     Bb
----------------------------------------------------------------------------|
-----6h8h10----8------------6h8h10----8------------6h8h10----8--------------|
------------10---9----10-----------10---9----7------------10---9----7-------|
-------------------10---------------------10---------------------10---------|
----------------------------------------------------------------------------|
----------------------------------------------------------------------------|


                      C                      C                      Gm
----------------------------------------------------------------------------|
-----6h8h10----8------------6h8h10----8------------6h8h10----8--------------|
------------10---9----10-----------10---9----10-----------10---9----7-------|
-------------------10---------------------10---------------------10---------|
----------------------------------------------------------------------------|
----------------------------------------------------------------------------|


                      Bb
----------------------------------------------------------------------------|
-----6h8h10----8------------6h8h10----8-------------------------------------|
------------10---9----7------------10---9-----------------------------------|
-------------------10---------------------10--------------------------------|
----------------------------------------------------------------------------|
----------------------------------------------------------------------------|

while another guitar keep repeating this (I'm really not sure about this
part, but it sounds good):

----------------------------------------------------------------------------|
-----3h5h6-3-5--------------------------------------------------------------|
---------------5---7--------------------------------------------------------|
-----------------7----------------------------------------------------------|
----------------------------------------------------------------------------|
----------------------------------------------------------------------------|


11. WEEKEND WARRIOR

Riff 1:
E-------------------------|
B-------------------------|
G------0-------0----------|
D--7-----4-------5-----7--|
A----7-------5-------5-5--|
E-------------------------|

Verse:
E--------------|------------------|
B--------------|------------------|
G--2-----------|----------5-5-----|
D--2-----------|--5-5-----5-5-----|
A--0-----5-----|--5-5-----3-3-----|
E--------2-----|--3-3-------------|

Chorus:
   A weekend warrior lately
E-----------------------0------|
B-----------------------0------|
G---------7------2------2------|
D--3------7------2------2------|
A--3------5------0-------------|
E--1---------------------------|

   A weekend warrior sometimes
E-------------------------------|
B-------------------------------|
G---------7---------------------|
D--3------7------5--5-5---5--5--|
A--3------5------3--3-2---3--2--|
E--1----------------------------|

   A weekend warrior maybe
E-----------------------0------|
B-----------------------0------|
G---------7------2------2------|
D--3------7------2------2------|
A--3------5------0-------------|
E--1---------------------------|

   you ain't that way anymore
E------------------------------|
B------------------------------|
G---------7------2-------------|
D--3------7------2-------------|
A--3------5------0-------------|
E--1---------------------------|

Solo-riff 1:
E-----------------------------------------------------|
B-----------------------------------------------------|
G-----------------------------------------------------|
D--7-7-7-7---5-5-5-5---5-5---2-2-2-2---2-2-2-2--2--5--|
A--5-5-5-5---3-3-3-3---3-2---0-0-0-0---0-0-0-0--0--3--|
E-----------------------------------------------------|

E-----------------------------------------------------|
B-----------------------------------------------------|
G-----------------------------------------------------|
D--7-7-7-7---5-5-5-5---5-5-------------------------5--|
A--5-5-5-5---3-3-3-3---3-2---5-5-5-5---5-5-5-5--5--3--|
E----------------------------3-3-3-3---3-3-3-3--3-----|

Solo-riff 2:
E-----------------------------------|------------------0--------|
B-----------------------------------|------------------0--------|
G-----------------------------------|------------------0--------|
D-----------------------------------|--------2---------2--------|
A--3-3-3-3-3-3-3-3-3-3-3-3-3-3-3-3--|--------2------------------|
E-----------------------------------|--0-0-0-0------------------|

E-----------------------------------|--0----------------0--------|
B-----------------------------------|--0----------------0--------|
G-----------------------------------|--0----------------0--------|
D-----------------------------------|--2----------------2--------|
A--3-3-3-3-3-3-3-3-3-3-3-3-3-3-3-3--|--2-------------------------|
E-----------------------------------|--0-------------------------|

Solo-riff 3:
E-------------------------|--------------------|
B-------------------------|--------------------|
G--2---7---------0-----0--|--2---7-----7-7--5--|
D--2---7-------2-----4----|--2---7-----7-7--5--|
A--0---5-----3-----5------|--0---5-----5-5--3--|
E-------------------------|--------------------|

Songstructure:
Riff 1 (4 times)
Verse (6 times)
Riff 1 (4 times)
Verse (6 times)
Riff 1 (4 times)
Chorus (2 times)
Verse (6 times)
Riff 1 (4 times)
Chorus (2 times)
Solo-riff 1 (2 times)
Solo-riff 2 (2 times)
Solo-riff 1 (2 times)
Solo-riff 3 (2 times)
Verse (4 times)
Riff 1 (4 times)
Chorus (2 times)
Riff 1
END

Lyrics:

The rebel of yesterday, tomorrows fool
Who are you kidding being that cool?
Trying to break away from running
with the pack
But they ain't listening so you've
gotta go back
You're a weekend warrior when
you're one of the crowd
But it's over, just look at you now...

You're not so brave the way you behave
It makes you sick gotta get out quick
It's all bravado when you're out
with your mates
It's like a different person goes through
those gates
And the game begins,
the adrenaline's high
Feel the tension maybe someone
will die...

A weekend warrior lately
A weekend warrior sometimes
A weekend warrior maybe you ain't
that way anymore

You've gotta get out gotta get away
But you're in with a clique it's not
easy to stray
You've gotta admit you're just
living a lie
It didn't take long to work out why
It's hard to say why you got involved
Just wanting to be part,
just wanting to belong...

A weekend warrior lately
A weekend warrior sometimes
A weekend warrior maybe you ain't
that way anymore

Some of the things that you've done
you feel so ashamed
After all it's only a game...isn't it?
And after all the adrenaline's gone
What you gonna do on Monday?

A weekend warrior lately
A weekend warrior sometimes
A weekend warrior maybe you ain't
that way anymore

12. FEAR OF THE DARK

Gtr I (E A D G B E) - Distortion
Gtr II (E A D G B E) - Distortion
Gtr III (E A D G B E) - Clean
Gtr IV (E A D G B E) - Clean
Gtr V (E A D G B E) - Distortion

   Intro
    Q=160
    D                                   C
   4/4
    Gtr I
    E E E E E E E E   E E E E E E E E   E E E E E E E E   E E E E E E E E
||------------------|-----------------|-----------------|------------------||
||o-------------5-5-|-6-6-5-5-----5-5-|-----------------|-5-5---------5---o||
||--7-7-----7-7-----|---------7-7-----|-5-5-----5-5-7-7-|-----7-7-5-5---5--||
||------7-7---------|-----------------|-----5-5---------|------------------||
||o-----------------|-----------------|-----------------|-----------------o||
||------------------|-----------------|-----------------|------------------||
|
|   Gtr II
|   PM------------------------------------------------------------------|
|   E E E E E E E E   E E E E E E E E   E E E E E E E E   E E E E E E E E
||------------------|-----------------|-----------------|------------------||
||o-----------------|-----------------|-----------------|-----------------o||
||------------------|-----------------|-----------------|------------------||
||------------------|-----------------|-----------------|-------------2----||
||o-5-5-----5-5-7-7-|-8-8-7-7-5-5-7-7-|-3-3-----3-3-5-5-|-7-7-5-5-3-3---3-o||
||------5-5---------|-----------------|-----3-3---------|------------------||


  A                                     G
  E E E E E E E E    E  E E E E E E E   E E E E E E E E   E E E E E E E E
|-----------------|-------------------|-----------------|-----------------|
|-----------------|-------------------|-----------------|-----------------|
|-----------------|-------------------|-----------------|-----------------|
|-7-7-----7-7-9-9-|-10-10-9-9-7-7-9-9-|-5-5-----5-5-7-7-|-9-9-7-7-5-5-9-5-|
|-----7-7---------|-------------------|-----5-5---------|-----------------|
|-----------------|-------------------|-----------------|-----------------|
|
| PM--------------------------------------------------------------------|
| E E E E E E E E    E  E E E E E E E   E E E E E E E E   E E E E E E E E
|-----------------|-------------------|-----------------|-----------------|
|-----------------|-------------------|-----------------|-----------------|
|-----------------|-------------------|-----------------|-----------------|
|-----------------|-------------------|-5-5-----5-5-7-7-|-9-9-7-7-5-5-9-5-|
|-0-0-----0-0-2-2-|--3--3-2-2-0-0-2-2-|-----5-5---------|-----------------|
|-----0-0---------|-------------------|-----------------|-----------------|


                                      H.=H
  A                                     F                 A
  E E E E E E E E    E  E E E E E E E   E E E E E E E E   E E E E E E E E
|-----------------|-------------------|-----------------|-----------------|
|-----------------|-------------------|-----------------|-----------------|
|-----------------|-------------------|-----------------|-------------2---|
|-7-7-----7-7-9-9-|-10-10-9-9-7-7-9-7-|-3-3-----3-3-5-5-|-7-7-5-5-3-3---3-|
|-----7-7---------|-------------------|-----3-3---------|-----------------|
|-----------------|-------------------|-----------------|-----------------|
|
| PM--------------------------------------------------------------------|
| E E E E E E E E    E  E E E E E E E   E E E E E E E E   E E E E E E E E
|-----------------|-------------------|-----------------|-----------------|
|-----------------|-------------------|-----------------|-----------------|
|-----------------|-------------------|-----------------|-------------2---|
|-----------------|-------------------|-3-3-----3-3-5-5-|-7-7-5-5-3-3---3-|
|-0-0-----0-0-2-2-|--3--3-2-2-0-0-2-2-|-----3-3---------|-----------------|
|-----0-0---------|-------------------|-----------------|-----------------|


 Pre-Verse
  Q=80
           D                     Bb
 2/4      4/4
  Gtrs I, II
   >
  +H       +W
|--------|-----------------------------------------|
|--------|-----------------------------------------|
|--------|-----------------------------------------|
|-(3)----|-(3)-------------------------------------|
|--------|-----------------------------------------|
|--------|-----------------------------------------|
|
| Gtr III
|                     |--3---|   |--3--|
|  H        E    S S +Q      E   Q     E   E   S S
|--------|-----------------------------------------|
|--------|-------------------5---6-----8---6---5---|
|--------|---------7-(7)-------------------------5-|
|--------|-------7---------------------------------|
|--------|-----------------------------------------|
|--------|-----------------------------------------|
|
| Gtr IV
|  H        S  S S S  S  S S   S S S S   S S S S S
|--------|-----------------------------------------|
|--------|-----------------------------------------|
|--------|-----------------------------------------|
|--------|-----7---7-----7-----7---3-----3---3---3-|
|--------|--5----5----5----5-----1---1-----1---1---|
|--------|-----------------------------------------|


  C                 Bb
  +W
|-------------------------------------|
|-------------------------------------|
|-------------------------------------|
|-(3)---------------------------------|
|-------------------------------------|
|-------------------------------------|
|
| +E.     S Q       E   E   E   S S
|-------------------------------------|
|-------------------------------6-----|
|-(5)-------5-------3---5---5-----7---|
|---------5---------------------------|
|-------------------------------------|
|-------------------------------------|
|
|  S  S S S S S S S S S S S S S S S
|-------------------------------------|
|-------------------------------------|
|-------------------------------------|
|-----5---5---5---5---3---3---3---3---|
|--3----3---3---3---1---1---1---1-----|
|-------------------------------------|


  D                   Bb
  Gtr III
   |--3---|            |--3---|
  +Q      E   E   S S +Q      E   E   S S
|-----------------------------------------|
|-----------------5-6-(6)-----8---6---5---|
|-(7)---------7-------------------------5-|
|---------7-------------------------------|
|-----------------------------------------|
|-----------------------------------------|
|
| Gtr IV
|  S  S S   S S S S S  S  S S   S S S S S
|-----------------------------------------|
|-----------------------------------------|
|-----------------------------------------|
|-----7-----7---7---7-----3-----3---3---3-|
|--5----5-----5---5----1----1-----1---1---|
|-----------------------------------------|


  C                                   D                 Bb
                                      |--3--|            |--3---|
  +W                                  Q     E   E   S S +Q      E   E   S S
|-----------------------------------|---------------------------------------|
|-----------------------------------|---------------5-6-(6)-----8---6---5---|
|-(5)-------------------------------|-----------7-------------------------5-|
|-----------------------------------|-------7-------------------------------|
|-----------------------------------|---------------------------------------|
|-----------------------------------|---------------------------------------|
|
|  S  S S S S S S S S S S S S S S S   S S S   S S S S S  S  S S   S S S S S
|-----------------------------------|---------------------------------------|
|-----------------------------------|---------------------------------------|
|-----------------------------------|---------------------------------------|
|-----5---5---5---5---5---5---5---5-|---7-----7---7---7-----3-----3---3---3-|
|--3----3---3---3---3---3---3---3---|-5---5-----5---5----1----1-----1---1---|
|-----------------------------------|---------------------------------------|


  C                Bb                  D                   Bb
                                        |--3---|
  E.     S E   S S +E.     S E   S S   +Q      E   E   S S +E    S S +E    S S
|------------------------------------|-----------------------------------------|
|--------------------------------6---|-----------------5-6-(6)---8-6-(6)p==5---|
|-5--------5-----3-(3)S====5-5-----7-|-(7)---------7-------------------------5-|
|--------5-----5---------------------|---------7-------------------------------|
|------------------------------------|-----------------------------------------|
|------------------------------------|-----------------------------------------|
|
| S  S S S S S S S  S  S S S S S S S    S  S S   S S S S S  S  S S S  S  S S S
|------------------------------------|-----------------------------------------|
|------------------------------------|-----------------------------------------|
|------------------------------------|-----------------------------------------|
|----5---5---5---5-----3---3---5---5-|-----7-----7---7---7-----3---3-----3---3-|
|-3----3---3---3----1----1---3---3---|--5----5-----5---5----1----1----1----1---|
|------------------------------------|-----------------------------------------|


  C
  +W
|--------------------------------------|
|--------------------------------------|
|-(5)----------------------------------|
|--------------------------------------|
|--------------------------------------|
|--------------------------------------|
|
|  S  S S S S S S S S S S S S S S S
|--------------------------------------|
|--------------------------------------|
|--------------------------------------|
|-----5---5---5---5---5---5---5---5----|
|--3----3---3---3---3---3---3---3------|
|--------------------------------------|


   Verse
                                      1.,2.
    D               Bb                C               Bb
    S S S S S S S S S S S S S S S S   S S S S S S S S S S S S S S S S
||----------------------------------|-----------------------------------||
||o---------------------------------|----------------------------------o||
||----------------------------------|-----------------------------------||
||----7---7---7---7---3---3---3---3-|---5---5---5---5---3---3---5---5---||
||o-5---5---5---5---1---1---1---1---|-3---3---3---3---1---1---3---3----o||
||----------------------------------|-----------------------------------||


  3.
  C               F       G         D               Bb
  S S S S S S S S S S S S S S S S   S S S S S S S S S S S S S S S S
|---------------------------------|---------------------------------|
|---------------------------------|---------------------------------|
|-------------------5---5---7---7-|---------------------------------|
|---5---5---5---5-3---3---5---5---|---7---7---7---7---3---3---3---3-|
|-3---3---3---3-------------------|-5---5---5---5---1---1---1---1---|
|---------------------------------|---------------------------------|


                                     Chorus
  C                                   Bb              C
  S S S S S S S S S S S S S S S S     S S S S S S S S S S S S S S S S
|---------------------------------||----------------------------------|
|---------------------------------||o---------------------------------|
|---------------------------------||----------------------------------|
|---5---5---5---5---5---5---5---5-||----3---3---3---3---5---5---5---5-|
|-3---3---3---3---3---3---3---3---||o-1---1---1---1---3---3---3---3---|
|---------------------------------||----------------------------------|


  D               C                 Bb              F       G
  S S S S S S S S S S S S S S S S   S S S S S S S S S S S S S S S S
|---------------------------------|---------------------------------|
|---------------------------------|---------------------------------|
|---------------------------------|-------------------5---5---7---7-|
|---7---7---7---7---5---5---5---5-|---3---3---3---3-3---3---5---5---|
|-5---5---5---5---3---3---3---3---|-1---1---1---1-------------------|
|---------------------------------|---------------------------------|


  1.                                  2.
  D
                                                                  Gtrs I, II
  S S S S S S S S S S S S S S S S     S S S S S S S S S S S S S S E
|----------------------------------||-------------------------------|
|---------------------------------o||-------------------------------|
|----------------------------------||-------------------------------|
|---7---7---7---7---7---7---7---7--||---7---7---7---7---7---7-------|
|-5---5---5---5---5---5---5---5---o||-5---5---5---5---5---5---5---5-|
|----------------------------------||-------------------------------|


    Faster Q=200
    D
    +E  E E E E E E E   E E E E E E E E   +E  E E E E E E E   E E E E E E E E
||--------------------|-----------------|-------------------|------------------|
||o-------------------|-----------------|-------------------|------------------|
||--------------------|-----------------|-------------------|------------------|
||--------7-7-5-5-7-7-|-----7-7-5-5-7---|-------7-7-5-5-7-7-|-----7-7-5-5-7----|
||o-(5)-5-------------|-5-5-----------5-|-(5)-5-------------|-5-5-----------5--|
||--------------------|-----------------|-------------------|------------------|


  +E  E E E E E E E   E E E E E E E E
|-------------------|-----------------|
|-------------------|-----------------|
|-------------------|-----------------|
|-------7-7-5-5-7-7-|-----7-7-5-5-7---|
|-(5)-5-------------|-5-5-----------5-|
|-------------------|-----------------|


                      1.                  2.
  +E  E E E E E E E   E E E E E E E E     E E E E E E E E
|-------------------|------------------||-----------------|
|-------------------|-----------------o||-----------------|
|-------------------|------------------||-----------------|
|-------------------|-----5-5----------||-----5-5-------7-|
|-(5)-5-----5-5-7-7-|-8-8-----8-8-7-5-o||-8-8-----8-7-5-5-|
|-------5-5---------|------------------||-----------------|


   Verse
    D5                        Bb5                           C5
    +H..       E   +H..       E   +H..       E   +H..       E
||---------------|--------------|--------------|---------------|
||o--------------|--------------|--------------|---------------|
||---------------|--------------|--------------|---------------|
||--(7)--------7-|-(7)--------3-|-(3)--------3-|-(3)--------5--|
||o-(5)--------5-|-(5)--------1-|-(1)--------1-|-(1)--------3--|
||---------------|--------------|--------------|---------------|


                                               1.               2.
                            D5                                             Bb5
  +H..       E   +H..       E   +H..       E   +H..       E     +H..       E
|--------------|--------------|--------------|---------------||--------------|
|--------------|--------------|--------------|--------------o||--------------|
|--------------|--------------|--------------|---------------||--------------|
|-(5)--------5-|-(5)--------7-|-(7)--------7-|-(7)--------7--||-(7)--------3-|
|-(3)--------3-|-(3)--------5-|-(5)--------5-|-(5)--------5-o||-(5)--------1-|
|--------------|--------------|--------------|---------------||--------------|


   Chorus
                 C5               D5               C5               Bb5
    +H     +Q.   E   +H     +Q.   E   +H     +Q.   E   +H     +Q.   E
||-----------------|----------------|----------------|-----------------|
||o----------------|----------------|----------------|-----------------|
||-----------------|----------------|----------------|-----------------|
||--(3)----(3)---5-|-(5)----(5)---7-|-(7)----(7)---5-|-(5)----(5)---3--|
||o-(1)----(1)---3-|-(3)----(3)---5-|-(5)----(5)---3-|-(3)----(3)---1--|
||-----------------|----------------|----------------|-----------------|


               F5        G5      D5
  +H     +Q.   E   +Q.   E +Q.   E
|----------------|-----------------|
|----------------|-----------------|
|----------------|-----------------|
|-(3)----(3)-----|---------------7-|
|-(1)----(1)---3-|-(3)---5-(5)---5-|
|--------------1-|-(1)---3-(3)-----|


               1.                 2.
                            Bb5   D5
  +W           +H     +Q.   E     H..       E
|------------|-----------------||-------------|
|------------|----------------o||-------------|
|------------|-----------------||-------------|
|-(7)--------|-(7)----(7)---3--||-7---------7-|
|-(5)--------|-(5)----(5)---1-o||-5---------5-|
|------------|-----------------||-------------|


 Verse
  $
               Bb5              C5               D5        C5      D5
  +H     +Q.   E   +H     +Q.   E   +H     +Q.   E   +Q.   E +Q.   E
|----------------|----------------|----------------|-----------------|
|----------------|----------------|----------------|-----------------|
|----------------|----------------|----------------|-----------------|
|-(7)----(7)---3-|-(3)----(3)---5-|-(5)----(5)---7-|-(7)---5-(5)---7-|
|-(5)----(5)---1-|-(1)----(1)---3-|-(3)----(3)---5-|-(5)---3-(3)---5-|
|----------------|----------------|----------------|-----------------|


               Bb5              C5                            D5
  +H     +Q.   E   +H     +Q.   E   +W           +H     +Q.   E
|----------------|----------------|------------|----------------|
|----------------|----------------|------------|----------------|
|----------------|----------------|------------|----------------|
|-(7)----(7)---3-|-(3)----(3)---5-|-(5)--------|-(5)----(5)---7-|
|-(5)----(5)---1-|-(1)----(1)---3-|-(3)--------|-(3)----(3)---5-|
|----------------|----------------|------------|----------------|


               Bb5              C5             F5        G5      D5
  +H     +Q.   E   +H     +Q.   E   +H..       E   +Q.   E +Q.   E
|----------------|----------------|--------------|-----------------|
|----------------|----------------|--------------|-----------------|
|----------------|----------------|--------------|-----------------|
|-(7)----(7)---3-|-(3)----(3)---5-|-(5)----------|---------------7-|
|-(5)----(5)---1-|-(1)----(1)---3-|-(3)--------3-|-(3)---5-(5)---5-|
|----------------|----------------|------------1-|-(1)---3-(3)-----|


               Bb5              C5                            Bb5
  +H     +Q.   E   +H     +Q.   E   +W           +H     +Q.   E
|----------------|----------------|------------|----------------|
|----------------|----------------|------------|----------------|
|----------------|----------------|------------|----------------|
|-(7)----(7)---3-|-(3)----(3)---5-|-(5)--------|-(5)----(5)---3-|
|-(5)----(5)---1-|-(1)----(1)---3-|-(3)--------|-(3)----(3)---1-|
|----------------|----------------|------------|----------------|


   Chorus
                   C5                 D5                 C5                 Bb5
        PM|    PM|         PM|    PM|         PM|    PM|         PM|    PM|
    +E  E E Q  E E E   +E  E E Q  E E E   +E  E E Q  E E E   +E  E E Q  E E E
||-------------------|------------------|------------------|-------------------|
||o------------------|------------------|------------------|-------------------|
||-------------------|------------------|------------------|-------------------|
||--(3)-----3------5-|-(5)-----5------7-|-(7)-----7------5-|-(5)-----5------3--|
||o-(1)-1-1-1--1-1-3-|-(3)-3-3-3--3-3-5-|-(5)-5-5-5--5-5-3-|-(3)-3-3-3--3-3-1--|
||-------------------|------------------|------------------|-------------------|


                                              To Coda
                 F5/C      G5/D D5
      PM|    PM|                        PM|    PM|
  +E  E E Q  E E E   +Q.   H    E   +E  E E Q  E E E
|------------------|--------------|------------------|
|------------------|--------------|------------------|
|----------------5-|-(5)---7------|------------------|
|-(3)-----3------3-|-(3)---5----7-|-(7)-----7------7-|
|-(1)-1-1-1--1-1-3-|-(3)---5----5-|-(5)-5-5-5--5-5-5-|
|------------------|--------------|------------------|


  1.                   2.
                 Bb5    D5
      PM|    PM|          PM|    PM|
  +E  E E Q  E E E      E E E Q  E E E
|-------------------||-------------------|
|------------------o||-------------------|
|-------------------||-------------------|
|-(7)-----7------3--||--7-----7----------|
|-(5)-5-5-5--5-5-1-o||--5-5-5-5--5-5-5---|
|-------------------||-------------------|


    D
    +E  E E E E E E E   E E E E E E E E   +E  E E E E E E E   E E E E E E E E
||--------------------|-----------------|-------------------|------------------|
||o-------------------|-----------------|-------------------|------------------|
||--------------------|-----------------|-------------------|------------------|
||--------7-7-5-5-7-7-|-----7-7-5-5-7---|-------7-7-5-5-7-7-|-----7-7-5-5-7----|
||o-(5)-5-------------|-5-5-----------5-|-(5)-5-------------|-5-5-----------5--|
||--------------------|-----------------|-------------------|------------------|


  +E  E E E E E E E   E E E E E E E E
|-------------------|-----------------|
|-------------------|-----------------|
|-------------------|-----------------|
|-------7-7-5-5-7-7-|-----7-7-5-5-7---|
|-(5)-5-------------|-5-5-----------5-|
|-------------------|-----------------|


                      1.                  2.
  +E  E E E E E E E   E E E E E E E E     E E E E E E E E
|-------------------|------------------||-----------------|
|-------------------|-----------------o||-----------------|
|-------------------|------------------||---------------7-|
|-------------------|-----5-5----------||-----5-5---------|
|-(5)-5-----5-5-7-7-|-8-8-----8-8-7-5-o||-8-8-----8-7-5---|
|-------5-5---------|------------------||-----------------|


 Interlude
  Slower Q=120
  D                                  Bb                     A
  +H     Q  Q    Q.   S S Q.   S S   Q.   S S Q  E    +E    +W
|--------------|-------------------|----------------------|--------|
|--------5--6--|-5----6-5----------|----------------------|--------|
|-(7)----------|----------7----7-5-|----------------------|--------|
|--------------|-------------------|-8----8-7-5--7b8==(7)r|=(7)----|
|--------------|-------------------|----------------------|--------|
|--------------|-------------------|----------------------|--------|


  D                                Bb               D
  H    Q  Q    Q.   S S Q.   S S   Q.   S S Q  Q    H    +Q.   E
|------------|-------------------|----------------|---------------|
|------5--6--|-5----6-5----------|----------------|---------------|
|-7----------|----------7----7-5-|-------------5--|-7----(7)------|
|------------|-------------------|-8----8-7-5-----|------------7--|
|------------|-------------------|----------------|---------------|
|------------|-------------------|----------------|---------------|


  D                                     F                      A
  H    +E  E E E   E S S Q  +E  E E E   E S S Q  +E  S S E E   H    +Q.   E
|----------------|--------------------|----------------------|---------------|
|--------------5-|-6-8-6-5--(5)-----5-|-6-8-6-5--(5)---------|---------------|
|-7----(7)---7---|----------------7---|--------------7-5-----|---------------|
|----------7-----|--------------7-----|------------------7-8-|-7----(7)---7--|
|----------------|--------------------|----------------------|---------------|
|----------------|--------------------|----------------------|---------------|


  D
  H    +E  E E E   E S S Q  +E  E E E
|----------------|--------------------|
|--------------5-|-6-8-6-5--(5)-----5-|
|-7----(7)---7---|----------------7---|
|----------7-----|--------------7-----|
|----------------|--------------------|
|----------------|--------------------|


  F                A
  E S S Q  E S S E  E        +E   +E.  +H      +E.
|-------------------------|------------------------|
|-6-8-6-5--5-------10b11==|=(10)-(10)r(10)----(10)-|
|------------7-5----------|------------------------|
|----------------7--------|------------------------|
|-------------------------|------------------------|
|-------------------------|------------------------|


 Guitar Solo
         D5
  Gtr I
                                        ~~
   a       Q     a      +S   +S   S  S  Q   +E  a  a  E
|-------------------------------------------------------|
|---------13--------------------------------------------|
|-12b14==(12)r--12b14==(12)r(12)-10----10--(10)s0-------|
|-----------------------------------12------------------|
|-------------------------------------------------10h12-|
|-------------------------------------------------------|
|
|        Gtr II
|          W
|-------------------------------------------------------|
|-------------------------------------------------------|
|-------------------------------------------------------|
|----------7--------------------------------------------|
|----------5--------------------------------------------|
|-------------------------------------------------------|


                                              Bb5                   C5
                                                      |-----5-----|
   E.  S      +E    S  S  +Q.    a      +E     +Q     S  S  S  S  S  S  S  S  S  S  S  S  S
|------------------10-10-(10)---13b15==(13)-|-(13)r--13-12-10----10-------------------------|
|------------------10-10-(10)---------------|-----------------10----13-11p10----10----------|
|-10--12b14==(12)r--------------------------|--------------------------------12----12p10----|
|-10----------------------------------------|--------------------------------------------12-|
|-------------------------------------------|-----------------------------------------------|
|-------------------------------------------|-----------------------------------------------|
|
| +W                                            H                    H
|-------------------------------------------|-----------------------------------------------|
|-------------------------------------------|-----------------------------------------------|
|-------------------------------------------|-----------------------------------------------|
|-(7)---------------------------------------|---3--------------------5----------------------|
|-(5)---------------------------------------|---1--------------------3----------------------|
|-------------------------------------------|-----------------------------------------------|


  D5
      ~~                                                  PM---|
                                                          |--3--|
   E  Q   E  +E   +Q    E    a      +Q     S  S  S  S  S  S  S  S  S  E  E
|-------------------------|-15b17==(15)r--15-13s12-13----------------------|
|-------------------------|---------------------------13----------13-------|
|-10-12--10-(10)-(10)\----|------------------------------------12----12s10-|
|-------------------------|---------------------------------14-------------|
|-------------------------|------------------------------15----------------|
|-------------------------|------------------------------------------------|
|
|  W                                 W
|-------------------------|------------------------------------------------|
|-------------------------|------------------------------------------------|
|-------------------------|------------------------------------------------|
|--7----------------------|----------7-------------------------------------|
|--5----------------------|----------5-------------------------------------|
|-------------------------|------------------------------------------------|


   a       Q     a      +S   +S   S  S  H
|--------------------------------------------|
|---------10---------------------------------|
|-12b14==(12)r--12b14==(12)r(12)-10----10----|
|-----------------------------------12-------|
|--------------------------------------------|
|--------------------------------------------|
|
|          W
|--------------------------------------------|
|--------------------------------------------|
|--------------------------------------------|
|----------7---------------------------------|
|----------5---------------------------------|
|--------------------------------------------|


         Bb5                         C5
   a       Q     a      +S   S  S  S  S  S  S  S  S  S  S S
|---------13------------------------------------------------|
|---------13------------------------------------------------|
|-12b14==(12)r--12pb14r(12)p10----10------------------------|
|------------------------------12----12p10----10------------|
|------------------------------------------12----12-11-10p8-|
|-----------------------------------------------------------|
|
|          H                          H
|-----------------------------------------------------------|
|-----------------------------------------------------------|
|-----------------------------------------------------------|
|----------3--------------------------5---------------------|
|----------1--------------------------3---------------------|
|-----------------------------------------------------------|


  D5
   S  S  E  H.
|---------------------------------|
|---------------------------------|
|---------------------------------|
|---------------------------------|
|-10p=8---------------------------|
|-------10-10\--------------------|
|
|  H..              S  a      +S
|---------------------17b19==(17)-|
|------------------14-------------|
|---------------------------------|
|--7------------------------------|
|--5------------------------------|
|---------------------------------|


 Guitar Solo 2
  F#5
    W
|------------------------------------------------------|
|------------------------------------------------------|
|---6--------------------------------------------------|
|---4--------------------------------------------------|
|------------------------------------------------------|
|------------------------------------------------------|
|
|  +Q     +Q    S  S  T  T  T  T  T  T  T  T  S   T  T
|-(17)r--(17)--16-17-16p14h16p14----15p14--------------|
|--------------------------------17-------17p14\----14h|
|------------------------------------------------16----|
|------------------------------------------------------|
|------------------------------------------------------|
|------------------------------------------------------|


  F#5
   W
|----------------------------------------------------------------------------------|
|----------------------------------------------------------------------------------|
|--6-------------------------------------------------------------------------------|
|--4-------------------------------------------------------------------------------|
|----------------------------------------------------------------------------------|
|----------------------------------------------------------------------------------|
|
|                                               |--3--|  |--3--|
|  T  T  T  T  T  T  T  T  T  T  T  T  T  S  T  S  S  S  S  S  S  E  a      +E
|----------------------------------------------------------------------------------|
|-17p14----14h17p14----14-15p14----14-15p14----------------14h15-14-17b19==(17)r===|
|-------16----------16----------16----------16p14p13-14h16-------------------------|
|----------------------------------------------------------------------------------|
|----------------------------------------------------------------------------------|
|----------------------------------------------------------------------------------|


        D5                     E5
         H                      H
|---------------------------------------------------------------------|
|---------------------------------------------------------------------|
|--------2----------------------4-------------------------------------|
|--------0----------------------2-------------------------------------|
|---------------------------------------------------------------------|
|---------------------------------------------------------------------|
|
|                                           |--3--|
|  a  a  S  E  a  S  S  S  S S  T  T  T  T  S  S  S  S  S  T  T  T  T
|-------------15s17p14------------------------------------------------|
|-17s15s17p14----------17p14---15-14----14h17p14----14----------------|
|----------------------------x-------16----------16----16p14h16p14----|
|------------------------------------------------------------------16-|
|---------------------------------------------------------------------|
|---------------------------------------------------------------------|


  F#5
   W
|------------------------------------------------------------------------------|
|------------------------------------------------------------------------------|
|--6---------------------------------------------------------------------------|
|--4---------------------------------------------------------------------------|
|------------------------------------------------------------------------------|
|------------------------------------------------------------------------------|
|
|           |--3--|
|  S  T  T  S  S  S  +S   S  S  S  S  a      +S   +S   S  +E    S  a      +S
|--------------------------------------------------------------19-19b21==(19)--|
|------------------------------------------------------------------------------|
|-14------------------------------14-16b18==(16)r(16)-14-(14)\-----------------|
|----16p14-16p14------------14h16----------------------------------------------|
|----------------16-(16)-16----------------------------------------------------|
|------------------------------------------------------------------------------|


  F#5
    W
|--------------------------------------------|
|--------------------------------------------|
|---6----------------------------------------|
|---4----------------------------------------|
|--------------------------------------------|
|--------------------------------------------|
|
|                                    |--3--|
|  +Q    +E   +E   S  S  S  S  S  S  S  S  S
|-(19)--(19)r(19)-17s16----------------------|
|-----------------------17----------14h15h16-|
|--------------------------16s14h16----------|
|--------------------------------------------|
|--------------------------------------------|
|--------------------------------------------|


   W
|---------------------------------------------------------------------------|
|---------------------------------------------------------------------------|
|--6------------------------------------------------------------------------|
|--4------------------------------------------------------------------------|
|---------------------------------------------------------------------------|
|---------------------------------------------------------------------------|
|
|                                         |3-|  |--3--|
|  T  S  T  T  T  T  T  S  T  T  S  T  T  E  S  S  S  S  S.  T  T  T  T  T
|-14h17p16p14----14h16p14---------------------------------------------------|
|-------------17----------17p15p14-14h15p14-14h15-14------------------------|
|----------------------------------------------------16s18--18h19p18h19p18--|
|---------------------------------------------------------------------------|
|---------------------------------------------------------------------------|
|---------------------------------------------------------------------------|


  D5                            E5
   H                             H
|-------------------------------------------------------------|
|-------------------------------------------------------------|
|--2-----------------------------4----------------------------|
|--0-----------------------------2----------------------------|
|-------------------------------------------------------------|
|-------------------------------------------------------------|
|
|  E  T  T  T  T  E  T  T  T  T  E  T  T  T  T  S  T  T  S  S
|-------------------------------------------------------------|
|-------------------------------------------------------14-19-|
|-19-18h19p18p16-18-16h18p16s14-16-14h16p14p13-14----14-------|
|-------------------------------------------------16----------|
|-------------------------------------------------------------|
|-------------------------------------------------------------|


  F#5
   H..                                   S S
|--------------------------------------------|
|--------------------------------------------|
|--6-------------------------------------7-7-|
|--4-----------------------------------------|
|--------------------------------------------|
|--------------------------------------------|
|
|       |--3--|  |3-|  |--3--|
|  E    S  S  S  E  S  S  S  S  Q   +Q
|--------------------------------------------|
|-19---14h19p14----------14-19-19--(19)\-----|
|---------------14----14---------------------|
|------------------14------------------------|
|--------------------------------------------|
|--------------------------------------------|


  D
  Gtrs I, II
  E E E E +Q.   S S   E E E E +E  Q  S S
|---5---3-(3)-------|---5----------------|
|-----6-------------|-----6-8-(8)-6------|
|-7-------------7-7-|-7--------------3-3-|
|-------------------|--------------------|
|-------------------|--------------------|
|-------------------|--------------------|


  Bb
  E E E E +Q.   S S   E E E E +E  E +E  S S
|-------------------|-----------------------|
|---6-3-5-(5)-------|---6-3-5-(5)-----------|
|-3-------------3-3-|-3-----------5-(5)-----|
|-------------------|-------------------5-5-|
|-------------------|-----------------------|
|-------------------|-----------------------|


  G                   A               DsusD
  E E E E +Q.   S S   E E E E +E  E Q
|-------------------|-------------------|
|---3---------------|---6---5-(5)-------|
|-----3-5-(5)-------|-----7-------5-----|
|-5-------------7-7-|-7-------------7---|
|-------------------|-------------------|
|-------------------|-------------------|
|
| Gtr V
| W                   Q   H         E E
|-------------------|-----------------0-|
|-------------------|-----------------3-|
|-------------------|-----------------2-|
|-------------------|-----------------0-|
|-------------------|-------------------|
|-------------------|-------------------|


   E  E E E +E  E E E   +E  E E E +E  E E E
|---------------------|----------------------|
|---------------------|----------------------|
|--7----7-5-(5)---5-7-|-(7)---7-5-(5)---5-7--|
|-----7---------7-----|-----7---------7------|
|---------------------|----------------------|
|---------------------|----------------------|
|
| +W                    +W
|-(0)-----------------|-(0)------------------|
|-(3)-----------------|-(3)------------------|
|-(2)-----------------|-(2)------------------|
|-(0)-----------------|-(0)------------------|
|---------------------|----------------------|
|---------------------|----------------------|


   Chorus
    D
    E E E E +Q.   S S   E E E E +E  Q  S S
||----5---3-(3)-------|---5----------------|
||o-----6-------------|-----6-8-(8)-6------|
||--7-------------7-7-|-7--------------3-3-|
||--------------------|--------------------|
||o-------------------|--------------------|
||--------------------|--------------------|


  Bb
  E E E E +Q.   S S   E E E E +E  E +E  S S
|-------------------|------------------------|
|---6-3-5-(5)-------|---6-3-5-(5)------------|
|-3-------------3-3-|-3-----------5-(5)------|
|-------------------|-------------------5-5--|
|-------------------|------------------------|
|-------------------|------------------------|


  G                   A               Dsus2
  E E E E +Q.   S S   E E E E +E  E Q      E  E E E +E  E E E
|-------------------|-------------------|---------------------|
|---3---------------|---6---5-(5)-------|---------------------|
|-----3-5-(5)-------|-----7-------5-----|--7----7-5-(5)---5-7-|
|-5-------------7-7-|-7-------------7---|-----7---------7-----|
|-------------------|-------------------|---------------------|
|-------------------|-------------------|---------------------|
|
| Gtr V
| W                   Q   H         E E   +W
|-------------------|-----------------0-|-(0)-----------------|
|-------------------|-----------------3-|-(3)-----------------|
|-------------------|-----------------2-|-(2)-----------------|
|-------------------|-----------------0-|-(0)-----------------|
|-------------------|-------------------|---------------------|
|-------------------|-------------------|---------------------|


  1.                      2.
  +E  E E E +E  E E E     +E  E E E +Q.   E
|----------------------||---------------------|
|---------------------o||---------------------|
|-(7)---7-5-(5)---5-7--||-(7)---7-5-(5)-------|
|-----7---------7------||-----7---------------|
|---------------------o||-----------------5---|
|----------------------||---------------------|
|
| +W                       W
|-(0)------------------||---------------------|
|-(3)-----------------o||---------------------|
|-(2)------------------||---------------------|
|-(0)------------------||---------------------|
|---------------------o||---------------------|
|----------------------||---------------------|


    Faster Q=200
    D
    +E  E E E E E E E   E E E E E E E E   +E  E E E E E E E   E E E E E E E E
||--------------------|-----------------|-------------------|------------------|
||o-------------------|-----------------|-------------------|------------------|
||--------------------|-----------------|-------------------|------------------|
||--------7-7-5-5-7-7-|-----7-7-5-5-7---|-------7-7-5-5-7-7-|-----7-7-5-5-7----|
||o-(5)-5-------------|-5-5-----------5-|-(5)-5-------------|-5-5-----------5--|
||--------------------|-----------------|-------------------|------------------|


  +E  E E E E E E E   E E E E E E E E
|-------------------|-----------------|
|-------------------|-----------------|
|-------------------|-----------------|
|-------7-7-5-5-7-7-|-----7-7-5-5-7---|
|-(5)-5-------------|-5-5-----------5-|
|-------------------|-----------------|


                      1.                  2.
                                            D.S. al Coda
                                                        D5
  +E  E E E E E E E   E E E E E E E E     E E E E E E E E
|-------------------|------------------||-----------------|
|-------------------|-----------------o||-----------------|
|-------------------|------------------||-----------------|
|-------------------|-----5-5----------||-----5-5-------7-|
|-(5)-5-----5-5-7-7-|-8-8-----8-8-7-5-o||-8-8-----8-7-5-5-|
|-------5-5---------|------------------||-----------------|


  &
                 Bb5                C5                 D5                 C5
      PM|    PM|         PM|    PM|         PM|    PM|         PM|    PM|
  +E  E E Q  E E E   +E  E E Q  E E E   +E  E E Q  E E E   +E  E E Q  E E E
|------------------|------------------|------------------|------------------|
|------------------|------------------|------------------|------------------|
|------------------|------------------|------------------|------------------|
|-(7)-----7------3-|-(3)-----3------5-|-(5)-----5------7-|-(7)-----7------5-|
|-(5)-5-5-5--5-5-1-|-(1)-1-1-1--1-1-3-|-(3)-3-3-3--3-3-5-|-(5)-5-5-5--5-5-3-|
|------------------|------------------|------------------|------------------|


                 Bb5                F5/C      G5/D D5
      PM|    PM|         PM|    PM|                        PM|    PM|
  +E  E E Q  E E E   +E  E E Q  E E E   +Q.   H    E   +E  E E Q  E E E
|------------------|------------------|--------------|------------------|
|------------------|------------------|--------------|------------------|
|------------------|----------------5-|-(5)---7------|------------------|
|-(5)-----5------3-|-(3)-----3------3-|-(3)---5----7-|-(7)-----7------7-|
|-(3)-3-3-3--3-3-1-|-(1)-1-1-1--1-1-3-|-(3)---5----5-|-(5)-5-5-5--5-5-5-|
|------------------|------------------|--------------|------------------|


                 Bb5                C5                 D5                 C5
      PM|    PM|         PM|    PM|         PM|    PM|         PM|    PM|
  +E  E E Q  E E E   +E  E E Q  E E E   +E  E E Q  E E E   +E  E E Q  E E E
|------------------|------------------|------------------|------------------|
|------------------|------------------|------------------|------------------|
|------------------|------------------|------------------|------------------|
|-(7)-----7------3-|-(3)-----3------5-|-(5)-----5------7-|-(7)-----7------5-|
|-(5)-5-5-5--5-5-1-|-(1)-1-1-1--1-1-3-|-(3)-3-3-3--3-3-5-|-(5)-5-5-5--5-5-3-|
|------------------|------------------|------------------|------------------|


  H.=H
                 Bb5                F5        G5   D5
      PM|    PM|         PM|    PM|
  +E  E E Q  E E E   +E  E E Q  E E E   +Q.   H    E   +W
|------------------|------------------|--------------|--------|
|------------------|------------------|--------------|--------|
|------------------|------------------|--------------|--------|
|-(5)-----5------3-|-(3)-----3--------|------------7-|-(7)----|
|-(3)-3-3-3--3-3-1-|-(1)-1-1-1--1-1-3-|-(3)---5----5-|-(5)----|
|------------------|----------------1-|-(1)---3------|--------|


 Outro
  Slower Q=80
  D                   Bb                  C                 Bb
  Gtr III
           |--3---|   |--3--|
  E   S S +Q      E   Q     E   E   S S   +E.     S Q       E   E   E   S S
|---------------------------------------|-----------------------------------|
|-----------------5---6-----8---6---5---|-------------------------------6---|
|-------7-(7)-------------------------5-|-(5)-------5-------3---5---5-----7-|
|-----7---------------------------------|---------5-------------------------|
|---------------------------------------|-----------------------------------|
|---------------------------------------|-----------------------------------|
|
| Gtr IV
| S S S S  S  S S   S S S S   S S S S S    S  S S S S S S S S S S S S S S S
|---------------------------------------|-----------------------------------|
|---------------------------------------|-----------------------------------|
|---------------------------------------|-----------------------------------|
|---7---7-----7-----7---3-----3---3---3-|-----5---5---5---5---3---3---3---3-|
|-5---5----5----5-----1---1-----1---1---|--3----3---3---3---1---1---1---1---|
|---------------------------------------|-----------------------------------|


  D                   Bb                    C
   |--3---|            |--3---|
  +Q      E   E   S S +Q      E   E   S S   +W
|-----------------------------------------|-----------------------------------|
|-----------------5-6-(6)-----8---6---5---|-----------------------------------|
|-(7)---------7-------------------------5-|-(5)-------------------------------|
|---------7-------------------------------|-----------------------------------|
|-----------------------------------------|-----------------------------------|
|-----------------------------------------|-----------------------------------|
|
|  S  S S   S S S S S  S  S S   S S S S S    S  S S S S S S S S S S S S S S S
|-----------------------------------------|-----------------------------------|
|-----------------------------------------|-----------------------------------|
|-----------------------------------------|-----------------------------------|
|-----7-----7---7---7-----3-----3---3---3-|-----5---5---5---5---5---5---5---5-|
|--5----5-----5---5----1----1-----1---1---|--3----3---3---3---3---3---3---3---|
|-----------------------------------------|-----------------------------------|


  H.=H
  D               Bb
  S S S S S S S S S S S S S S S S
|---------------------------------|
|---------------------------------|
|---------------------------------|
|---7---7---7---7---3---3---3---3-|
|-5---5---5---5---1---1---1---1---|
|---------------------------------|


  C               F       G         D
  S S S S S S S S S S S S S S S S   S S S S H.
|---------------------------------|---------------*|
|---------------------------------|---------------*|
|-------------------5---5---7---7-|---------------*|
|---5---5---5---5-3---3---5---5---|---7---7-------*|
|-3---3---3---3-------------------|-5---5---5-----*|
|---------------------------------|---------------*|


Duration Legend
---------------
W - whole; H - half; Q - quarter; E - 8th; S - 16th; T - 32nd; X - 64th; a - acciaccatura
+ - note tied to previous; . - note dotted; .. - note double dotted
Uncapitalized letters represent notes that are staccato (1/2 duration)
Irregular groupings are notated above the duration line
Duration letters will always appear directly above the note/fret number it represents the
duration for.  Duration letters with no fret number below them represent rests.  Multi-
bar rests are notated in the form Wxn, where n is the number of bars to rest for.  Low
melody durations appear below the staff

Tablature Legend
----------------
 h   - hammer-on
 p   - pull-off
 b   - bend
 pb  - pre-bend
 r   - bend release (if no number after the r, then release immediately)
 /\  - slide into or out of (from/to "nowhere")
 s   - legato slide
 S   - shift slide
  - natural harmonic
[n]  - artificial harmonic
n(n) - tapped harmonic
 ~   - vibrato
 tr  - trill
 T   - tap
 TP  - trem. picking
 PM  - palm muting
\n/  - tremolo bar dip; n = amount to dip
 \n  - tremolo bar down
 n/  - tremolo bar up
/n\  - tremolo bar inverted dip
 =   - hold bend; also acts as connecting device for hammers/pulls
 <>  - volume swell (louder/softer)
 x   - on rhythm slash represents muted slash
 o   - on rhythm slash represents single note slash

Misc Legend
-----------
 |  - bar
||  - double bar
||o - repeat start
o|| - repeat end
*|  - double bar (ending)
 :  - bar (freetime)
 $  - Segno


comments
print report bad tab
I want to post or [tab]
guest
You may want to rate the tab now too:
select rating
Please do not post tabs as comments. Select "correction" instead!