Oops, an error
Loading. Please wait.

Ghost Of The Navigator Tab

ver1
ver1

Intro

Whole song

Interactive

More versions @911Tabs.com
43,554 views 45 this week
8 commentsread comments
1 2 3 4 5
accurate
x 20
Autoscroll
+/-
esc
set tempo
stop
Hey! There's an official Ultimate Guitar app which is ideal
for learning songs when you're away from computer. Get the app
WARNING: You are trying to view
                                    content from Ultimate-Guitar.com
                                    in an unauthorized application,
                                    which is prohibited.

                                    Please use an official Ultimate
                                    Guitar Tabs application for iPhone,
                                    iPad or Android to access legitimate
                                    chords, guitar, bass, and drum tabs
                                    from Ultimate-Guitar.com database.

                                    Type "ultimate guitar tabs" in Apple
                                    App Store's or Android Market's
                                    search to find the application.
#----------------------------------PLEASE NOTE--------------------------------#
#This file is the author's own work and represents their interpretation of the#
#song. You may only use this file for private study, scholarship, or research.#
#-----------------------------------------------------------------------------#

Author/Artist: Iron Maiden
Title: Ghost Of The Navigator
Album: Brave New World
Transcribed by: Stephan E. Tillmann
Email: tilly@maidencentral.com


Intro:
    Guitar 1
E||-------5---3-------------|-------------------|-------5---3-------------|
B||--2/3----------6---5--6--|-------------------|--2/3----------6---5--6--|
G||-------------------------|--5----------------|-------------------------|
D||-------------------------|-------------------|-------------------------|
A||-------------------------|-------------------|-------------------------|
E||-------------------------|-------------------|-------------------------|
 || 
 || Guitar 2
E||-------------------------|-------------------|-------------------------|
B||-------------------------|-------------------|-------------------------|
G||--7----------------------|--5----------------|--7----------------------|
D||--7----------------------|--5----------------|--7----------------------|
A||--5----------------------|--3----------------|--5----------------------|
E||-------------------------|-------------------|-------------------------|


                                                                        
|-------------------|-------3-----------------|-------3-----------------|
|--5----------------|-----------6---5---3-----|-----------6---5---3-----|
|-------------------|--2/3-----------------5--|--2/3-----------------5--|
|-------------------|-------------------------|-------------------------|
|-------------------|-------------------------|-------------------------|
|-------------------|-------------------------|-------------------------|
|
|
|-------------------|-------------------------|-------------------------|
|-------------------|-------------------------|-------------------------|
|--5----------------|--3----------------------|--3-------------------5--|
|--5----------------|--3----------------------|--3-------------------5--|
|--3----------------|--1----------------------|--1-------------------3--|
|-------------------|-------------------------|-------------------------|


                                                                        
|-------5---3-------------|-------------------|-------3-----------------|
|--2/3----------6---5--6--|-------------------|--2/3------6---5---3-----|
|-------------------------|--5----------------|----------------------5--|
|-------------------------|-------------------|-------------------------|
|-------------------------|-------------------|-------------------------|
|-------------------------|-------------------|-------------------------|
|
|
|-------------------------|-------------------|-------------------------|
|-------------------------|-------------------|-------------------------|
|--7----------------------|--5----------------|--7---7---7---7--7-------|
|--7----------------------|--5----------------|--7---7---7---7--7-------|
|--5----------------------|--3----------------|--5---5---5---5--5-------|
|-------------------------|-------------------|-------------------------|



                                                                             
|-------3-----------------|-------3-----------------|---------------3---------|
|--2/3------6---5---3-----|--2/3------6---5---3-----|--2/3--5---6-------6--5--|
|----------------------5--|----------------------5--|-------------------------|
|-------------------------|-------------------------|-------------------------|
|-------------------------|-------------------------|-------------------------|
|-------------------------|-------------------------|-------------------------|
|
|
|-------------------------|-----------------------|-----------------------|
|-------------------------|-----------------------|-----------------------|
|--3---3---3---3--3-------|--5---5---5---5--5-----|--7---7---7---7--7-----|
|--3---3---3---3--3-------|--5---5---5---5--5-----|--7---7---7---7--7-----|
|--1---1---1---1--1-------|--3---3---3---3--3-----|--5---5---5---5--5-----|
|-------------------------|-----------------------|-----------------------|


                                                                             
|-------3-----------------|-------3-----------------|-------3-----------------|
|--2/3------6---5---3-----|--2/3------6---5---3-----|--2/3------6---5---3-----|
|----------------------5--|----------------------5--|----------------------5--|
|-------------------------|-------------------------|-------------------------|
|-------------------------|-------------------------|-------------------------|
|-------------------------|-------------------------|-------------------------|
|
|
|-------------------------|-------------------------|-------------------------|
|-------------------------|-------------------------|-------------------------|
|--7---7---7---7--7-------|--3---3---3---3--3-------|--5---5---5---5--5-------|
|--7---7---7---7--7-------|--3---3---3---3--3-------|--5---5---5---5--5-------|
|--5---5---5---5--5-------|--1---1---1---1--1-------|--3---3---3---3--3-------|
|-------------------------|-------------------------|-------------------------|


                                                                  
|---------------3---------|-------------------|-------------------|
|--2/3--5---6-------6--5--|-------------------|-------------------|
|-------------------------|--7----------------|--3----------------|
|-------------------------|--7----------------|--3----------------|
|-------------------------|--5----------------|-------------------|
|-------------------------|-------------------|-------------------|
|
|
|-----------------------|-------------------|-------------------|
|-----------------------|-------------------|-------------------|
|--7---7---7---7--7-----|--7----------------|--3----------------|
|--7---7---7---7--7-----|--7----------------|--3----------------|
|--5---5---5---5--5-----|--5----------------|--1----------------|
|-----------------------|-------------------|-------------------|


                                                              
|-------------------|---------6----8------|-------------------|
|-------------------|--8------6----8------|-------------------|
|--5----------------|--7------------------|--7----------------|
|--5----------------|---------------------|--7----------------|
|-------------------|---------------------|--5----------------|
|-------------------|---------------------|-------------------|
|
|
|-------------------|---------------------|-------------------|
|-------------------|---------------------|-------------------|
|--5----------------|--7------------------|--7----------------|
|--5----------------|--7------------------|--7----------------|
|--3----------------|--5------------------|--5----------------|
|-------------------|---------------------|-------------------|



                                                               
|-------------------|-------------------|---------6----8------|
|-------------------|-------------------|--6------6----8------|
|--3----------------|--5----------------|--5------------------|
|--3----------------|--5----------------|---------------------|
|-------------------|-------------------|---------------------|
|-------------------|-------------------|---------------------|
|
|
|-------------------|-------------------|---------------------|
|-------------------|-------------------|---------------------|
|-------------------|--5----------------|--7------------------|
|-------------------|--5----------------|--7------------------|
|-------------------|--3----------------|--5------------------|
|-------------------|-------------------|---------------------|



Verse:

|-------------------------------|-------------------------------|
|-------------------------------|-------------------------------|
|--7----------------------------|--3----------------------------|
|--7----------------------------|--3----------------------------|
|--5----5-5-5-5-5-5-5-5-5-5-5-5-|-------5-5-5-5-5-5-5-5-5-5-5-5-|
|-------------------------------|-------------------------------|

                                                                           
|-------------------------------|----------------------|
|-------------------------------|----------------------|
|--5----------------------------|--5------7----5---5---|
|--5----------------------------|--5------7----5---5---|
|-------5-5-5-5-5-5-5-5-5-5-5-5-|----------------------|
|-------------------------------|----------------------|


Bridge:


|----------------------|----------------------|
|----------------------|----------------------|
|--2-------------------|--5-------------------|
|--2-------------------|--5-------------------|
|--0-------------------|--3-------------------|
|----------------------|----------------------|


|----------------------|---------------------|
|----------------------|---------------------|
|--4-------------------|--7------5------4----|
|--4-------------------|--7------5------4----|
|--2-------------------|--5------3------2----|
|----------------------|---------------------|


On 2nd Time

|----------------------|----------------------|
|----------------------|----------------------|
|--2-------------------|--5-------------------|
|--2-------------------|--5-------------------|
|--0-------------------|--3-------------------|
|----------------------|----------------------|
|
|
|----------------------|----------------------|
|----------------------|----------------------|
|--9-------------------|--9-------------------|
|------10--9----7------|------10--9----7------|
|----------------------|----------------------|
|----------------------|----------------------|
 

                                                             
|----------------------|---------------------|
|----------------------|---------------------|
|--4-------------------|--7------5------4----|
|--4-------------------|--7------5------4----|
|--2-------------------|--5------3------2----|
|----------------------|---------------------|
|
|
|----------------------|---------------------|
|----------------------|---------------------|
|--9-------------------|--9------------------|
|------10--9----7------|--------10------7----|
|----------------------|---------------------|
|----------------------|---------------------|


Chorus


 Part 1:


|---------------------|--------------------|
|---------------------|--------------------|
|--9--------12--------|--5--------6--------|
|--9--------12--------|--5--------6--------|
|--7--------10--------|--3--------4--------|
|---------------------|--------------------|


                                                                
|---------------------|---------------------|
|---------------------|---------------------|
|--9--------12--------|--5--------2----4----|
|--9--------12--------|--5--------2----4----|
|--7--------10--------|--3--------0----2----|
|---------------------|---------------------|

 Part 2

|---------------------------|-------------------|
|---------------------------|-------------------|
|--7------------------------|--5----------------|
|--7------------------------|--5----------------|
|--5------------------------|--3----------------|
|---------------------------|-------------------|
|
|
|---------------------------|-------------------|
|------10---8---------------|-------------------|
|--7------------10--9---10--|-------------------|
|---------------------------|-10~---------------|
|---------------------------|-------------------|
|---------------------------|-------------------|



|---------------------------|-------------------|
|---------------------------|-------------------|
|--7------------------------|--5----------------| 
|--7------------------------|--5----------------| 
|--5------------------------|--3----------------|
|---------------------------|-------------------|
|
|
|---------------------------|-------------------|
|------10---8---------------|-------------------|
|--7------------10--9---10--|-10~---------------|
|---------------------------|-------------------|
|---------------------------|-------------------|
|---------------------------|-------------------|




                                                                              
|------------------------|-----------------------|
|------------------------|-----------------------|
|--3---------------------|--3--------------------|
|--3---------------------|--3--------------------|
|--1---------------------|--1--------------------|
|------------------------|-----------------------|
|
|
|------------------------|------------------------|
|-------8---6------------|-------8---6------------|
|---------------9--7-----|---------------9--7-----|
|--8------------------10-|--8-----------------10--|
|------------------------|------------------------|
|------------------------|------------------------|



|---------------------------|--------------------|
|---------------------------|--------------------|
|--7------------------------|--5-----------------|
|--7------------------------|--5-----------------|
|--5------------------------|--3-----------------|
|---------------------------|--------------------|
|
|
|---------------------------|--------------------|
|------10---8---------------|--------------------|
|--7------------10--9---10--|--------------------|
|---------------------------|-10~----------------|
|---------------------------|--------------------|
|---------------------------|--------------------|


Solo Rhythm:        

|-------------------------------|-------------------------------|
|-------------------------------|-------------------------------|
|--7----------------------------|--3----------------------------|
|--7----------------------------|--3----------------------------|
|--5----5-5-5-5-5-5-5-5-5-5-5-5-|-------5-5-5-5-5-5-5-5-5-5-5-5-|
|-------------------------------|-------------------------------|

                                                                           
|-------------------------------|----------------------|
|-------------------------------|----------------------|
|--5----------------------------|--5------7----5---5---|
|--5----------------------------|--5------7----5---5---|
|-------5-5-5-5-5-5-5-5-5-5-5-5-|----------------------|
|-------------------------------|----------------------|                                              


Interlude:

                                                             
|------------------------------|--------------------------|
|------------------------------|--------------------------|
|-----5--4----------5--4-------|-----5--4-------5------7--|
|--2-------5-2-2-2-------5-2-2-|--2-------5-2-2-5------7--|
|------------------------------|----------------3------5--|
|------------------------------|--------------------------|
|
|
|------------------------------|--------------------------|
|------------------------------|--------------------------|
|------------------------------|----------------5------7--|
|--2---------------------------|--2-------------5------7--|
|--2---------------------------|--2-------------3------5--|
|--0---------------------------|--0-----------------------|



|------------------------------|--------------------------|
|------------------------------|--------------------------|
|------------------------------|----------------3------3--|
|-----8--7----------8--7-------|-----8--7-------3------3--|
|--5-------8-5-5-5-------8-5-5-|--5-------8-5-5-1------1--|
|------------------------------|--------------------------|
|
|
|------------------------------|--------------------------|
|------------------------------|--------------------------|
|--7---------------------------|--7-------------3------5--|
|--7---------------------------|--7-------------3------5--|
|--5---------------------------|--3-------------1------3--|
|------------------------------|--------------------------|




|------------------------------|--------------------------|
|------------------------------|--------------------------|
|-----7--6----------7--6-------|-----7--6-------7------9--|
|--4-------7-4-4-4-------7-4-4-|--4-------7-4-4-7------9--|
|------------------------------|----------------5------7--|
|------------------------------|--------------------------|
|
|
|------------------------------|--------------------------|
|------------------------------|--------------------------|
|------------------------------|----------------7------9--|
|--4---------------------------|--4-------------7------9--|
|--4---------------------------|--4-------------5------7--|
|--2---------------------------|--2-----------------------|



|------------------------------|--------------------------|
|------------------------------|--------------------------|
|-----5--4----------5--4-------|-----5--4-------5------7--|
|--2-------5-2-2-2-------5-2-2-|--2-------5-2-2-5------7--|
|------------------------------|----------------3------5--|
|------------------------------|--------------------------|
|
|
|------------------------------|--------------------------|
|------------------------------|--------------------------|
|--9---------------------------|--9-------------5------7--|
|--9---------------------------|--9-------------5------7--|
|--7---------------------------|--7-------------3------5--|
|------------------------------|--------------------------|



Outro:

|-------------------------|----------------------||
|-------------------------|----------------------||
|--7----14----12----10----|--9----10----7--------||
|--7----14----12----10----|--9----10----7--------||
|--5----12----10----8-----|--7----8-----5--------||
|-------------------------|----------------------||

comments
print report bad tab
8 comments total. Showing first comments. show 1 bad comment
-1 reply
OttovanZanten wrote on January 6 2006, 07:48 am

i dont hear a second guitar in the first part of the intro :| maybe other version?

0 reply
Cachao wrote on June 27 2008, 02:40 pm

In the verse it should be:

|-------------------------------|-------------------------------|
|-------------------------------|-------------------------------|
|--7----------------------------|--3----------------------------|
|--7----------------------------|--3----------------------------|
|--5----5-5-5-5-5-5-5-5-5-5-5-5-|-------5-5-5-5-5-5-5-5-5-5-5-5-|
|-------------------------------|-------------------------------|


|-------------------------------|----------------------|
|-------------------------------|----------------------|
|--5----------------------------|--5------7----3---5---|
|--5----------------------------|--5------7----3---5---|
|-------5-5-5-5-5-5-5-5-5-5-5-5-|----------------------|
|-------------------------------|----------------------|

just a thought ad apart from that, good tab

I want to post or [tab]
guest
You may want to rate the tab now too:
select rating
Please do not post tabs as comments. Select "correction" instead!