Oops, an error
Loading. Please wait.

Hallowed Be Thy Name Live Tab

ver1
ver1

Whole song

Interactive

More versions @911Tabs.com
3,029 views 1 this week
4 commentsread comments
1 2 3 4 5
worth learning
x 2
Autoscroll
+/-
esc
set tempo
stop
Contributor
Hey! There's an official Ultimate Guitar app which is ideal
for learning songs when you're away from computer. Get the app
WARNING: You are trying to view
                                    content from Ultimate-Guitar.com
                                    in an unauthorized application,
                                    which is prohibited.

                                    Please use an official Ultimate
                                    Guitar Tabs application for iPhone,
                                    iPad or Android to access legitimate
                                    chords, guitar, bass, and drum tabs
                                    from Ultimate-Guitar.com database.

                                    Type "ultimate guitar tabs" in Apple
                                    App Store's or Android Market's
                                    search to find the application.
#----------------------------------PLEASE NOTE---------------------------------#
#This file is the author's own work and represents their interpretation of the #
#song. You may only use this file for private study, scholarship, or research. #
#------------------------------------------------------------------------------#

HALLOWED BE THY NAME LIVE '93 
As recorded by Iron Maiden
(From the 1993 Album A REAL DEAD ONE)

Transcribed by Helvete
	

Words and Music by Steve Harris
Arranged by Iron Maiden

E5
x 7 9 9 x x
	
C5
x 3 5 5 x x
	
D5
x 5 7 7 x x

Gtr I (E A D G B E) - 'Untitled'
Gtr II (E A D G B E) - 'Dave Murray'
Gtr III (E A D G B E) - 'Janick Geers'

 Intro
  Q=72
  Em
 4/4
  Gtr I

The high string is one guitar, the low is another.
  e e  e e s s e e e   e e  e e s s e e e
|---7----------------|---7----------------|
|-----10-8-7-8-7---7-|-----10-8-7-8-7-----|
|---0------------9---|---0------------9-8-|
|------4-2-0-2-0---0-|------4-2-0-2-0-----|
|----------------3---|----------------3-2-|
|--------------------|--------------------|
  e e  e e s s e e e   E e  e e s s e e e


  e e  e e s s e e e   e e  e e s s e e e
|---7----------------|---7-----------------||
|-----10-8-7-8-7---7-|-----10-8-7-8-7------||
|---0------------9---|---0------------9-8--||
|------4-2-0-2-0---0-|------4-2-0-2-0------||
|----------------3---|----------------3-2--||
|--------------------|---------------------||
  e e  e e s s e e e   e e  e e s s e e e


   Verse 1
    Em
    E e  e e s s e e e   e e  e e s s e e e
||----7----------------|---7----------------|
||o-----10-8-7-8-7---7-|-----10-8-7-8-7-----|
||----0------------9---|---0------------9-8-|
||-------4-2-0-2-0---0-|------4-2-0-2-0-----|
||o----------------3---|----------------3-2-|
||---------------------|--------------------|
    E e  e e s s e e e   e e  e e s s e e e


  e e  e e s s e e e   e e  e e s s e e e
|---7----------------|---7------------------||
|-----10-8-7-8-7---7-|-----10-8-7-8-7------o||
|---0------------9---|---0------------9-8---||
|------4-2-0-2-0---0-|------4-2-0-2-0-------||
|----------------3---|----------------3-2--o||
|--------------------|----------------------||
  e e  e e s s e e e   e e  e e s s e e e


    C                    D
    E e  e e s s e e e   e e  e e s s e e e
||----7----------------|---7----------------|
||o-----10-8-7-8-7---7-|-----10-8-7-8-7-----|
||----0------------9---|---0------------9-8-|
||-------4-2-0-2-0---0-|------4-2-0-2-0-----|
||o----------------3---|----------------3-2-|
||---------------------|--------------------|
    E e  e e s s e e e   e e  e e s s e e e


  Em
  e e  e e s s e e e   e e  e e s s e e e
|---7----------------|---7------------------||
|-----10-8-7-8-7-----|-----10-8-7-8-7------o||
|---0------------9-8-|---0------------9-8---||
|------4-2-0-2-0-----|------4-2-0-2-0-------||
|----------------3-2-|----------------3-2--o||
|--------------------|----------------------||
  e e  e e s s e e e   e e  e e s s e e e


  Q=120
  E5                             C5
  Gtr III
  E  S    S  E S S E   S S E E   E  S    S  E S S E   S S E E
  |  |    |  | | | |   | | | |   |  |    |  | | | |   | | | |
  /  /    /  / / / /   / / / /   /  /    /  / / / /   / / / /

  Gtr II
  E  E       E E   S S E   E E   E  E       E E   S S E   E E
|------------------------------|------------------------------|
|---10b12r==10-8---7h8p7-----7-|---10b12r==10-8---7h8p7-------|
|--------------------------9---|--------------------------9-8-|
|------------------------------|------------------------------|
|------------------------------|------------------------------|
|------------------------------|------------------------------|


  D5                             E5                  G  F#E    G  F#D
  E  S    S  E S S E   S S E E    E    S S  E    E    S S  E    S S  E
  |  |    |  | | | |   | | | |    |    | |  |    |    | |  |    | |  |
  /  /    /  / / / /   / / / /    /    / /  /    /    o o  o    o o  o

  E  E       E E   S S E   E E    S S  S S  S S  S S  S S  S S  S S  S S
|------------------------------|-----------------------------------------|
|---10b12r==10-8---7h8p7-----7-|-10p8h10p8h10p8h10p8h10p8h10p8h10p8h10p8-|
|--------------------------9---|-----------------------------------------|
|------------------------------|-----------------------------------------|
|------------------------------|-----------------------------------------|
|------------------------------|-----------------------------------------|


  E5                             C5
  E  S    S  E S S E   S S E E   E  S    S  E S S E   S S E E
  |  |    |  | | | |   | | | |   |  |    |  | | | |   | | | |
  /  /    /  / / / /   / / / /   /  /    /  / / / /   / / / /

  E  E       E E   S S E   E E   E  E       E E   S S E   E E
|------------------------------|------------------------------|
|---10b12r==10-8---7h8p7-----7-|---10b12r==10-8---7h8p7-------|
|--------------------------9---|--------------------------9-8-|
|------------------------------|------------------------------|
|------------------------------|------------------------------|
|------------------------------|------------------------------|


  D5                                           E5              G  F#E G  F#D
  E  S    S E  S S  E     S  S   E     E        E S S E  E      S S E  S S E
  |  |    | |  | |  |     |  |   |     |        | | | |  |      | | |  | | |
  /  /    / /  / /  /     /  /   /     /        / / / /  /      o o o  o o o

  E  Q         E    E.       S  +S  S  E        Q.       E      Q      Q
|-------------------------------------10b12==|=10r======10b12==10r====10-----|
|---10b12r====10---10b12====10-(10)r8--------|-------------------------------|
|--------------------------------------------|-------------------------------|
|--------------------------------------------|-------------------------------|
|--------------------------------------------|-------------------------------|
|--------------------------------------------|-------------------------------|


   Riff A
    E/D                           C/E
    Gtrs II, III
    S S S S S S S S E S S S S E   +S  S S S S S S S E S S S S E  4x
||------------------------------|--------------------------------||
||o-----------------------------|-------------------------------o||
||------0---0-2-0-0-4-0---0-----|-------------0---0-4-0---0------||
||--2-4---4-------------4---4-2-|-(2)-2-4-2-4---4-------4---4-2--||
||o-----------------------------|-------------------------------o||
||------------------------------|--------------------------------||


   Verse 2
    E5         G5  C5         A5  D5         B5
    Q  Q  Q  E E   Q  Q  Q  E E   Q  Q  Q  E E
||---------------|--------------|--------------|
||o--------------|--------------|--------------|
||--9------------|-5------------|-7------------|
||--9----------5-|-5----------7-|-7----------9-|
||o-7----------5-|-3----------7-|-5----------9-|
||-------------3-|------------5-|------------7-|


  E5 B5    C5      N.C.
  E. S +E   E  +E  S S  S S S  S
|---------------------------------||
|--------------------------------o||
|-9-------------------------------||
|-9--9-(9)-10-(10)----------------||
|-7--9-(9)-10-(10)-----10p9p7----o||
|----7-(7)--8--(8)-7-8--------10--||


    E5                      C5
    E S S E S S E S S E E   E S S E S S E S S E E
||------------------------|-----------------------|
||o-----------------------|-----------------------|
||--9-9-9-9-9-9-9-9-9-9-9-|-5-5-5-5-5-5-5-5-5-5-5-|
||--9-9-9-9-9-9-9-9-9-9-9-|-5-5-5-5-5-5-5-5-5-5-5-|
||o-7-7-7-7-7-7-7-7-7-7-7-|-3-3-3-3-3-3-3-3-3-3-3-|
||------------------------|-----------------------|


  D5                      E5 B5    C5      N.C.
  E S S E S S E S S E E   E. S +E   E  +E  S S  S S S  S
|-----------------------|-----------------------------------||
|-----------------------|----------------------------------o||
|-7-7-7-7-7-7-7-7-7-7-7-|-9---------------------------------||
|-7-7-7-7-7-7-7-7-7-7-7-|-9--9-(9)-10-(10)------------------||
|-5-5-5-5-5-5-5-5-5-5-5-|-7--9-(9)-10-(10)-----10p9p7------o||
|-----------------------|----7-(7)--8--(8)-7-8--------10----||


   Riff A repeated
    E/D                           C/E
    S S S S S S S S E S S S S E   +S  S S S S S S S E S S S S E  4x
||------------------------------|--------------------------------||
||o-----------------------------|-------------------------------o||
||------0---0-2-0-0-4-0---0-----|-------------0---0-4-0---0------||
||--2-4---4-------------4---4-2-|-(2)-2-4-2-4---4-------4---4-2--||
||o-----------------------------|-------------------------------o||
||------------------------------|--------------------------------||


   Riff B
    N.C.
    Gtr II
    Q.   S  S Q.    S S   E S  S E  S S E S  S S  S E
||----------------------|-----------------------------|
||o---------------------|-----------------------------|
||----------------------|-----------------------------|
||------------9---------|--------9-------------9------|
||o-7----9-10------10-9-|-7-9-10---10-9-7-9-10---10-9-|
||----------------------|-----------------------------|
|
|   Gtr III
|   Q.   S  S Q.    S S   E S  S E  S S E S  S S  S E
||----------------------|-----------------------------|
||o---------------------|-----------------------------|
||----------------------|-----------------------------|
||------------9---------|--------9-------------9------|
||o-7----9-10------10-9-|-7-9-10---10-9-7-9-10---10-9-|
||----------------------|-----------------------------|


  Q.   S  S Q.    S S   E S  S E  S S E S  S S  S E
|---------------------|--------------------------------||
|---------------------|-------------------------------o||
|---------------------|--------------------------------||
|-----------9---------|--------9-------------9---------||
|-7----9-10------10-9-|-7-9-10---10-9-7-9-10---10-9---o||
|---------------------|--------------------------------||
|
| Q.   S  S Q.    S S   E S  S E  S S E S  S S  S E
|---------------------|--------------------------------||
|---------------------|-------------------------------o||
|---------------------|--------------------------------||
|-----------9---------|--------9-------------9---------||
|------9-10------10-9-|---9-10---10-9---9-10---10-9---o||
|-8-------------------|-8-------------8----------------||


   Riff B2
    Em
    Q.   S  S Q.    S S   E S  S E  S S E S  S S  S E
||----------------------|-----------------------------|
||o---------------------|-----------------------------|
||----------------------|-----------------------------|
||------------9---------|--------9-------------9------|
||o-7----9-10------10-9-|-7-9-10---10-9-7-9-10---10-9-|
||----------------------|-----------------------------|
|
|   Q.   S  S Q.    S S   E S  S E  S S E S  S S  S E
||----------------------|-----------------------------|
||o---------------------|-----------------------------|
||------------7---------|--------7-------------7------|
||--5----7--9-------9-7-|-5-7--9----9-7-5-7--9----9-7-|
||o---------------------|-----------------------------|
||----------------------|-----------------------------|


  C
  Q.   S  S Q.    S S   E S  S E  S S E S  S S  S E
|---------------------|--------------------------------||
|---------------------|-------------------------------o||
|---------------------|--------------------------------||
|-----------9---------|--------9-------------9---------||
|------9-10------10-9-|-7-9-10---10-9-7-9-10---10-9---o||
|-8-------------------|--------------------------------||
|
| Q.   S  S Q.    S S   E S  S E  S S E S  S S  S E
|---------------------|--------------------------------||
|---------------------|-------------------------------o||
|-----------9---------|--------7-------------7---------||
|-5----7--9-------9-7-|-5-7--9----9-7-5-7--9----9-7----||
|---------------------|-------------------------------o||
|---------------------|--------------------------------||


   Verse 3
    E5                      C5
    Gtrs II, III
    E S S E S S E S S E E   E S S E S S E S S E E
||------------------------|-----------------------|
||o-----------------------|-----------------------|
||--9-9-9-9-9-9-9-9-9-9-9-|-5-5-5-5-5-5-5-5-5-5-5-|
||--9-9-9-9-9-9-9-9-9-9-9-|-5-5-5-5-5-5-5-5-5-5-5-|
||o-7-7-7-7-7-7-7-7-7-7-7-|-3-3-3-3-3-3-3-3-3-3-3-|
||------------------------|-----------------------|


  D5                      E5          N.C.
  E S S E S S E S S E E   E S S E S S  S S E  S S  S  S  4x
|-----------------------|--------------------------------||
|-----------------------|-------------------------------o||
|-7-7-7-7-7-7-7-7-7-7-7-|-9-9-9-9-9-9--------------------||
|-7-7-7-7-7-7-7-7-7-7-7-|-9-9-9-9-9-9--------------------||
|-5-5-5-5-5-5-5-5-5-5-5-|-7-7-7-7-7-7-10-9-7-10-9-------o||
|-----------------------|-------------------------10-11--||


   Riff B repeated
    C
    Gtr II
    Q.   S  S Q.    S S   E S  S E  S S E S  S S  S E
||----------------------|-----------------------------|
||o---------------------|-----------------------------|
||----------------------|-----------------------------|
||------------9---------|--------9-------------9------|
||o-7----9-10------10-9-|-7-9-10---10-9-7-9-10---10-9-|
||----------------------|-----------------------------|
|
|   Gtr III
|   Q.   S  S Q.    S S   E S  S E  S S E S  S S  S E
||----------------------|-----------------------------|
||o---------------------|-----------------------------|
||----------------------|-----------------------------|
||------------9---------|--------9-------------9------|
||o-7----9-10------10-9-|-7-9-10---10-9-7-9-10---10-9-|
||----------------------|-----------------------------|


  C
  Q.   S  S Q.    S S   E S  S E  S S E S  S S  S E
|---------------------|--------------------------------||
|---------------------|-------------------------------o||
|---------------------|--------------------------------||
|-----------9---------|--------9-------------9---------||
|-7----9-10------10-9-|-7-9-10---10-9-7-9-10---10-9---o||
|---------------------|--------------------------------||
|
| Q.   S  S Q.    S S   E S  S E  S S E S  S S  S E
|---------------------|--------------------------------||
|---------------------|-------------------------------o||
|---------------------|--------------------------------||
|-----------9---------|--------9-------------9---------||
|------9-10------10-9-|---9-10---10-9---9-10---10-9---o||
|-8-------------------|-8-------------8----------------||


 Bridge
  N.C.
  E  E  E  E E  E  E  E    E    E  E  E E  E  E  E
|-----------------------|--------------------------|
|---12---------12-------|------12---------12-------|
|-9----11-12-9----11-12-|--9------11-12-9----11-12-|
|-----------------------|--------------------------|
|-----------------------|--------------------------|
|-----------------------|--------------------------|
|
| W                       +H..                   E
|-----------------------|--------------------------|
|-----------------------|--------------------------|
|-----------------------|--------------------------|
|-----------------------|--------------------------|
|-7---------------------|-(7)--------------------9-|
|-----------------------|--------------------------|


  E5                                                   G5
  E  E  E  E E  E  E  E    E   E  E    E   E    E    E  E
|-----------------------|---------------------------------|
|---12---------12-------|-----12---------------12---------|
|-9----11-12-9----11-12-|--9-----11---12---9--------11-12-|
|-----------------------|---------------------------------|
|-----------------------|---------------------------------|
|-----------------------|---------------------------------|
|
| W                       +Q      S S  S S S S  S S  E  E
|-----------------------|---------------------------------|
|-----------------------|---------------------------------|
|-9---------------------|-(9)-----------------------------|
|-9---------------------|-(9)-----------------------------|
|-7---------------------|-(7)---------------------------5-|
|-----------------------|---------xSxS=xSxSxSxS=xSx-----3-|


  C5                                            B5
  E  E  E  E E  E  E  E    E    E  E  E E  E  E  E
|-----------------------|--------------------------|
|---12---------12-------|------12---------12-------|
|-9----11-12-9----11-12-|--9------11-12-9----11-12-|
|-----------------------|--------------------------|
|-----------------------|--------------------------|
|-----------------------|--------------------------|
|
| W                       +H..                   E
|-----------------------|--------------------------|
|-----------------------|--------------------------|
|-----------------------|--------------------------|
|-5---------------------|-(5)----------------------|
|-3---------------------|-(3)--------------------9-|
|-----------------------|------------------------7-|


  E5
  E  E  E  E E  E  E  E    E   E  E  E E  E  E  E
|-----------------------|-------------------------|
|---12---------12-------|-----12---------12-------|
|-9----11-12-9----11-12-|--9-----11-12-9----11-12-|
|-----------------------|-------------------------|
|-----------------------|-------------------------|
|-----------------------|-------------------------|
|
| W                       +W
|-----------------------|-------------------------|
|-----------------------|-------------------------|
|-9---------------------|-(9)---------------------|
|-9---------------------|-(9)---------------------|
|-7---------------------|-(7)---------------------|
|-----------------------|-------------------------|


   Riff C
    N.C.
    Gtrs II, III
    S S  S S  S S  S S  S S E  E  E   S S  S S  S S  S S  S S E  E  E
||----------------------------------|-----------------------------------||
||o---------------------------------|----------------------------------o||
||----------------------------------|-----------------------------------||
||--------------9-------------------|-------------9---------------------||
||o-7-9-10-9-10---10-9-10-9-7-10-12-|-7-9-10-9-10---10-9-10-9-7-10-12--o||
||-----------------------------8-10-|----------------------------8-10---||


 Double time
  Q=240
  E5                       D5E5                       G F#E  C B G
  Gtr III
  Q  E E +E  E Q    E Q  E E E Q    Q  E E +E  E Q    E E Q  E E Q
  |  | |  |  | |    | |  | | | |    |  | |  |  | |    | | |  | | |
  /  x /  /  x /    x /  x / / /    /  x /  /  x /    o o o  o o o

  Gtr II
  Q  E E +E  E Q    E Q  E E E Q    Q  E E +E  E Q    E E Q  E E Q
|-----------------|---------------|-----------------|---------------|
|-----------------|---------------|-----------------|---------------|
|-9--x-9-(9)-x-9--|-x-9--x-7-9-9--|-9--x-9-(9)-x-9--|---------------|
|-9--x-9-(9)-x-9--|-x-9--x-7-9-9--|-9--x-9-(9)-x-9--|-5-4-----------|
|-7--x-7-(7)-x-7--|-x-7--x-5-7-7--|-7--x-7-(7)-x-7--|-----7--3-2----|
|-----------------|---------------|-----------------|------------3--|


  D5           D5     D5   C5D5                       G F#E  C B G
  Q  E E +E  E Q    E Q  E E E Q    Q  E E +E  E Q    E E Q  E E Q
  |  | |  |  | |    | |  | | | |    |  | |  |  | |    | | |  | | |
  /  x /  /  x /    x /  x / / /    /  x /  /  x /    o o o  o o o

  Q  E E +E  E Q    E Q  E E E Q    Q  E E +E  E Q    E E Q  E E Q
|-----------------|---------------|-----------------|---------------||
|-----------------|---------------|-----------------|---------------||
|-7--x-7-(7)-x-7--|-x-7--x-5-7-7--|-7--x-7-(7)-x-7--|---------------||
|-7--x-7-(7)-x-7--|-x-7--x-5-7-7--|-7--x-7-(7)-x-7--|-5-4-----------||
|-5--x-5-(5)-x-5--|-x-5--x-3-5-5--|-5--x-5-(5)-x-5--|-----7--3-2----||
|-----------------|---------------|-----------------|------------3--||


  E5                       D5E5                       G F#E  C B G
  Q  E E +E  E Q    E Q  E E E Q    Q  E E +E  E Q    E E Q  E E Q
  |  | |  |  | |    | |  | | | |    |  | |  |  | |    | | |  | | |
  /  x /  /  x /    x /  x / / /    /  x /  /  x /    o o o  o o o

  Q  E E +E  E Q    E Q  E E E Q    Q  E E +E  E Q    E E Q  E E Q
|-----------------|---------------|-----------------|---------------|
|-----------------|---------------|-----------------|---------------|
|-9--x-9-(9)-x-9--|-x-9--x-7-9-9--|-9--x-9-(9)-x-9--|---------------|
|-9--x-9-(9)-x-9--|-x-9--x-7-9-9--|-9--x-9-(9)-x-9--|-5-4-----------|
|-7--x-7-(7)-x-7--|-x-7--x-5-7-7--|-7--x-7-(7)-x-7--|-----7--3-2----|
|-----------------|---------------|-----------------|------------3--|


  D5           D5        D5   C5  D5
  Q  E E +E  E  Q     E  Q  E  E  E  Q
  |  | |  |  |  |     |  |  |  |  |  |
  /  x /  /  x  /     x  /  x  /  /  /

                ~~~~~~~~~~~~~~~~~~~~~~~
  Q  E E +E  E  Q    +H       +Q     Q
|------------------|--------------------|
|------------------|--------------------|
|-7--x-7-(7)-x-/7--|-(7)------(7)s==12--|
|-7--x-7-(7)-x-----|--------------------|
|-5--x-5-(5)-x-/5--|-(5)------(5)s==10--|
|------------------|--------------------|


                      G   F#E  C B G
   Q   E E +E E  Q     E  E Q  E E  Q
   |   | |  | |  |     |  | |  | |  |
   /   x /  / x  /     o  o o  o o  o

                 ~~~~~~~~~
   Q   Q    Q    Q     H.           Q
|-------------------|---------------------||
|-------------------|--------------15b17--||
|-12s=11---11s==14--|-14------------------||
|-------------------|---------------------||
|-10s==9----9s==12--|-12------------------||
|-------------------|---------------------||


 Guitar Solo I
  E5                                                   D5    E5
   Q  E E +E    E     Q          E     Q          E     E    E    Q
   |  | |  |    |     |          |     |          |     |    |    |
   /  x /  /    x     /          x     /          x     /    /    /

           |---3---|  |--3--|                |---3---|  |--3---|  |-3--|
   H       E  E    E  E  E  E    S  S  S  S  E  E    E  E  E   E  E E  E
|-----------------------------|------------------------------------------|
|-15------15p13h==15p13p12h13p|=12p10h12h13p12p10------10----------------|
|-----------------------------|---------------------12----11---9----9----|
|-----------------------------|----------------------------------12---12-|
|-----------------------------|------------------------------------------|
|-----------------------------|------------------------------------------|


                                         G     F#E   C    B G
   Q        E     E    +E    E    Q       E    E  Q    E  E  Q
   |        |     |     |    |    |       |    |  |    |  |  |
   /        x     /     /    x    /       o    o  o    o  o  o

   |--3--|              |---3---|
   E  E  E  S  S  S  S  E  E    E E  E    Q       Q   +Q     E  E
|--------------------------------------|---------------------------|
|--------------------------------------|--------------------12h13p=|
|---------------------------------9h12h|=14b16r==14--(14)----------|
|-10h12p10----10----------10---12------|---------------------------|
|----------12----12p10h12--------------|---------------------------|
|--------------------------------------|---------------------------|


  D5                        D5            D5            C5 D5
   Q        E  E +E    E     Q          E  Q       E     E  E  Q
   |        |  |  |    |     |          |  |       |     |  |  |
   /        x  /  /    x     /          x  /       x     /  /  /

   |--3--|        |---3---|  |--3--|          |---3---|
   E  E  E  E  E  E  E    E  E  E  E    E  E  E  E    E  E  E  E  E
|------------------------------------|-12h14h15p14p==12-------14h15h|
|-12h13p12----13p12h13---12----12h14-|------------------15h17-------|
|----------14---------------14-------|------------------------------|
|------------------------------------|------------------------------|
|------------------------------------|------------------------------|
|------------------------------------|------------------------------|


                               G     F#E    C  B  G
   Q     E    E    +E  E  Q      E   E   Q   E  E Q
   |     |    |     |  |  |      |   |   |   |  | |
   /     x    /     /  x  /      o   o   o   o  o o

                          ~~
         |---3---|
   E  E  E  E    E  E  E  Q     +Q       Q   E  Q    E
|-17p15p14h15p==14h15p14-----|--------------15h17---17b19===|
|------------------------17--|-(17)\---/17------------------|
|----------------------------|------------------------------|
|----------------------------|------------------------------|
|----------------------------|------------------------------|
|----------------------------|------------------------------|


  E5                                                          D5    E5
    Q      E  E +E  E        Q          E     Q          E     E    E     Q
    |      |  |  |  |        |          |     |          |     |    |     |
    /      x  /  /  x        /          x     /          x     /    /     /

                    |--3--|                         |---3---|  |---3---|
   +E    Q    E  E  S  S  S  E  E       S  S  S  S  E  E    E  E  E    E  E  E
|-(17)r-17p==15h17p15h17p15p14-14b16r|=14----14h15p14--------------------------|
|------------------------------------|----17----------17p==15h17p15p==13h15p13p|
|------------------------------------|-----------------------------------------|
|------------------------------------|-----------------------------------------|
|------------------------------------|-----------------------------------------|
|------------------------------------|-----------------------------------------|


                          G     F#   E           C     B    G
   Q     E E +E E  Q       E    E     Q           E    E     Q
   |     | |  | |  |       |    |     |           |    |     |
   /     x /  / x  /       o    o     o           o    o     o

                           |---3---|  |--3--|     |---3---|  |---3----|
   E  E  Q    Q    E  E    E  E    E  E  E  E     E  E    E  E  E     E
|-----------------12h14h|=15p14p==12h14h15-------12-12-------------------|
|-12h17p12h==17---------|------------------15b17---------15-12-------12--|
|-----------------------|--------------------------------------14b16-----|
|-----------------------|------------------------------------------------|
|-----------------------|------------------------------------------------|
|-----------------------|------------------------------------------------|


  D5                             D5            D5             C5    D5
   Q        E    E    +E    E     Q       E     Q        E     E    E     Q
   |        |    |     |    |     |       |     |        |     |    |     |
   /        x    /     /    x     /       x     /        x     /    /     /

   |--3--|  |---3---|  |---3---|                                          |--3--|
   E  E  E  E  E    E  E  E    E  E  E    S  S  S  S  E  S  S  S  S S  S  E  E  E
|--------------------------------------|------------------------------------------|
|-15p12-12-12h15p==12----12---12----12-|------------------------------------------|
|---------------------14---------15----|-14p12h14p12----14p12h14p12p9----------12-|
|--------------------------------------|-------------14---------------12-12h14----|
|--------------------------------------|------------------------------------------|
|--------------------------------------|------------------------------------------|


                                G        F#E  C    B G
   Q        E  E +E  E     Q      E      E Q    E  E   Q
   |        |  |  |  |     |      |      | |    |  |   |
   /        x  /  /  x     /      o      o o    o  o   o

   |--3--|
   E  E  E  E  E  E  Q.          +H            +Q     +Q
|----------------12-----------|-----------------------------||
|-------------12----15pb17r===|=(15)b17=======(15)---(15)r--||
|-------12h14-----------------|-----------------------------||
|-12h14-----------------------|-----------------------------||
|-----------------------------|-----------------------------||
|-----------------------------|-----------------------------||


 Guitar Solo 2
  E5                            D5     E5
  Gtr II
  Q   E     E +E E Q     E Q  E  E     E  Q
  |   |     |  | | |     | |  |  |     |  |
  /   x     /  / x /     x /  x  /     /  /

  Gtr III
  Q   H.                 H       Q        Q
|---------------------|-----------------------|
|----15b17============|=15r=====15b17====15r--|
|---------------------|-----------------------|
|---------------------|-----------------------|
|---------------------|-----------------------|
|---------------------|-----------------------|


                                          G     F#   E   C  B  G
   Q      E      E  +E    E     Q          E    E     Q   E  E Q
   |      |      |   |    |     |          |    |     |   |  | |
   /      x      /   /    x     /          o    o     o   o  o o

                     |---3---|  |--3--|    |---3---|
   Q      E     +E   E  E    E  E  E  E    E  E    E  Q   E  Q    E
|---------------------------------------|----------------------------|
|-15b17--15b17r(15)-15-12------15p12----|-12------12-12--12-15---12--|
|---------------------------15-------15-|----15----------------------|
|---------------------------------------|----------------------------|
|---------------------------------------|----------------------------|
|---------------------------------------|----------------------------|


  D5                             D5            D5     C5   D5
   Q        E    E    +E    E     Q          E  Q   E   E  E  Q
   |        |    |     |    |     |          |  |   |   |  |  |
   /        x    /     /    x     /          x  /   x   /  /  /

   |--3--|  |---3---|  |---3---|  |--3--|
   E  E  E  E  E    E  E  E    E  E  E  E    E  Q.     +Q     E  E
|-----------------------------------------|------------------------|
|-15---------------------12---------------|------------------12h15-|
|----12-12h15p12---12h15------15p14p12----|-12h14-----(14)---------|
|--------------------------------------14-|------------------------|
|-----------------------------------------|------------------------|
|-----------------------------------------|------------------------|


                                       G  F#E    C      B G
   Q        E  E +E    E     Q          E E  Q    E     E   Q
   |        |  |  |    |     |          | |  |    |     |   |
   /        x  /  /    x     /          o o  o    o     o   o

   |--3--|        |---3---|  |--3--|
   E  E  E  E  E  E  E    E  E  E  E    E E  E E  Q        +E   +E
|------------------------------------|--------------------------------|
|------------------------------------|--------------------------------|
|-15p14p12h14----10h12h==14----11h12-|----9----9-12b14====(12)r(12)---|
|-------------14------------14-------|-12---12------------------------|
|------------------------------------|--------------------------------|
|------------------------------------|--------------------------------|


  E5                                           D5  E5
   Q      E E +E   E    Q          E Q     E   E   E   Q
   |      | |  |   |    |          | |     |   |   |   |
   /      x /  /   x    /          x /     x   /   /   /

               |--3---|                |--3--| |--3--|
   S  E S E E  E E    E S S  S S   E E E E   E E E   E E S S
|--------------------------------|---------------------------|
|--------------------------------|---------------------------|
|-12p11p9p8h9p=8h9h==11p8h9h11p9p|=7s5---4---5p4-----4-------|
|--------------------------------|-----6---------7-----7p5p4s|
|--------------------------------|---------------------------|
|--------------------------------|---------------------------|


                               G   F#E   C B G
  Q     E   E   +E   E   Q     E   E Q   E E Q
  |     |   |    |   |   |     |   | |   | | |
  /     x   /    /   x   /     o   o o   o o o

  |-3-| |--3--|  |--3--|
  E E E E E   E  E E   E E E   Q     H.
|----------------------------|------------------|
|----------------------------|------------------|
|----------------------------|------------------|
|-2s0---0h2---2p=0h3---3p2p0-|------------------|
|-----2----------------------|------------------|
|----------------------------|-4b6r==4----------|


  D5                           D5            D5              C5    D5
   Q      E    E    +E    E     Q       E    Q          E     E    E     Q
   |      |    |     |    |     |       |    |          |     |    |     |
   /      x    /     /    x     /       x    /          x     /    /     /

          |---3---|  |---3---|          |---3---|  |---3---|  |---3---|  |--3--|
   Q      E  E    E  E  E    E  E  E    E  E    E  E  E    E  E  E    E  E  E  E
|-15b17--15p12------12---------------|-------------------------------------------|
|----------------15----15p==12-12----|-------------------------------------------|
|---------------------------------12h|=15h16p==15p12------------12---12----------|
|------------------------------------|---------------14p==12h14---------14p12h14p|
|------------------------------------|-------------------------------------------|
|------------------------------------|-------------------------------------------|


                                   G  F#    E        C B G
   Q        E    E    +E  E Q       E  E     Q       E E  Q
   |        |    |     |  | |       |  |     |       | |  |
   /        x    /     /  x /       o  o     o       o o  o

   |--3--|  |---3---|
   E  E  E  E  E    E  Q.      E    E  S  S  S  S  E Q    Q
|-----------------------------17-|-17-17p15p14p12\-----------------|
|--------------------------------|---------------------------------|
|--------------------------------|-----------------------14b16=====|
|-10h12p10-----------------------|---------------------------------|
|----------12p10h==12-12---------|---------------------------------|
|--------------------------------|---------------------------------|


  E5
  Gtr III
                           ~~~~
   H       Q        Q     +W
|----------------------|-----------------|
|----------------------|-----------------|
|-14r=====14b16====14--|-(14)------------|
|----------------------|-----------------|
|----------------------|-----------------|
|----------------------|-----------------|
|
| Gtr II
|  Q  E E +E     E  Q      E  Q  E Q  Q
|----------------------|-----------------|
|----------------------|-----------------|
|--9--x-9-(9)----x--9--|---x--9--x-9--9--|
|--9--x-9-(9)----x--9--|---x--9--x-9--9--|
|--7--x-7-(7)----x--7--|---x--7--x-7--7--|
|----------------------|-----------------|


                                                     N.C.
   +E    Q       E  E   E  Q         H         Q   E E
|---------------12-----12---------|--------------------|
|------------------12-----15b17===|=15r\---------------|
|-(14)r-14b15---------------------|--------------------|
|---------------------------------|------------------5-|
|---------------------------------|--------------------|
|---------------------------------|--------------------|
|
|   Q         E  E +E   E  Q         Q    E E +Q   E E
|---------------------------------|--------------------|
|---------------------------------|--------------------|
|---9---------x--9-(9)--x--9------|--9----x-9-(9)--x---|
|---9---------x--9-(9)--x--9------|--9----x-9-(9)--x-5-|
|---7---------x--7-(7)--x--7------|--7----x-7-(7)--x---|
|---------------------------------|--------------------|


                                      E5
  +Q   E E +Q   E E   +Q   E E +Q   E E   +Q   E E +Q   E E   E Q  E Q  E E
|-------------------|-------------------|-------------------|---------------|
|-------------------|-------------------|-------------------|---------------|
|-------------------|-----------------9-|-(9)--x-9-(9)--x-9-|-x-9--x-9--9-9-|
|-(5)-------------5-|-(5)-------------9-|-(9)--x-9-(9)--x-9-|-x-9--x-9--9-9-|
|------7-5-(5)--7---|------7-5-(5)--7-7-|-(7)--x-7-(7)--x-7-|-x-7--x-7--7-7-|
|-------------------|-------------------|-------------------|---------------|
|
| +Q   E E +Q   E E   +Q   E E +Q   E E   +Q   E E +Q   E E   E Q  E Q  E E
|-------------------|-------------------|-------------------|---------------|
|-------------------|-------------------|-------------------|---------------|
|-------------------|-----------------9-|-(9)--x-9-(9)--x-9-|-x-9--x-9--9-9-|
|-(5)-------------5-|-(5)-------------9-|-(9)--x-9-(9)--x-9-|-x-9--x-9--9-9-|
|------7-5-(5)--7---|------7-5-(5)--7-7-|-(7)--x-7-(7)--x-7-|-x-7--x-7--7-7-|
|-------------------|-------------------|-------------------|---------------|


                                  N.C.
  +Q   E E +Q   E E   E Q  E Q  E E
|-------------------|---------------|
|-------------------|---------------|
|-(9)--x-9-(9)--x-9-|-x-9--x-9--x---|
|-(9)--x-9-(9)--x-9-|-x-9--x-9--x-9-|
|-(7)--x-7-(7)--x-7-|-x-7--x-7--x---|
|-------------------|---------------|
|
| +Q   E E +Q   E E   E Q  E Q  E E
|-------------------|---------------|
|-------------------|---------------|
|-(9)--x-9-(9)--x-9-|-x-9--x-9--x---|
|-(9)--x-9-(9)--x-9-|-x-9--x-9--x-5-|
|-(7)--x-7-(7)--x-7-|-x-7--x-7--x---|
|-------------------|---------------|


                                          E5
  +Q    E E +Q    E E   +Q    E E +Q    E E
|---------------------|---------------------|
|---------------------|---------------------|
|---------------------|-------------------9-|
|-(9)---------------9-|-(9)---------------9-|
|------10-9-(9)--10---|------10-9-(9)--10-7-|
|---------------------|---------------------|
|
| +Q    E E +Q    E E   +Q    E E +Q    E E
|---------------------|---------------------|
|---------------------|---------------------|
|---------------------|-------------------9-|
|-(5)---------------5-|-(5)---------------9-|
|-------7-5-(5)---7---|-------7-5-(5)---7-7-|
|---------------------|---------------------|


                                                                      N.C.
  +Q   E E +Q   E E   E Q  E Q  E E   +Q   E E +Q   E E   E Q  E Q  E E
|-------------------|---------------|-------------------|---------------|
|-------------------|---------------|-------------------|-------------8-|
|-(9)--x-9-(9)--x-9-|-x-9--x-9--9-9-|-(9)--x-9-(9)--x-9-|-x-9--x-9--x---|
|-(9)--x-9-(9)--x-9-|-x-9--x-9--9-9-|-(9)--x-9-(9)--x-9-|-x-9--x-9--x---|
|-(7)--x-7-(7)--x-7-|-x-7--x-7--7-7-|-(7)--x-7-(7)--x-7-|-x-7--x-7--x---|
|-------------------|---------------|-------------------|---------------|
|
| +Q   E E +Q   E E   E Q  E Q  E E   +Q   E E +Q   E E   E Q  E Q  E E
|-------------------|---------------|-------------------|---------------|
|-------------------|---------------|-------------------|---------------|
|-(9)--x-9-(9)--x-9-|-x-9--x-9--9-9-|-(9)--x-9-(9)--x-9-|-x-9--x-9--x---|
|-(9)--x-9-(9)--x-9-|-x-9--x-9--9-9-|-(9)--x-9-(9)--x-9-|-x-9--x-9--x-5-|
|-(7)--x-7-(7)--x-7-|-x-7--x-7--7-7-|-(7)--x-7-(7)--x-7-|-x-7--x-7--x---|
|-------------------|---------------|-------------------|---------------|


                                      E5
  +Q   E E +Q   E E   +Q   E E +Q   E E   +Q   E E +Q   E E   E Q  E Q  E E
|-------------------|-------------------|-------------------|---------------|
|-(8)-------------8-|-(8)---------------|-------------------|---------------|
|------9-7-(7)--9---|------9-7-(7)--9-9-|-(9)--x-9-(9)--x-9-|-x-9--x-9--9-9-|
|-------------------|-----------------9-|-(9)--x-9-(9)--x-9-|-x-9--x-9--9-9-|
|-------------------|-----------------7-|-(7)--x-7-(7)--x-7-|-x-7--x-7--7-7-|
|-------------------|-------------------|-------------------|---------------|
|
| +Q   E E +Q   E E   +Q   E E +Q   E E   +Q   E E +Q   E E   E Q  E Q  E E
|-------------------|-------------------|-------------------|---------------|
|-------------------|-------------------|-------------------|---------------|
|-------------------|-----------------9-|-(9)--x-9-(9)--x-9-|-x-9--x-9--9-9-|
|-(5)-------------5-|-(5)-------------9-|-(9)--x-9-(9)--x-9-|-x-9--x-9--9-9-|
|------7-5-(5)--7---|------7-5-(5)--7-7-|-(7)--x-7-(7)--x-7-|-x-7--x-7--7-7-|
|-------------------|-------------------|-------------------|---------------|


                                       Riff A variation
                                        E/D
  +Q   E E +Q   E E   E Q  E Q   Q      E E E E E E E E   Q  E E E E Q
|-------------------|---------------||------------------|---------------|
|-------------------|---------------||o-----------------|---------------|
|-(9)--x-9-(9)--x-9-|-x-9--x-9---9--||------0---0-2-0-0-|-4--0---0------|
|-(9)--x-9-(9)--x-9-|-x-9--x-9---9--||--2-4---4---------|------4---4-2--|
|-(7)--x-7-(7)--x-7-|-x-7--x-7---7--||o-----------------|---------------|
|-------------------|---------------||------------------|---------------|
|
| +Q   E E +Q   E E   E Q  E Q   Q      E E E E E E E E   Q  E E E E Q
|-------------------|---------------||------------------|---------------|
|-------------------|---------------||o-----0---0-1-0-0-|-3--0---0------|
|-(9)--x-9-(9)--x-9-|-x-9--x-9------||--0-2---2---------|------2---2-0--|
|-(9)--x-9-(9)--x-9-|-x-9--x-9------||------------------|---------------|
|-(7)--x-7-(7)--x-7-|-x-7--x-7--10--||o-----------------|---------------|
|-------------------|---------------||------------------|---------------|


                                           Riff A variation II
  C/E                                       Em
  +E  E E E E E E E   Q  E E E E Q   4x     E E E E E E E E   Q  E E E E Q
|-------------------|----------------||-||------------------|---------------|
|-------------------|---------------o||-||o-----------------|---------------|
|-------------0---0-|-4--0---0-------||-||------0---0-2-0-0-|-4--0---0------|
|-(2)-2-4-2-4---4---|------4---4-2---||-||--2-4---4---------|------4---4-2--|
|-------------------|---------------o||-||o-----------------|---------------|
|-------------------|----------------||-||------------------|---------------|
|
| +E  E E E E E E E   Q  E E E E Q   4x     E E E E E E E E   Q  E E E E Q
|-------------------|----------------||-||------------------|---------------|
|-------------0---0-|-3--0---0------o||-||o-----0---0-1-0-0-|-3--0---0------|
|-(0)-0-2-0-2---2---|------2---2-0---||-||--0-2---2---------|------2---2-0--|
|-------------------|----------------||-||------------------|---------------|
|-------------------|---------------o||-||o-----------------|---------------|
|-------------------|----------------||-||------------------|---------------|


  C                                   C
  +E  E E E E E E E   Q  E E E E Q    E E E E E E E E   Q  E E E E Q
|-------------------|---------------|-----------------|---------------|
|-------------------|---------------|-----------------|---------------|
|-------------0---0-|-4--0---0------|-----0---0-2-0-0-|-4--0---0------|
|-(2)-2-4-2-4---4---|------4---4-2--|-2-4---4---------|------4---4-2--|
|-------------------|---------------|-----------------|---------------|
|-------------------|---------------|-----------------|---------------|
|
| +E  E E E E E E E   Q  E E E E Q    E E E E E E E E   Q  E E E E Q
|-------------------|---------------|-----------------|---------------|
|-------------0---0-|-3--0---0------|-----0---0-1-0-0-|-3--0---0------|
|-(0)-0-2-0-2---2---|------2---2-0--|-0-2---2---------|------2---2-0--|
|-------------------|---------------|-----------------|---------------|
|-------------------|---------------|-----------------|---------------|
|-------------------|---------------|-----------------|---------------|


                                         Chorus
  E5   B5     C5         N.C.             E5
  Q.   E +Q    Q     +E  E Q   E E Q      Q  E E +E  E Q    +E  E E E H
|-----------------|--------------------||-----------------|----------------|
|-----------------|-------------------o||-----------------|----------------|
|-9---------------|--------------------||-9--x-9-(9)-x-9--|-(9)-9-9-9-9----|
|-9----9-(9)--10--|-(10)---------------||-9--x-9-(9)-x-9--|-(9)-9-9-9-9----|
|-7----9-(9)--10--|-(10)------10-9-7--o||-7--x-7-(7)-x-7--|-(7)-7-7-7-7----|
|------7-(7)---8--|--(8)-7-8-----------||-----------------|----------------|
|
| Q.   E +Q    Q     +E  E Q   E E Q      Q  E E +E  E Q    +E  E E E H
|-----------------|--------------------||-----------------|----------------|
|-----------------|-------------------o||-----------------|----------------|
|-9---------------|--------------------||-9--x-9-(9)-x-9--|-(9)-9-9-9-9----|
|-9----9-(9)--10--|-(10)---------------||-9--x-9-(9)-x-9--|-(9)-9-9-9-9----|
|-7----9-(9)--10--|-(10)------10-9-7--o||-7--x-7-(7)-x-7--|-(7)-7-7-7-7----|
|------7-(7)---8--|--(8)-7-8-----------||-----------------|----------------|


  C5                                 D5
  Gtrs II, III
  Q  E E +E  E Q    +E  E E E H      Q  E E +E  E Q    +E  E E E H
|-----------------|----------------|-----------------|----------------|
|-----------------|----------------|-----------------|----------------|
|-5--x-5-(5)-x-5--|-(5)-5-5-5-5----|-7--x-7-(7)-x-7--|-(7)-7-7-7-7----|
|-5--x-5-(5)-x-5--|-(5)-5-5-5-5----|-7--x-7-(7)-x-7--|-(7)-7-7-7-7----|
|-3--x-3-(3)-x-3--|-(3)-3-3-3-3----|-5--x-5-(5)-x-5--|-(5)-5-5-5-5----|
|-----------------|----------------|-----------------|----------------|


  E5                N.C.
  Q  E E +E  E Q     E E Q   E E  Q    Q  E E +E  E Q    +E  E E E H
|-----------------|------------------|-----------------|----------------|
|-----------------|------------------|-----------------|----------------|
|-9--x-9-(9)-x-9--|------------------|-9--x-9-(9)-x-9--|-(9)-9-9-9-9----|
|-9--x-9-(9)-x-9--|------------------|-9--x-9-(9)-x-9--|-(9)-9-9-9-9----|
|-7--x-7-(7)-x-7--|-10-9-7--10-9-10--|-7--x-7-(7)-x-7--|-(7)-7-7-7-7----|
|-----------------|------------------|-----------------|----------------|


  C5                                 D                   B5
                                     ~~~~~~~~~~~~~~~
  Q  E E +E  E Q    +E  E E E H      W          +H.      Q
|-----------------|----------------|----------|-------------|
|-----------------|----------------|----------|-------------|
|-5--x-5-(5)-x-5--|-(5)-5-5-5-5----|-7--------|-(7)---------|
|-5--x-5-(5)-x-5--|-(5)-5-5-5-5----|----------|----------9--|
|-3--x-3-(3)-x-3--|-(3)-3-3-3-3----|-5--------|-(5)------9--|
|-----------------|----------------|----------|----------7--|


 Out-Chorus
  Half Time Q=120
  E5                                                     A5
  Gtr II
  E  E  E  E E  E  E  E    E   E  E    E   E    E    E    E
|-----------------------|-----------------------------------|
|---12---------12-------|-----12---------------12-----------|
|-9----11-12-9----11-12-|--9-----11---12---9--------11---12-|
|-----------------------|-----------------------------------|
|-----------------------|-----------------------------------|
|-----------------------|-----------------------------------|
|
| Gtr III
| W                       +Q      S S  S S S S  S S  S S  E
|-----------------------|-----------------------------------|
|-----------------------|-----------------------------------|
|-9---------------------|-(9)-------------------------------|
|-9---------------------|-(9)-----xsxs=xsxsxsxs=xsxs=xsx--7-|
|-7---------------------|-(7)-----xsxs=xsxsxsxs=xsxs=xsx--7-|
|-----------------------|---------------------------------5-|


  D5                                                       G5
  E  E  E  E E  E  E  E   E    E    E    E   E    E    E    E
|-----------------------|-------------------------------------|
|---12---------12-------|-----12-----------------12-----------|
|-9----11-12-9----11-12-|-9--------11---12---9--------11---12-|
|-----------------------|-------------------------------------|
|-----------------------|-------------------------------------|
|-----------------------|-------------------------------------|
|
| W                       S S  S S  S S  S S S S  S S  S S  E
|-----------------------|-------------------------------------|
|-----------------------|-------------------------------------|
|-7---------------------|-------------------------------------|
|-7---------------------|-xsxs=xsxs=xsxs=xsxsxsxs=xsxs=x-x--5-|
|-5---------------------|-xsxs=xsxs=xsxs=xsxsxsxs=xsxs=x-x--5-|
|-----------------------|-----------------------------------3-|


  C5                                            A5
  E  E  E  E E  E  E  E    E    E  E  E E  E  E  E
|-----------------------|--------------------------|
|---12---------12-------|------12---------12-------|
|-9----11-12-9----11-12-|--9------11-12-9----11-12-|
|-----------------------|--------------------------|
|-----------------------|--------------------------|
|-----------------------|--------------------------|
|
| W                       +H..                   E
|-----------------------|--------------------------|
|-----------------------|--------------------------|
|-5---------------------|-(5)----------------------|
|-5---------------------|-(5)--------------------7-|
|-3---------------------|-(3)--------------------7-|
|-----------------------|------------------------5-|


  D5                                                       B5
  E  E  E  E E  E  E  E   E    E    E    E   E    E    E    E
|-----------------------|---------------------------------------|
|---12---------12-------|-----12-----------------12-------------|
|-9----11-12-9----11-12-|-9--------11---12---9--------11---12---|
|-----------------------|---------------------------------------|
|-----------------------|---------------------------------------|
|-----------------------|---------------------------------------|
|
| W                       S S  S S  S S  S S S S  S S  S S  E
|-----------------------|---------------------------------------|
|-----------------------|---------------------------------------|
|-7---------------------|---------------------------------------|
|-7---------------------|-xsxs=xsxs=xsxs=xsxsxsxs=xsxs=x-x--9---|
|-5---------------------|-xsxs=xsxs=xsxs=xsxsxsxs=xsxs=x-x--9---|
|-----------------------|-----------------------------------7---|


 Outro
  Crash ending H=Heely) Q=80
  E5
                         /0.5\
  ~~~~~~~~~~~~~~~~~
  H     H       H.       Q
|------------|------------------|
|------12----|------------------|
|-9----11----|-11-------11------|
|------------|------------------|
|------------|------------------|
|------------|------------------|
|
| W            +W
|------------|------------------|
|------------|------------------|
|-9----------|-(9)--------------|
|-9----------|-(9)--------------|
|-7----------|-(7)--------------|
|-0----------|-(0)--------------|


                                TP    TP  TP  TP
    E    E  E  E E  E  E  E     Q     Q   Q   Q
|---------------------------|--------------------|
|-------12---------12-------|--------12----------|
|----------11-12------11-12-|------------11--12--|
|---9------------9----------|---9----------------|
|---------------------------|--------------------|
|---------------------------|--------------------|
|
|  +W                          +W
|---------------------------|--------------------|
|---------------------------|--------------------|
|-([9])---------------------|--------------------|
|--(9)----------------------|--------------------|
|--(7)----------------------|--------------------|
|--(0)----------------------|-([0])--------------|


                                                     Q=170
                          N.C.
    TP   TPTP TP  TP      TP   TP  TP   TP   TP
    E    E E  E  +H       E    E   E    E    Q        Q
|-----------------------|-----------------------------------------|
|-----------------------|-----------------------------------------|
|----------9-10-(10)----|-9--------9---11---12-------11tr12-------|
|---9---10--------------|-----12----------------------------------|
|-----------------------|-----------------------------------------|
|-----------------------|-----------------------------------------|
|
|   W                     S S  S S S S  S S  S S S S  S     S S S
|-----------------------|-----------------------------------------|
|-----------------------|-----------------------------------------|
|-----------------------|-----------------------------------------|
|-----------------------|-xsxs=xsxsxsxs=xsxs=xsxsxsxs=xs====xsxsx-|
|-----------------------|-xsxs=xsxsxsxs=xsxs=xsxsxsxs=xs====xsxsx-|
|-([0])-----------------|-----------------------------------------|


  H.=H
  E
   Q      Q      Q     Q        Q     Q     Q     Q
|----------------------------|---------------------------|
|----------------------------|---------------------------|
|--9tr11--7tr9---5tr7--7tr9--|---------------------------|
|----------------------------|--7tr9--5tr7--4tr5---------|
|----------------------------|--------------------5tr7---|
|----------------------------|---------------------------|
|
|  H             H              H           H
|----------------------------|---------------------------|
|----------------------------|---------------------------|
|----------------------------|---------------------------|
|----------------------------|---------------------------|
|-[7]-----------[7]----------|-[7]-----------------------|
|----------------------------|---------------------------|


                                Q=60
  N.C.
                                  \3____/1.75____\5____/
  Q     H.          W             Q    +Q       +Q    +Q
|-----------------|-------------|--------------------------|
|-----------------|-------------|--------------------------|
|-----------------|-------------|--------------------------|
|-----------------|-0tr2--------|--------------------------|
|-3tr5--2tr3------|-------------|--------------------------|
|-----------------|-------------|-0----(0)------(0)---(0)--|
|
| W                 W             W
|-----------------|-------------|--------------------------|
|-----------------|-------------|--------------------------|
|-----------------|-------------|--------------------------|
|-----------------|-------------|--------------------------|
|-----------------|-------------|--------------------------|
|-----------------|-------------|--------------------------|


                   Q=165
           G5/E         E5
    \5________/
    ~~~~~
                         |--3--|      |--3--|
    H         Q    Q     E  E  E  Q   E  E  E  Q
|---------------------|-----------------------------*|
|---------------------|-----------------------------*|
|-<12>-----(<12>)-----|-12-12-12-12--12-12-12-12\---*|
|-<12>-----(<12>)-----|-----------------------------*|
|---------------------|-10-10-10-10--10-10-10-10\---*|
|-------------0----0--|-----------------------------*|
|
|                        |--3--|      |--3--|
|   W                    E  E  E  Q   E  E  E  Q
|---------------------|-----------------------------*|
|---------------------|-----------------------------*|
|---------------------|--9--9--9--9---9--9--9--9\---*|
|---------------------|--9--9--9--9---9--9--9--9\---*|
|---------------------|--7--7--7--7---7--7--7--7\---*|
|---------------------|-----------------------------*|



Duration Legend
---------------
W - whole; H - half; Q - quarter; E - 8th; S - 16th; T - 32nd; X - 64th; a - acciaccatura
+ - note tied to previous; . - note dotted; .. - note double dotted
Uncapitalized letters represent notes that are staccato (1/2 duration)
Irregular groupings are notated above the duration line
Duration letters will always appear directly above the note/fret number it represents the
duration for.  Duration letters with no fret number below them represent rests.  Multi-
bar rests are notated in the form Wxn, where n is the number of bars to rest for.  Low
melody durations appear below the staff

Tablature Legend
----------------
 h   - hammer-on
 p   - pull-off
 b   - bend
 pb  - pre-bend
 r   - bend release (if no number after the r, then release immediately)
 /\  - slide into or out of (from/to "nowhere")
 s   - legato slide
 S   - shift slide
 - natural harmonic
[n]  - artificial harmonic
n(n) - tapped harmonic
 ~   - vibrato
 tr  - trill
 T   - tap
 TP  - trem. picking
 PM  - palm muting
\n/  - tremolo bar dip; n = amount to dip
 \n  - tremolo bar down
 n/  - tremolo bar up
/n\  - tremolo bar inverted dip
 =   - hold bend; also acts as connecting device for hammers/pulls
 <> - volume swell (louder/softer)
 x   - on rhythm slash represents muted slash
 o   - on rhythm slash represents single note slash

Misc Legend
-----------
 |  - bar
||  - double bar
||o - repeat start
o|| - repeat end
*|  - double bar (ending)
 :  - bar (freetime)
 $  - Segno
 &  - Coda
Tempo markers -  = BPM(8/16=s8/s16), where s8 = swing 8ths, s16 = swing 16ths

comments
We did not receive enough feedback on this tab! Please rate:
print report bad tab
1 2 3 4 5
4 comments total. Showing first comments.
0 reply
Mathamology wrote on July 30 2008, 01:20 pm

Someone's fingers are freakishly long...

0 reply
Alucard_Nos4atu wrote on July 30 2008, 04:18 pm

all he does it take tabs from other sites and post it on ug.

0 reply
shenanigan wrote on August 6 2008, 03:25 pm

not from other sides...

from other people's powertabs or guitar pro tabs.

I want to post or [tab]
guest
You may want to rate the tab now too:
select rating
Please do not post tabs as comments. Select "correction" instead!