Oops, an error
Loading. Please wait.

Heaven Can Wait Tab

ver2
ver2

Whole song

Interactive

More versions @911Tabs.com
2,456 views 6 this week
1 commentread comment
1 2 3 4 5
excellent!
x 6
Autoscroll
+/-
esc
set tempo
stop
Contributor
Hey! There's an official Ultimate Guitar app which is ideal
for learning songs when you're away from computer. Get the app
WARNING: You are trying to view
                                    content from Ultimate-Guitar.com
                                    in an unauthorized application,
                                    which is prohibited.

                                    Please use an official Ultimate
                                    Guitar Tabs application for iPhone,
                                    iPad or Android to access legitimate
                                    chords, guitar, bass, and drum tabs
                                    from Ultimate-Guitar.com database.

                                    Type "ultimate guitar tabs" in Apple
                                    App Store's or Android Market's
                                    search to find the application.
Iron Maiden
Heaven Can Wait
Somewhere In Time

Awesome song by an awesome band.I found this song on metaltabs.com so im not taking credit for this tab.

Tunning E A D G B E

|-------------------------------------------------------------------|
|-------------------------------------------------------------------|
|-------------------------------------------------------------------|
|-------------------------------------------------------------------|
|-\0/swellvolume----------------------------------------------------|
|-------------------------------------------------------------------|

dave murray
|-------------------------------------------------------------------|
|-------------------------------------------------------------------|
|-7-9-7-9-7-9-7-7-7-9-7----5-7-5-7-5-7-5-5-5-7-5--------------------|
|-7-7-7-7-7-7-7-7-7-7-7----5-5-5-5-5-5-5-5-5-5-5--------------------|
|-------------------------------------------------------------------|
|-------------------------------------------------------------------|

adrian smith
|----------------------------------------17------17--20br20~~~~~----|
|-8p5-----------5----------------------------17---------------------|
|------7~~~~-------5------------------------------------------------|
|----------------------7-5-7-5~~~-----------------------------------|
|-------------------------------------------------------------------|
|-------------------------------------------------------------------|
digital delay...

|-20p17------17--------17-------------------------------------------|
|--------17------20b-------20p17-----------------20-----------------|
|----------------------------------19br19-17~~~~~19b--17------------|
|----------------------------------------------------------19-19~~~~|
|-------------------------------------------------------------------|
|-------------------------------------------------------------------|

dave murray
|-------------------------------------------------------------------|
|-------------------------------------------------------------------|
|-10-12-10-12-10---12-14-12-14-12-----------------------------------|
|-10-10-10-10-10---12-12-12-12-12-----------------------------------|
|-------------------------------------------------------------------|
|-------------------------------------------------------------------|

adrian smith
|-12-12-12-12---12---12-12------------------------------------------|
|-10-10-10-10---10---10-10------------------------------------------|
|-------------------------------------------------------------------|
|-------------------------------------------------------------------|
|-------------------------------------------------------------------|
|-------------------------------------------------------------------|

both guitar
|-------------------------------------------------------------------|
|-------------------------------------------------------------------|
|-------------------------------------------------------------------|
|-7-9-7-9-7-9-7-7-7-9-7----5-7-5-7-5-7-5-5-5-7-5--------------------|
|-7-7-7-7-7-7-7-7-7-7-7----5-5-5-5-5-5-5-5-5-5-5--------------------|
|-------------------------------------------------------------------|

|-------------------------------------------------------------------|
|-------------------------------------------------------------------|
|-------------------------------------------------------------------|
|-7-9-7-9-7-9-7-7-7-9-7----10-12-10-12-10---12-14-12-14-12----------|
|-7-7-7-7-7-7-7-7-7-7-7----10-10-10-10-10---12-12-12-12-12----------|
|-------------------------------------------------------------------|

verse
|-------------------------------------------------------------------|
|---------------------7-8-7-----------------------------------------|
|---------------------7-7-7-----------------------------------------|
|-------7-----------------------7---------------5-4--------5-4------|
|-5-5-5-5-5-5-5-5-5-------------5-5-5-5-5-5----------7-5-7----------|
|-------------------------------------------------------------------|

|-------------------------------------------------------------------|
|-------------------------------------------------------------------|
|-------------------------------------------------------------------|
|---------5-4-------------------------------------------------------|
|--7-5-7------5~~~--------------------------------------------------|
|-------------------------------------------------------------------|

interlude1
|-------------------------------------------------------------------|
|-------------------------------------------------------------------|
|-------------------------------------------------------------------|
|-3---------3-----------5---------------3-2-------------------------|
|-1-1-1-1-1-1-1-1-1-1---3-3-3-3-3-3-3-------5-3-5-3~~~--------------|
|-------------------------------------------------------------------|

dave murray chorus
|-------------------------------------------------------------------|
|-------------------------------------------------------------------|
|-------------------------------------------------------------------|
|-7----5------------------------------------------------------------|
|-5----3----3--5----------------------------------------------------|
|-----------1--3----------------------------------------------------|

adrian smith chorus
|-------------------------------------------------------------------|
|--7-7-7h8p7-------8/10--10-10--8\7---------10-10-10-10h11p10-------|
|--7----------7----------------------10~~~--------------------------|
|--7----------------------------------------------------------------|
|-------------------------------------------------------------------|
|-------------------------------------------------------------------|

|-------------------------------------------------------------------|
|-(12)--------------------------------------------------------------|
|-----(12)----------------------------------------------------------|
|----------(12)-----------------------------------------------------|
|-------------------------------------------------------------------|
|-------------------------------------------------------------------|

adrian smith solo rythm
|-------------------------------------------------------------------|
|-------------------------------------------------------------------|
|-------------------------------------------------------------------|
|------9-----7-------5------7------9----7-5-------------------------|x4
|-7-7-----7------7-------7------7-----7-----------------------------|
|-------------------------------------------------------------------|

|-------------------------------------------------------------------|
|-------------------------------------------------------------------|
|-------------------------------------------------------------------|
|------5-----4----5----4-----5-4-2----------------------------------|x2
|-3-3-----3-----3----3----3-----------------------------------------|
|-------------------------------------------------------------------|

|-------------------------------------------------------------------|
|-------------------------------------------------------------------|
|-------------------------------------------------------------------|
|------5----4----5-----4-----5-4-2----------------------------------|x1
|-0-0-----0----0----0-----0-----------------------------------------|
|-------------------------------------------------------------------|

|-------------------------------------------------------------------|
|-------------------------------------------------------------------|
|-------------------------------------------------------------------|
|------5------4-------5--------4-------5-4-2------------------------|x1
|-------------------------------------------------------------------|
|-0-0------0------0--------0-------0--------------------------------|

dave murray solo
|-------------------------------------------------------------------|
|-15br15br15~~~~15br15-14-12-14h15p14-12----------------------------|
|----------------------------------------14-12-----12---------------|
|----------------------------------------------14------14~~~--------|
|-------------------------------------------------------------------|
|-------------------------------------------------------------------|

|----------------14-15-17-15-14h15p14-17-15-14h15p14----------------|
|-----------15---------------------------------------17-15-17br15---|
|------16----------------------------------------------------------16|
|--14---------------------------------------------------------------|
|-------------------------------------------------------------------|
|-------------------------------------------------------------------|

|-------------------------------------------------------------------|
|-------------------------------------------------------------------|
|-4h5p4----4--------------------------------------------------------|
|--------7----5-7-----4h5p4------4---------4h5p4----4-5-7~~~--------|
|----------------------------7------6h7-----------7-----------------|
|-------------------------------------------------------------------|

|-------------------------------------------------------------------|
|---------------------5-7-8r8b~~~~-7h8p7------7------7h8p7----7-8---|
|--4h5p4-----4-5-7~~~---------------------9-----8h9---------9-------|
|---------7---------------------------------------------------------|
|-------------------------------------------------------------------|
|-------------------------------------------------------------------|

|-----7-8-10/12~~~~~14h15p14------14-15-17--14h15p14------14--------|
|-10--------------------------17----------------------17------15h17-|
|-------------------------------------------------------------------|
|-------------------------------------------------------------------|
|-------------------------------------------------------------------|
|-------------------------------------------------------------------|

|-14h15p14-----14---------------------------------------------------|
|----------17------15h17---14h15p14--12h14-----12-------------------|
|------------------------------------------15-----------------------|
|-------------------------------------------------------------------|
|-------------------------------------------------------------------|
|-------------------------------------------------------------------|

|-------------------------------------------------------------------|
|-------------------------------------------------------------------|
|-11h12p11-9h10------9~~--------------------------------------------|
|----------------12-------11h12p11-9h11p9--11h12p11--9-11-12--------|
|-------------------------------------------------------------------|
|-------------------------------------------------------------------|

|---------------10h12/14h15p14-12-14-12~~~~-------------------------|
|--------10h12------------------------------------------------------|
|--9-11-------------------------------------------------------------|
|-------------------------------------------------------------------|
|-------------------------------------------------------------------|
|-------------------------------------------------------------------|

|--------------10br10-8---------------------------------------------|
|------------------------12-10--------------------------------------|
|-9/wammydive-------------------11h12p11-9h11-----9-----------------|
|---------------------------------------------12-----10h12-9h10p9---|
|-------------------------------------------------------------------|
|-------------------------------------------------------------------|

|-------------------------------------------------------------------|
|--------------14-15-12-14-----14h15p14-12-14----12-----------------|
|---------------------------14----------------14-----14-12----------|
|-------------------------------------------------------------------|
|-12-12~~~~~--------------------------------------------------------|
|-------------------------------------------------------------------|

|-------------------------------------------------12-14-15-17-17b~--|
|-------------------------12h14p12------12-14-15--------------------|
|-11h12p11------11h12h14------------14------------------------------|
|-----------14------------------------------------------------------|
|-------------------------------------------------------------------|
|-------------------------------------------------------------------|

|-------------------------------------------------------------------|
|-------------------------------------------------------------------|
|-------------------------------------------------------------------|
|-9-----9-----------12----7-------7---------12----9---------9-------|
|-7-7-7-7-7-7-7-7---10----5-5-5-5-5-5-5-5---10----7-7-7-7-7-7-7-7---|
|-------------------------------------------------------------------|


|-------------------------------------------------------------------|
|-------------------------------------------------------------------|
|-------------------------------------------------------------------|
|-5--7--------2-------2----------5--------------------5-------------|
|-3--5--------0-0-0-0-0-0-0-0----3----5-------5-------3-------------|
|-------------------------------------3-3-3-3-3-3-------------------|

|-------------------------------------------------------------------|
|-------------------------------------------------------------------|
|-------------------------------------------------------------------|
|-2-----2-----------------3---5-------------------------------------|
|-0-0-0-0-0-0-0-0---------3---5-------------------------------------|
|-------------------------1---3-------------------------------------|

|-------------------------------------------------------------------|
|-------------------------------------------------------------------|
|-------------------------------------------------------------------|
|--7-7-7-7-7-7-7--5--7-7-7-7-7-7----5-------------------------------|
|--5-5-5-5-5-5-5--5--5-5-5-5-5-5----5-------------------------------|
|-------------------------------------------------------------------|

choir
|-------------------------------------------------------------------|
|-------------------------------------------------------------------|
|-------------------------------------------------------------------|
|-7-7-7-7-7-7-7-7-7-7-7---3-3-3-3-3-3----5-5-5-5-5-5---7-7-7-7-7-5--|
|-5-5-5-5-5-5-5-5-5-5-5---1-1-1-1-1-1----3-3-3-3-3-3---5-5-5-5-5-3--|
|-------------------------------------------------------------------|

adrian smith
|-------------------------------------------------------------------|
|-------------------8-6-5-----------6-5h6p5-------------6-----------|
|-----7-x-x-5~~~7---7-5-5---5~~~~------------5-------5--------------|
|-----7-x-x-5~~~7-----------5~~~~~--------------5-7----------7------|x2
|-5-----------------------------------------------------------------|
|-------------------------------------------------------------------|

|-8-----------------------------------------------------------------|
|-8-----------------------------------------------------------------|
|-5-----------------------------------------------------------------|
|-------------------------------------------------------------------|
|-------------------------------------------------------------------|
|-------------------------------------------------------------------|

|-10-10-10-8-10-8-10----15--13--12--13--12--13-12h13p12-------------|
|-10-10-10-8-10-8-10----15--15--13--13--13---------------13---------|
|-----------------------------------------------------------12-14---|
|-------------------------------------------------------------------|
|-------------------------------------------------------------------|
|-------------------------------------------------------------------|

|------12-----------15----------------------------------------------|
|--13---------------13----------------------------------------------|
|-----------14------14----------------------------------------------|
|-------------------------------------------------------------------|
|-------------------------------------------------------------------|
|-------------------------------------------------------------------|

adrian smith solo
|--14br14br14-12----------------------------------------------------|
|-----------------15-14-12------------------------------------------|
|--------------------------15-14-12---------------------------------|
|-----------------------------------14-12---------------------------|
|-----------------------------------------14\10---------------------|
|-------------------------------------------------------------------|
       tst
|-------------------------------------------------------------------|
|---------------------------------7br7-5-7-5---5--------------------|
|-2b---10/9--------------------4-------------7----7-5-7-5-----------|
|-------------------------------------------------------------------|
|-------------------------------------------------------------------|
|-----------------\0/dive-------------------------------------------|
you bend the 2 then tap the 10 and with the same hand slide to 9

|-------------------------------------------------------------------|
|-------------------------------------------------------------------|
|-4-5-4----4--------------------------------------------------------|
|-------7-----7-5-7-5-4-5-4-----4-----------------------------------|
|----------------------------7-----7-5-3~~~~------------------------|
|-------------------------------------------------------------------|

|------------------------------------------------------12-----------|
|-----12-13-12----12--------------14--12-----------12-----12-15b~~~-|
|-14b----------15----15-14-12-----14--12------14b-------------------|
|-----------------------------14------------------------------------|
|-------------------------------------------------------------------|
|-------------------------------------------------------------------|

|-12-14-------------------------------------------------------------|
|--------15-15~~~-12-15-15-12-15-15-12-15-15p12~~~------------------|
|-------------------------------------------------------------------|
|-------------------------------------------------------------------|
|-------------------------------------------------------------------|
|-------------------------------------------------------------------|
when you hammer-on 15 push down on the wammy bar

|-12-14-14br14-----12-14-14br14------12-14-14br14--12--14b--12------|
|---------------15---------------15-----------------------------15b-|
|-------------------------------------------------------------------|
|-------------------------------------------------------------------|
|-------------------------------------------------------------------|
|-------------------------------------------------------------------|

|-12------------------15------------------15-----------------15-----|
|-----15~~~-15-17-19------19-17-15-17-19-----19-17-15-17-19---------|
|-------------------------------------------------------------------|
|-------------------------------------------------------------------|
|-------------------------------------------------------------------|
|-------------------------------------------------------------------|

|-----------19-19-19-19-19-19-19--20-17-19-15-17-14-15-12-14--------|
|-19-17-15----------------------------------------------------------|
|-------------------------------------------------------------------|
|-------------------------------------------------------------------|
|-------------------------------------------------------------------|
|-------------------------------------------------------------------|

|-14br14-12-------12------------------------------------------------|
|------------15b------15-12-----------------------------------------|
|---------------------------14br14-12-------------------------------|
|-------------------------------------------------------------------|
|---------------------------------------13~~~-----------------------|
|-------------------------------------------------------------------|
the rythm for this solo is the same as dave's

dave murray
|-------------------------------------------------------------------|
|-------------------------------------------------------------------|
|-------------------------------------------------------------------|
|----3-2-0-2-----3-3-2-0-2------------------------------------------|
|-1-----------3-------------3---------------------------------------|
|-------------------------------------------------------------------|

adrian smith
|-------------------------------------------------------------------|
|-------------------------------------------------------------------|
|-10-10-9-----9-----------------------------------------------------|
|----------12----10~~~~---------------------------------------------|
|-------------------------------------------------------------------|
|-------------------------------------------------------------------|

|-------------------------------------------------------------------|
|-------------------------------------------------------------------|
|-15-15-14------14--------------------------------------------------|
|-----------17------15----------------------------------------------|
|-------------------------------------------------------------------|
|-------------------------------------------------------------------|

|---------------------------15-17-18-18b~~~-------------------------|
|-----------------15-17-18------------------------------------------|
|-15-15-14-15-17----------------------------------------------------|
|-------------------------------------------------------------------|
|-------------------------------------------------------------------|
|-------------------------------------------------------------------|

|-------------------------------------------------------------------|
|-------------------------------------------------------------------|
|-------------------------------------------------------------------|
|--7-5-3-5-3--2-2-2-3-2--------------7------------------------------|
|-----------------------3-5----------5------------------------------|
|-------------------------------------------------------------------|

comments
print report bad tab
1 comment total.
0 reply
Pofessor wrote on August 17 2009, 11:50 pm

Great tab. 5 Stars fo sho!! =D

I want to post or [tab]
guest
You may want to rate the tab now too:
select rating
Please do not post tabs as comments. Select "correction" instead!