Oops, an error
Loading. Please wait.

Holy Smoke Tab

ver3
ver3

Solo

Whole song

Interactive

More versions @911Tabs.com
3,054 views 3 this week
1 commentread comment
1 2 3 4 5
excellent!
x 5
Autoscroll
+/-
esc
set tempo
stop
Contributor
Difficulty
intermediate
Hey! There's an official Ultimate Guitar app which is ideal
for learning songs when you're away from computer. Get the app
WARNING: You are trying to view
                                    content from Ultimate-Guitar.com
                                    in an unauthorized application,
                                    which is prohibited.

                                    Please use an official Ultimate
                                    Guitar Tabs application for iPhone,
                                    iPad or Android to access legitimate
                                    chords, guitar, bass, and drum tabs
                                    from Ultimate-Guitar.com database.

                                    Type "ultimate guitar tabs" in Apple
                                    App Store's or Android Market's
                                    search to find the application.
Artist: Iron Maiden
Song  : Holy Smoke

 Intro
  Q=180
  N.C.(E)                             (B)
 4/4
  Gtrs I, II
  E E E E Q  E E   +E  E E E Q  Q     E E E E Q  E E   +E  E E E Q  Q
|----------------|------------------|----------------|-----------------|
|----------------|------------------|----------------|-----------------|
|----------------|------------------|----------------|-----------------|
|---6-7-6-9--6-7-|-(7)-6-9-6-7--9\--|----------------|-----------------|
|-7--------------|------------------|---6-7-6-9--6-7-|-(7)-6-9-6-7--9--|
|----------------|------------------|-7--------------|-----------------|


  (D)          (A)                (E)
  E E E E Q  E E   +E  E E E Q  E E   +E  E E E E E E E   E E E E E E E E
|----------------|------------------|-------------------|-----------------|
|----------------|------------------|-------------------|-----------------|
|----------------|------------------|-------------------|-----------------|
|---4-5-4-7--4---|------------------|-----6-7-6-9-6-7-6-|-9-6-7-6-9-7-6---|
|-5--------------|-----4-5-4-7--4-7-|-(7)---------------|---------------7-|
|--------------5-|-(5)--------------|-------------------|-----------------|


                                    (B)                                   (D)
  +E  E E E E E E E   E E E E E E E E   +E  E E E E E E E   E E E E E E E E
|-------------------|-----------------|-------------------|-----------------|
|-------------------|-----------------|-------------------|-----------------|
|-------------------|-----------------|-------------------|-----------------|
|-----6-7-6-9-6-7-6-|-9-6-7-6-9-7-6---|-------------------|-----------------|
|-(7)---------------|-----------------|-----6-7-6-9-6-7-6-|-9-6-7-6-9-7-6-5-|
|-------------------|---------------7-|-(7)---------------|-----------------|


                  (A)                 (E)                                   E
  +E  E E E E E E E   +E  E E E E E E E   +E  E E E E E E E   E E E E E E E E
|-------------------|-------------------|-------------------|-----------------|
|-------------------|-------------------|-------------------|-----------------|
|-------------------|-------------------|-------------------|-----------------|
|-----4-5-4-7-5-4---|-------------------|-----6-7-6-9-6-7-6-|-9-6-7-6-9-7-6-2-|
|-(5)---------------|-----4-5-4-7-5-4-7-|-(7)---------------|---------------2-|
|-----------------5-|-(5)---------------|-------------------|---------------0-|


   Verse 1; 2 & 3
    $
               D              G              A          G   A E
    Gtrs I, II
    +H..       E   +H..       E   +H..       E   +H     E E E E
||---------------|------------3-|-(3)----------|--------3--------|
||o------------3-|-(3)--------3-|-(3)----------|--------3--------|
||-------------2-|-(2)--------0-|-(0)--------2-|-(2)----0---2----|
||--(2)--------0-|-(0)--------0-|-(0)--------2-|-(2)----0---2-2--|
||o-(2)----------|--------------|------------0-|-(0)--------0-2--|
||--(0)----------|------------3-|-(3)----------|--------3-----0--|


             D              G              A          G   A E
  +H..       E   +H..       E   +H..       E   +H     E E E E
|--------------|------------3-|-(3)----------|--------3-------|
|------------3-|-(3)--------3-|-(3)----------|--------3-------|
|------------2-|-(2)--------0-|-(0)--------2-|-(2)----0---2---|
|-(2)--------0-|-(0)--------0-|-(0)--------2-|-(2)----0---2-2-|
|-(2)----------|--------------|------------0-|-(0)--------0-2-|
|-(0)----------|------------3-|-(3)----------|--------3-----0-|


             D              G              A          G   A E
  +H..       E   +H..       E   +H..       E   +H     E E E E
|--------------|------------3-|-(3)----------|--------3-------|
|------------3-|-(3)--------3-|-(3)----------|--------3-------|
|------------2-|-(2)--------0-|-(0)--------2-|-(2)----0---2---|
|-(2)--------0-|-(0)--------0-|-(0)--------2-|-(2)----0---2-2-|
|-(2)----------|--------------|------------0-|-(0)--------0-2-|
|-(0)----------|------------3-|-(3)----------|--------3-----0-|


             D              G              A          G   A E
  +H..       E   +H..       E   +H..       E   +H     E E E E
|--------------|------------3-|-(3)----------|--------3-------||
|------------3-|-(3)--------3-|-(3)----------|--------3-------||
|------------2-|-(2)--------0-|-(0)--------2-|-(2)----0---2---||
|-(2)--------0-|-(0)--------0-|-(0)--------2-|-(2)----0---2-2-||
|-(2)----------|--------------|------------0-|-(0)--------0-2-||
|-(0)----------|------------3-|-(3)----------|--------3-----0-||


 Pre-Chorus
             G              D              A          G     E
  Gtrs I, II
  +H..       E   +H..       E   +H..       E   +H     E E E E
|------------3-|-(3)----------|--------------|--------3-3-----|
|------------3-|-(3)--------3-|-(3)----------|--------3-3-----|
|------------0-|-(0)--------2-|-(2)--------2-|-(2)----0-0-----|
|-(2)--------0-|-(0)--------0-|-(0)--------2-|-(2)----0-0---2-|
|-(2)----------|--------------|------------0-|-(0)----------2-|
|-(0)--------3-|-(3)----------|--------------|--------3-3---0-|


             G              D              A          G     N.C.
  +H..       E   +H..       E   +H..       E   +H     E E E e
|------------3-|-(3)----------|--------------|--------3-3-----|
|------------3-|-(3)--------3-|-(3)----------|--------3-3-----|
|------------0-|-(0)--------2-|-(2)--------2-|-(2)----0-0-----|
|-(2)--------0-|-(0)--------0-|-(0)--------2-|-(2)----0-0---2-|
|-(2)----------|--------------|------------0-|-(0)------------|
|-(0)--------3-|-(3)----------|--------------|--------3-3-----|


 Chorus
  (A)          (G)              (D)              (A)               (E)
  Gtrs I, II
  E E E E Q  E e   E E E E Q  E e   E E E E Q  E e   E E E E E E E E
|----------------|----------------|----------------|-----------------|
|----------------|----------------|----------------|-----------------|
|----------------|----------------|----------------|-----------------|
|---2p0---0----2-|---2p0---0----2-|---2p0---0----2-|---2p0---0-5-4-2-|
|-------2----2---|-------2----2---|-------2----2---|-------2---------|
|----------------|----------------|----------------|-----------------|


                                          To Coda
               (G)              (D)              (A)
  E E E E Q  E e   E E E E Q  E e   E E E E Q  E e
|----------------|----------------|----------------|
|----------------|----------------|----------------|
|----------------|----------------|----------------|
|---2p0---0----2-|---2p0---0----2-|---2p0---0----2-|
|-------2----2---|-------2----2---|-------2----2---|
|----------------|----------------|----------------|


 1.                  2.
                E     (A)           N.C.(E)
  E E E E E E E E     E E E E E E E  E
|------------------||------------------||
|-----------------o||------------------||
|------------------||------------------||
|---2p0---0-5-4-2--||---2p0---0-5-4----||
|-------2-------2-o||-------2-------/7-||
|---------------0--||------------------||


 Bridge
                                       (B)                             (D)
  Gtrs I, II
  +E  E E E Q  E E   +E  E E E Q  Q    E E E E Q  E E   +E  E E E Q  E E
|------------------|-----------------|----------------|------------------|
|------------------|-----------------|----------------|------------------|
|------------------|-----------------|----------------|------------------|
|-----6-7-6-9--6-7-|-(7)-6-9-6-7--9--|----------------|------------------|
|-(7)--------------|-----------------|---6-7-6-9--6-7-|-(7)-6-9-6-7--9-5-|
|------------------|-----------------|-7--------------|------------------|


                 (A)                (E)                                    E5VII
                                                                           Gtr II
   W                  W                   W                  H       Q   E E
                                                                           |
                                                                           /

  Gtrs I, II                                                               Gtr I
  +E  E E E Q  E E   +E  E E E Q  E  E   +E  E E E E E E E   E E E E E E E E
|------------------|-------------------|-------------------|-----------------||
|------------------|-------------------|-------------------|-----------------||
|------------------|-------------------|-------------------|-----------------||
|-----4-5-4-7--4---|-------------------|-----6-7-6-9-6-7-6-|-9-6-7-6-9-7-6---||
|-(5)--------------|-----4-5-4-7--4-/7-|-(7)---------------|---------------7-||
|----------------5-|-(5)---------------|-------------------|-----------------||


 Guitar Solo I
                                                           B5VII
  +E  E E   E   E   E   E   E     E   Q       Q         Q  E
   |  | |       |   |   |   |     |   |       |         |  |
   /  / /       /   /   x   x     /   x       /         /  /

  Gtr I
                                                 \0.25/
        T       T       T
  +Q    S S S S S S S S S S S S   S S S S S S E +H
|-------7p5p3p0-----------------|----------------------------|
|---------------8p5p3p0---------|-------------0-(0)----------|
|-----------------------7p4p2p0-|-------------0-(0)----------|
|-------------------------------|-2p0h2p0h2p0-0-(0)----------|
|-(7)---------------------------|----------------------------|
|-------------------------------|----------------------------|


  +E   E   E   E   E   E   E   E
   |   |   |       |   |   |   |
   /   /   /       /   /   x   x

   S S S S S S S S S S S S S S S S
|-----------------------------------|
|-----------------------------------|
|--9p7h9p7--------------------------|
|----------9p7h9p7------------------|
|------------------9p7h9p7----------|
|--------------------------7p5h7p5--|


                               D5                             A5V
  +E   Q       Q       Q       E      +E  E E E   E     E  E  E
   |   |       |       |       |       |  | |     |     |     |
   /   /       /       /       /       /  / /     /     /     /

                                                           ~~~
   S S S S S S S S S S S S S S E      +Q.     E  +Q       +Q
|-----------------------------------|---------------------------|
|-----------------------------------|---------------------------|
|------------------7p5h7p5-----7b9==|=(7)-----7r-(7)b9====(7)---|
|----------7p5h7p5---------7p5------|---------------------------|
|--7p5h7p5--------------------------|---------------------------|
|-----------------------------------|---------------------------|


                     B5VII
  +E   E E E E E E   E   +E E E E E E E E
   |   | |   | |     |    | | |   | | | |
   /   / /   / /     /    / / /   / / x x

                                  ~
  +H.            S S E    H       H
|----------------------|-------------------|
|----------------------|-------------------|
|-(7)r-----------5h7p5S|==2-------4--------|
|----------------------|-------------------|
|----------------------|-------------------|
|----------------------|-------------------|


               E5VII
   E  Q  Q  Q  E   +E    E  E E  E     E  E      E
   |  |  |  |  |    |    |  |    |     |  |      |
   /  x  /  /  /    /    /  /    /     /  x      x

  +W                Q       Q    E     E  E     +E
|----------------|---------19---------19------------|
|----------------|-22b24--------22b24----22b24-(22)-|
|-(4)------------|----------------------------------|
|----------------|----------------------------------|
|----------------|----------------------------------|
|----------------|----------------------------------|


                                  B5VII
   E     Q           Q         Q  E   +E   E    E    E    E   E   E   E
   |     |           |         |  |    |   |    |         |   |   |   |
   /     x           /         /  /    /   /    /         /   /   x   x

                                                T         T       T
   E     E     E     E     +Q.    E   +E   S S  S  S S S  S S S S S S S S
|-19----19----19----19----(19)------|---------------------------------------|
|-22b24-22b24-22b24-22b24-(22)S===0-|-(0)-10p0-12p10p7p5-10p7p5p0-7p5p4p0---|
|-----------------------------------|---------------------------------------|
|-----------------------------------|---------------------------------------|
|-----------------------------------|---------------------------------------|
|-----------------------------------|---------------------------------------|


                         D5                        A5V
  E   Q       Q      Q   E    +E  E      E E E E E E
  |   |       |      |   |     |  |      |   | |   |
  /   x       /      /   /     /  /      /   / /   /

  ~~~~~~~~~~~~~~~~   ~~~
                                  |-3--|
  S S S S S S S S E  Q.       +E  S  S S E E E E E S S
|--------------------------|---------------------------|
|-4p0-5p0-7p0-8p0---10-----|-(10)-8h10p8S7h8-8---------|
|--------------------------|-------------------9-7-7S9-|
|--------------------------|---------------------------|
|--------------------------|---------------------------|
|--------------------------|---------------------------|


                         B5VII                                           F#5
                                                                         Gtr I
  +E  E E E E E   E      E    +E   E   E  E E E E E     E  Q      Q  Q    E
   |  | |   | |          |     |   |   |    | | | |     |  |      |  |    |
   /  / /   / /          /     /   /   /    / / x x     /  x      /  /    /

                                                                         Gtr II
                                                               \4
                               ~~~~~
  +H.             Q           +Q       H.              +Q      H       E  E
|--------------------------|------------------------|--------------------------||
|---------------[15]b17====|=(15)r---[15]-----------|-(15)---[15]--------14----||
|-(9)----------------------|------------------------|--------------------14----||
|--------------------------|------------------------|--------------------------||
|--------------------------|------------------------|--------------------------||
|--------------------------|------------------------|--------------------------||


 Guitar Solo II
                                 A5
  Gtr I
   +E  E  E  E  E     E     E     E
    |  |  |     |     |     |     |
    /  /  /     /     /     x     /

  Gtr II
   +Q     E  E  E     S  S  S  S  E
|-----------------------14-------------|
|-(14)---------------14----17p14-------|
|-(14)---------16b18-------------16b18-|
|--------16p14-------------------------|
|--------------------------------------|
|--------------------------------------|


                        E5                            F#5
  +Q.                    H                             E
   |                     |                             |
   /                     /                             /

   S   S  S  S  S     S  S  S  S     S  S  S  S     S  S  S
|-----14-------------14-------------14-------------14-------|
|-14-----17p14----------17p14----------17p14----------17p14-|
|--------------16b18----------16b18----------16b18----------|
|-----------------------------------------------------------|
|-----------------------------------------------------------|
|-----------------------------------------------------------|


                                                D5open
  +E        E     E        E    E  E      E      E
   |        |     |             |  |      |      |
   /        /     /             /  /      x      /

   S     S  S  S  S     S  S  S E  E     +S   S  E
|-------14-------------14------------------------------|
|----------17p14----------17p14-----------------17b19==|
|-16b18----------16b18------------16b18r(16)p14--------|
|------------------------------------------------------|
|------------------------------------------------------|
|------------------------------------------------------|


                     E5     F#5                   A5              E5           F#5
   +Q.               H      E   +E    E E E E E E E    +Q.         H           E
    |                |      |    |    | |   | | | |     |          |           |
    /                /      /    /    / /   / / x /     /          /           /

                        ~~~~~~~~~~~~~~                                ~~
   +E   +S   S  Q       H        W                     +E    E  E  E  Q   +Q
|--------------17b19---17-----|---------------------|------------------------------|
|-(17)r(17)p14----------------|-17------------------|-(17)-----14------------------|
|-----------------------------|-16b18---------------|-(16)-/14-------14--(14)\-----|
|-----------------------------|---------------------|-------------16---------------|
|-----------------------------|---------------------|------------------------------|
|-----------------------------|---------------------|------------------------------|


                       D5open             E5      F#5
  +E E    E E  E   E E E     +Q.          H       E
   | |    |    |   | | |      |           |       |
   / /    /    /   / x /      /           /       /

                                             ~~~
   E Q.       +Q.      S S    S S S S S S E +H
|--------------------------|------------------------|
|--------------------------|------------------------|
|----4b6======(4)r-----4p2-|------------2h4-(4)-----|
|--------------------------|--4p2---2h4-------------|
|--------------------------|------4-----------------|
|--------------------------|------------------------|


                        A5                   E5              F#5
  +E    E  E  E E  E  E E        +Q.         H                E
   |    |  |    |  |  | |         |          |                |
   /    /  /    /  /  x /         /          /                /

                                                              ~~~
                        |-3--|
  +E    E  E  E E  E  E S  S S    E  E  S  S E    +E  E E    +E
|------------------------------|----------------------------------|
|---------10----9----10-9h10p9-|-----9----------------------------|
|-(4)-/11----11---11-----------|-11----10S11----------------------|
|------------------------------|-------------9b11r(9)p7-9b11r(9)--|
|------------------------------|----------------------------------|
|------------------------------|----------------------------------|


                                    D5open           E5         F#5
  +E  E E    E    E    E      E      E    +Q.         H         E
   |  | |         |    |      |      |     |          |         |
   /  / /         /    /      x      /     /          /         /

                                                         ~~~~~
        |--3---|  |---3---|
   E  E E  E   E  E  E    E  +E      E    +E   Q      E  H
|-----------------------------------12-|-(12)--------12-----------|
|-------------------10---12-(12)b14----|------12b14-----12b14-----|
|--------------9S11--------------------|--------------------------|
|--9----7S11---------------------------|--------------------------|
|----/9--------------------------------|--------------------------|
|--------------------------------------|--------------------------|


                                            A5
  +E     E     E     E     E     E     E     E
   |     |     |           |     |     |     |
   /     /     /           /     /     x     /

   T        T        T        T        T        T
   S  S  S  S  S  S  S  S  S  S  S  S  S  S  S  S
|-------------------------------------------------|
|-19p14h17-19p14h17-19p14h17-19p14h17-19p14h17-19-|
|-------------------------------------------------|
|-------------------------------------------------|
|-------------------------------------------------|
|-------------------------------------------------|


                    E5                     D5open
  +Q.                H                     E
   |                 |                     |
   /                 /                     /

         T        T        T
   S  S  S  S  S  S  S  S  S  S  S  S  +E.    S
|--------------------------------------------17-|
|-14h17-19p14h17-19p14h17-19p14h17p14-(14)------|
|-----------------------------------------------|
|-----------------------------------------------|
|-----------------------------------------------|
|-----------------------------------------------|


  +E        E  E  E     E     E     E  E
   |        |  |        |     |     |  |
   /        /  /        /     /     x  /

   |--3--|
   S  S  S  E  E  E     S  S  S  S  E  E
|-14h17p14----14-------14--------------------|
|----------17----17b19----17p14-17p14--------|
|-------------------------------------16b18r=|
|--------------------------------------------|
|--------------------------------------------|
|--------------------------------------------|


                              B5II
  +E    E     E E   E   E   E  E
   |    |     |     |   |   |  |
   /    /     /     /   /   x  /

              ~~
   |---3---|
   E  E    E  Q    +Q       E  E
|-------------------------/17-19b21==|
|------------------------------------|
|-16p14------14---(14)\--------------|
|---------16-------------------------|
|------------------------------------|
|------------------------------------|


                                        D.S. al Coda
                                                    E5
   +E  E E E E E  E   E   +E   E      E E   E   E E E
    |  | |   | |  |   |    |   |      |     |   | | |
    /  / /   / /  x   /    /   /      /     /   / x /

                               ~~~~~~~~~~~~~~~~~
   +H.            E   E    E  +Q.          +Q.      E
|-(19)-----------19rp17-|-19-(19)b21======(19)r-------||
|-----------------------|-----------------------------||
|-----------------------|-----------------------------||
|-----------------------|---------------------------2-||
|-----------------------|---------------------------2-||
|-----------------------|---------------------------0-||


 Ending
  &
  N.C.(A)       (E)
  Gtr I
  E E E E E E E E   +Q    Q  H
|-----------------|---------------*|
|-----------------|---------------*|
|-----------------|---------------*|
|---2p0---0-5-4---|---------------*|
|-------2-------7-|-(7)\----------*|
|-----------------|---------------*|
|
| Gtr II
| E E E E E E E E   +Q    Q  H
|-----------------|---------------*|
|-----------------|---------------*|
|---------------9-|-(9)\----------*|
|---2p0---0-5-4-9-|-(9)\----------*|
|-------2-------7-|-(7)\----------*|
|-----------------|---------------*|
comments
print report bad tab
1 comment total.
0 reply
RollingDoughnut wrote on April 14 2006, 04:47 pm

Great tab, I got confused by the rythm slashes. What do those mean????

I want to post or [tab]
guest
You may want to rate the tab now too:
select rating
Please do not post tabs as comments. Select "correction" instead!