Oops, an error
Loading. Please wait.

Iron Maiden Tab

ver1
ver1

Album

Whole song

More versions @911Tabs.com
51,665 views 69 this week
7 commentsread comments
1 2 3 4 5
accurate
x 8
Autoscroll
+/-
esc
set tempo
stop
Contributor
WARNING: You are trying to view
                                    content from Ultimate-Guitar.com
                                    in an unauthorized application,
                                    which is prohibited.

                                    Please use an official Ultimate
                                    Guitar Tabs application for iPhone,
                                    iPad or Android to access legitimate
                                    chords, guitar, bass, and drum tabs
                                    from Ultimate-Guitar.com database.

                                    Type "ultimate guitar tabs" in Apple
                                    App Store's or Android Market's
                                    search to find the application.
Band- Iron Maiden
Album- Iron Maiden

1.PROWLER

|---------------------------------|
|---------------------------------|
|---9-9-9---9-9-9---9-9-9---9-9-9-|
|---9-9-9---9-9-9---9-9-9---9-9-9-|
|-x-7-7-7-x-7-7-7-x-7-7-7-x-7-7-7-|
|---------------------------------|

Repeat it as long it takes...
Listen to the record (live version or studio record) to get the rhythm.


Dave Murray:

   repeat 3x
|--------------------|----------------------|
|-5--8-7-8/11\8-7-8--|-3-5--3h5p3h5p3h5p3h5-|
|--------------------|----------------------|
|--------------------|----------------------|
|--------------------|----------------------|
|--------------------|----------------------|

VERSES:

Janick Gers:

 Em5                                D5                                fill:
|---------------------------------|---------------------------------|--------|
|---------------------------------|---------------------------------|--------|
|---9-9-9---9-9-9---9-9-9---9-9-9-|---7-7-7---7-7-7---7-7-7---7-7-7-|-9-7-7--|
|---9-9-9---9-9-9---9-9-9---9-9-9-|---7-7-7---7-7-7---7-7-7---7-7-7-|----9-9-|
|-x-7-7-7-x-7-7-7-x-7-7-7-x-7-7-7-|-x-5-5-5-x-5-5-5-x-5-5-5-x-5-5-5-|--------|
|---------------------------------|---------------------------------|--------|


Play "Em5" twice, then play "D5" once, then play "Em5" once, then play fill.
Repeat it as long it takes for verses.

Dave Murray:

   repeat 3x
|-----------------|------------------|
|-8-7-8/11\8-7-8--|-3-5--3h5p3h5p3h5-|
|-----------------|------------------|
|-----------------|------------------|
|-----------------|------------------|
|-----------------|------------------|

Repeat it as long it takes for verses.
Dave play the same "fill" played by Janick at the end of the riff.


PRE-CHORUS:

Both guitars:

|--------------------------------------------------------------------|
|----------------------------------------------------10/12\10-8-10-8-|
|-11--11---11---11---11---11---11----9----5--7----9------------------|
|-11--11---11---11---11---11---11----9----5--7----9------------------|
|-8----8----8----8----8----8----8----7----3--5----7------------------|
|--------------------------------------------------------------------|

play it twice.


CHORUS:

Janick Gers:

|------------------------|
|------------------------|
|-5------------7---------|
|-5------------7---------|
|-3------------5---------|
|------------------------|

Dave Murray:

|------------------------|
|-8-7-5-3-1----8-7-5-3-1-|
|------------------------|
|------------------------|
|------------------------|
|------------------------|

Then, play the same as played on Intro riff. Back again for chorus.

Then, Janick Gers holds on Em5 and Dave plays the second part of Verse's riff.

Em5:
|-9---------|G
|-9---------|D
|-7---------|A


INSTRUMENTAL BREAKS:

Dave Murray:

|--------------------|
|-12-11-9-7-7--9-11--|
|-12-11-9-7-7--9-11--|
|--------------------|
|--------------------|
|--------------------|

Repeat it for awile

Janick Gers:

|-------------------|
|-------------------|
|-9----7----9----9--|
|-9----5----7----9--|
|-7--------------7--|
|-------------------|

Here, as Janick Gers plays one by one chord above, the audicence screams.
Hear the album, you'll get it.

BEFORE SOLOS:

|----------------------------------------------------------|
|----------------------------------------------------------|
|-5h3-0-5h3-0-5h3-0-----7h5-0-7h5-0-7h5-0-----5h3-0-5h3-0--|
|----------------------------------------------------------|
|----------------------------------------------------------|
|----------------------------------------------------------|

After awile, one of them plays the same thing but on the B string.

RHYTHM FOR SOLOS AND FAST VERSES:

Janick Gers:

|------------------------------------------|
|------------------------------------------|
|-9-9-9----7-7-7---5-5-5----4-4-4----5--7--|
|-9-9-9----7-7-7---5-5-5----4-4-4----5--7--|
|-7-7-7----5-5-5---3-3-3----2-2-2----3--5--|
|------------------------------------------|

2.SANCTUARY

Intro
Gtr. I                    Gtr. II                Gtrs. 1 & 2
Rhy. Fig. 1               w/Rhy. Fig. 1
   **        Play 4 times           Play 12 times
E ||-------------------||---------------------||------------------------|
B ||-------------------||---------------------||------------------------|
G ||*-----------------*||*--5-5--3--5--------*||------------------------|
D ||*--5-5--3--5------*||*--5-5--3--5--------*||--8-x-10-\--10-x-12---\-|
A ||---5-5--3--5--3p0--||---5-5--3--5--3p0----||--8-x-8--\--10-x-10---\-|
E ||-------------------||---------------------||------------------------|


E |--------------------|----------------------|--------------------------|
B |--------------------|----------------------|--------------------------|
G |--------------------|----------------------|--------------------------|
D |--5-5--3--5---------|--5-5--3--5-----------|--8-x-10---10-x-12---\----|
A |--5-5--3--5----3p0--|--5-5--3--5----3p0----|--8-x-8----10-x-10---\----|
E |--------------------|----------------------|--------------------------|

   Let Ring
E |--------------------|-------------------------------------------------|
B |--------------------|-------------------------------------------------|
G |-2------------------|---------Replay from this point **---------------|
D |-2------------------|-------------------------------------------------|
A |-0------------------|-------------------------------------------------|
E |--------------------|-------------------------------------------------|

  Rhy. Fig. 2
E ||-------------------|----------------------|--------------------------|
B ||-------------------|----------------------|--------------------------|
G ||*------------------|----------------------|--------------------------|
D ||*---7---7------7---|----5---5------5------|----7---7--------7--------|
A ||-------------------|----------------------|--------------------------|
E ||----5---5------5---|----3---3------3------|----5---5--------5--------|

             Play twice  Gtr. I
E |-------------------||----------------------|-------------------------|
B |-------------------||----------------------|-------------------------|
G |------------------*||----------------------|-------------------------|
D |--7---7--------7--*||--9-7-9---7-7-7--9--7-|--7-5-7---5-5-5--7--5----|
A |--5---5--------5---||--7-5-7---5-5-5--7--5-|--5-3-5---3-3-3--5--3----|
E |-------------------||----------------------|-------------------------|


E |-------------------|
B |-------------------|
G |-2-----------------|
D |-2-----------------|
A |-0-----------------|
E |-------------------|

  Guitar Solo  w/ Rhy. Fig. 1
  Gtr. II
E |--5h8p5h8p5h8p5h8p5h8p5h8p5h8p5h8p5-5------5-8p5------5-8p5-------|
B |--------------------------------------7b(9)------7b(9)------7-----|b(9)
G |------------------------------------------------------------------|
D |------------------------------------------------------------------|
A |------------------------------------------------------------------|
E |------------------------------------------------------------------|


E |-5-8p5------5-8p5------5-8p5------5-8p5------5-8p5-------5-8p5---|
B |-------7b(9)------7b(9)------7b(9)------7b(9)-------7b(9)--------|
G |-----------------------------------------------------------------|
D |-----------------------------------------------------------------|
A |-----------------------------------------------------------------|
E |-----------------------------------------------------------------|

         ~~~~                                          ~~~~~
E |-------------------------13----13-15b(17)rb(17)rb(18)----15-15-13-|
B |-7b(9)-------------13-15----15------------------------------------|
G |-------------12-14------------------------------------------------|
D |------------------------------------------------------------------|
A |------------------------------------------------------------------|
E |------------------------------------------------------------------|

                              ~~~
E |----13--------------------------------------18-------18-------18-|
B |-15----15-13----13-------------------18b(20)--18b(20)--18b(20)---|
G |-------------14----14-12-12------\-------------------------------|
D |-----------------------------------------------------------------|
A |-----------------------------------------------------------------|
E |-----------------------------------------------------------------|

                                                                ~~~~
E |---------18---------18---------18---------18---------18----------|
B |-18b(20)----18b(20)----18b(20)----18b(20)----18b(20)----18b(20)--|
G |-----------------------------------------------------------------|
D |-----------------------------------------------------------------|
A |-----------------------------------------------------------------|
E |-----------------------------------------------------------------|


E |-------------------------14h17p14h17-17h20p17h20-20b(22)-20------|
B |-------------14h17p14h17-----------------------------------------|
G |-14h17p14h17-----------------------------------------------------|
D |-----------------------------------------------------------------|
A |-----------------------------------------------------------------|
E |-----------------------------------------------------------------|

                           ~~~~~          ~~~~~
E |-20b(22)-20b(22)-20b(22)------\----------------------------------|
B |---------------------------------15b(17)----r--b(17)-----/-14----|
G |-----------------------------------------------------------------|
D |-----------------------------------------------------------------|
A |-----------------------------------------------------------------|
E |-----------------------------------------------------------------|

                                                     ~~~
E |-----------------------------------------------------------------|
B |-12h15p12h15p12----12h15p12h15p12-------15-17b(19)----17b(19)--r-|
G |----------------14-----------------/16---------------------------|
D |-----------------------------------------------------------------|
A |-----------------------------------------------------------------|
E |-----------------------------------------------------------------|


E |-----------------------------------------20----------------------|
B |-17p15-17p15------------------/--20b(22)----20b(22)-r--17-20-17--|
G |-------------16-17b(19)-hold-------------------------------------|
D |-----------------------------------------------------------------|
A |-----------------------------------------------------------------|
E |-----------------------------------------------------------------|


E |-------------------------------------------------------------20--|
B |-20-20b(22)rp17---20-20b(22)rp17---20-20b(22)rp17--20-20b(22)----|
G |-----------------------------------------------------------------|
D |-----------------------------------------------------------------|
A |-----------------------------------------------------------------|
E |-----------------------------------------------------------------|

           ~~~                ~~~~                    End of Solo
E |-----------------------------------------------------------------|
B |-20b(22)---20b(22)--r--(20)--------------------------------------|
G |-----------------------------------------------------------------|
D |-----------------------------------------------------------------|
A |-----------------------------------------------------------------|
E |-----------------------------------------------------------------|

3.REMEMBER TOMORROW

Verse:(Riff 1)
1.Unchain the colours                  before my eyes,
2.Tears for rememberance,              and tears for joy,
3.Unchain the colours                  before my eyes,
E----7-----7-----7-----7-----7------|--8-------8-------8----7-----7-----7----|
B------8-----8-----8-----8-----8----|----10------10------10---8-----8-----8--|
G--9-----9-----9-----9-----9-----9--|-------10------10----------9-----9------|
D-----------------------------------|----------------------------------------|
A-----------------------------------|----------------------------------------|
E-----------------------------------|----------------------------------------|

   Yesterday's sorrows,                tomorrow's white lies.
   Tears for somebody                  and this lonely boy.
   Yesterday's sorrows,                tomorrow's white lies.
E----7-----7-----7-----7-----7------|--8-------8-------8----7-----7-----7----|
B------8-----8-----8-----8-----8----|----10------10------10---8-----8-----8--|
G--9-----9-----9-----9-----9-----9--|-------10------10----------9-----9------|
D-----------------------------------|----------------------------------------|
A-----------------------------------|----------------------------------------|
E-----------------------------------|----------------------------------------|

   Scan the horizon,                   the clouds take me higher,
   Out in the madness,                 the all seeing eye,
   Scan the horizon,                   the clouds take me higher,
E----7-----7-----7-----7-----7------|--8-------8-------8----7-----7-----7----|
B------8-----8-----8-----8-----8----|----10------10------10---8-----8-----8--|
G--9-----9-----9-----9-----9-----9--|-------10------10----------9-----9------|
D-----------------------------------|----------------------------------------|
A-----------------------------------|----------------------------------------|
E-----------------------------------|----------------------------------------|

   I shall return                      from out of fire.
   Flickers above us,                  to light up the sky.
   I shall return                      from out of fire.
E----7-----7-----7-----7-----7------|--8-------8-------8----7-----7-----7----|
B------8-----8-----8-----8-----8----|----10------10------10---8-----8-----8--|
G--9-----9-----9-----9-----9-----9--|-------10------10----------9-----9------|
D-----------------------------------|----------------------------------------|
A-----------------------------------|----------------------------------------|
E-----------------------------------|----------------------------------------|

Riff 2:
E------------------------|---------------------------|
B------------------------|---------------------------|
G------------------------|---------------------------|
D-----------4---4--------|-----------5---5-----------|
A--2--------2---2--5--4--|--5--------3---3--3-2------|
E--0---0-0---------3--2--|--3---3-3-------------3-2--|

E------------------------|---------------------------|
B------------------------|---------------------------|
G------------------------|---------------------------|
D-----------4---4--------|-----------5---5-----------|
A--2--------2---2--5--4--|--5--------3---3--3-2------|
E--0---0-0---------3--2--|--3---3-3-------------3-2--|

E------------------------|---------------------------|
B------------------------|---------------------------|
G------------------------|---------------------------|
D-----------4---4--------|-----------5---5-----------|
A--2--------2---2--5--4--|--5--------3---3--3-2------|
E--0---0-0---------3--2--|--3---3-3-------------3-2--|

E------------------------|---------------------------|
B------------------------|---------------------------|
G------------------------|---------------------------|
D-----------4---4--------|-----------5---------------|
A--2--------2---2--5--4--|--5--------3---------------|
E--0---0-0---------3--2--|--3---3-3------------------|

Fill before second verse:
E----7-----7-----7-----7-----7------|--7-----7-----7-----7-----7------|
B------8-----8-----8-----8-----8----|----8-----8-----8-----8-----8----|
G--9-----9-----9-----9-----9-----9--|------9-----9-----9-----9-----9--|
D-----------------------------------|---------------------------------|
A-----------------------------------|---------------------------------|
E-----------------------------------|---------------------------------|

Riff 3:
E--------------------------------|--------------------------|
B--------------------------------|--------------------------|
G--------------------------------|--------------------------|
D--7-------7-------7-------5--5--|--7-------7-------5--5-5--|
A--5---5-5-5---5-5-5---5-5-3--3--|--5---5-5-5---5-5-3--3-3--|
E--------------------------------|--------------------------|

Riff 4:
E----------------------------------|---------------------------------|
B----------------------------------|---------------------------------|
G----------------------------------|---------------------------------|
D--9-------9-------9-------12--12--|--9-------9-------12--12--12-14--|
A--7---7-7-7---7-7-7---7-7-10--10--|--7---7-7-7---7-7-10--10--10-12--|
E----------------------------------|---------------------------------|

Riff 5:
E-------------------------------|-------------------------------|
B-------------------------------|-------------------------------|
G--------------5-5-5-5-5-5-3----|--------------7-7-7-7-7-7-5----|
D----------------------------5--|----------------------------7--|
A--3-3-3-3-3-3------------------|--5-5-5-5-5-5------------------|
E-------------------------------|-------------------------------|

E-------------------------------|-------------------------------|
B-------------------------------|-------------------------------|
G--------------4-4-4-4-4-4-2----|--------------5-5-5-5-5-5-3----|
D----------------------------4--|----------------------------5--|
A--2-2-2-2-2-2------------------|--3-3-3-3-3-3------------------|
E-------------------------------|-------------------------------|

E-------------------------------|-------------------------------|
B-------------------------------|-------------------------------|
G--------------5-5-5-5-5-5-3----|--------------7-7-7-7-7-7-5----|
D----------------------------5--|----------------------------7--|
A--3-3-3-3-3-3------------------|--5-5-5-5-5-5------------------|
E-------------------------------|-------------------------------|

E-------------------------------|-------------------------------|
B-------------------------------|-------------------------------|
G--------------4-4-4-4-4-4-2----|-------------------------------|
D----------------------------4--|--5-----------7----------------|
A--2-2-2-2-2-2------------------|--3-----------5----------------|
E-------------------------------|-------------------------------|

4.RUNNING FREE

Intro:
  (play 2x)

   E       G   F#  E            C          D
e----------------------------------------------------|
B----------------------------------------------------|
G--9-------12--11--9-9--------x-5------xxx-7-----xxx-|
D--9-------12--11--9-9--------x-5------xxx-7-----xxx-|
A--7-------10--9---7-7--------x-3------xxx-5-----xxx-|
E----------------------------------------------------|


Verse:
  (play 2x)

   E               C       D	     E               G       A
e----------------------------------|---------------------------------|
B----------------------------------|---------------------------------|
G--9---xxx-9---xxx-5---xxx-7---xxx-|-9---xxx-9-------------------xxx-|
D--9---xxx-9---xxx-5---xxx-7---xxx-|-9---xxx-9---xxx-5---xxx-7---xxx-|
A--7---xxx-7---xxx-3---xxx-5---xxx-|-7---xxx-7---xxx-5---xxx-7---xxx-|
E----------------------------------|-------------xxx-3---xxx-5-------|

Keep in mind that the strummed chords (x) at the end of the bars are
played continuessly with the 1st chord of the beginning of the riff.
I also play the strummed chord (upstroke, downstroke, upstroke) and
very rapidly.


Chorus:
  (play 2x)

   E       G   E                  C        D
e----------------------------------------------------|
B----------------------------------------------------|
G--9-------12--9---7-9--x-9---xxx-5----xxx-7-----xxx-|
D--9-------12--9---7-9--x-9---xxx-5----xxx-7-----xxx-|
A--7-------10--7---5-7--x-7---xxx-3----xxx-5-----xxx-|
E----------------------------------------------------|


Solo:

e--9--------------------------------------------------------|
B---12-10-12-10--10-----------------------------------------|
G--------------12--12-11-12-11-9-11-9--9--------------------| 2x
D------------------------------------12-12-11-12-11-9-------|
A----------------------------------------------------12-----|

e--17-15-14-15-14--14-----------------------------------------|
B----------------17--17-15-17-15-14-15-14--14-----------------|
G----------------------------------------16--16-14-16-14------| 2x
D-------------------------------------------------------17-16-|

e-------------------------------------------------------------|
B-------------------------------------------------------------|
G-16-14---------16-14----------16-14----16-14----16-14--------|
D------17-16---------17-16----------17-------17-------17-16---|


Outro:
    (play 4x)

e--------------------------|--------------------------------|
B--------------------------|----------------------------12\-|
G--------------------------|-12-12-12-11-12-11--------------|
D--9-----9-----9-----9-----|-------------------12-12-12-----|
A--7-----7-----7-----7-----|--------------------------------|
E--0---0-0---0-0---0-0---0-|--------------------------------|
  PM......................|
      (play this bar 3x)

I think they change the pick-up or turn on an effect on the 3rd x.
On the 4th x replace last bar with:

      e-----------------|
      B-----------------|
      G--9----5--7---x--| play Chorus
      D--9----5--7---x--|
      A--7----3--5---x--|
      E--0--------------|


Break:

e------------------------------------------------------|
B------------------------------------------------------|
G--9-9-------7-9-9-------7-9-9------5-5----5-7-7----7--| 2x
D--9-9-------7-9-9-------7-9-9------5-5----5-7-7----7--|
A--7-7-------5-7-7-------7-9-9------3-3----3-5-5----5--|
E------------------------------------------------------|

e------5-6-5-5-----5-6-5-5----5-6-5-5--------------------|
B-----------8-----------8----------8---------------------|
G--9-9---------9-9---------9-9--------5-5----5-7-7----7--| 2x
D--9-9---------9-9---------9-9--------5-5----5-7-7----7--|
A--7-7---------7-7---------9-9--------3-3----3-5-5----5--|
E--------------------------------------------------------|


Ending:

Just play the sequence sustaining each chord:

| E     GG    AA   xC   xxxD   xxx |  2x

then:
e-9---------------------------------------------------------|
B--12-10-12-10--10------------------------------------------|
G-------------12--12-11-12-11-9-11-9--9---------------------|
D-----------------------------------12-12-11-12-11-9-11-9---|
A--------------------------------------------------------12-|


    /f   /f        /f    /f
e-10---10--------12----12----|   /f - means full bend.
B----------------------------|


---------------------------------------------
James A. Miller - miller@inf.ufrgs.br
Federal University of Rio Grande do Sul - UFRGS
Porto Alegre - Brazil
From: LISSIANO@TWSUVM.UC.TWSU.EDU
Date: Mon, 25 Dec 95 15:28:59 CST
Subject: "Running Free" solo


Here is the tab for the solo in "Running Free" by Iron Maiden. The existing
tab in OLGA is fine except that only one out of two guitar parts is tabbed.
Cheers, Sergei.

It's not really needed to tab the verses, bridges and the chorus. It's mostly
variations on Em.
Intro: Em G-F#-D-Em  C D      The chords from G to Em are 8th notes approx.

Verse:Em C D Em G A  etc

Chorus: Em G D-Em C D


                             RUNNING FREE
                                 (solo)
I tabbed it as two parts, each one is for two guitars.
Every note played on the first guitar corresponds to a note on the second.

GUITAR I
-9-----------------------------------------------------------|
--12-10-12-10----10------------------------------------------|
--------------12----12-11-12-11-9-11-9----9------------------|
---------------------------------------12---12-11-12-11-9----|
----------------------------------------------------------12-|
-------------------------------------------------------------|


Guitar II
-5-------------------------------------------|
---8-7-8-7-5-7-5---5-------------------------|
-----------------7---7-6-7-6-4-6-4---4-------|
-----------------------------------7---7-5-4-|
---------------------------------------------|
---------------------------------------------|
                           Play this part twice.
                                 Then ....


Guitar I
17---------------------------------------------------------------|
---20-19-20-19-17-19-17----17------------------------------------|
------------------------19----19-18-17-18-16-18-16----16---------|
---------------------------------------------------19---19-17-16-|
-----------------------------------------------------------------|
-----------------------------------------------------------------|

Guitar II
-14---------------------------------------------------------------|
----17-15-17-15-14-15-14----14------------------------------------|
-------------------------16----16-14-16-14----14------------------|
-------------------------------------------17---17-16-17-16-14----|
---------------------------------------------------------------17-|
------------------------------------------------------------------|

Play it twice , then :

Guitar I


------------------------------------------------------|
------------------------------------------------------|
-16----------16---------16-------16------16-----------|
----19-17-16---19-17-16----19-17---19-17----19-17-16--|
------------------------------------------------------|
------------------------------------------------------|

Guitar II

-----------------------------------------------------|
-----------------------------------------------------|
-----------------------------------------------------|
17-16-14-   17-16-14  -17-16-14-17-16-14-17-16-14----|
---------17---------17----------------------------17-|
-=---------------------------------------------------|


Then pick Em for some time
                          and..


Guitar I:

14-14-14-----12-14-12-------------19--|
 -----------------------15-15-15------|
--------------------------------------|
--------------------------------------|
--------------------------------------|
--------------------------------------|


Guitar II :

-12-12-12------------------------------15-|
------------15-15-15----------------------|
------------------------16-16-16----------|
------------------------------------------|
------------------------------------------|
------------------------------------------|

And another little piece:


 Guitar I:                      Guitar II:

-5-7-5-  5--                    2-3-2-0-2-|
-------7-----                   ----------|
-------------       with        ----------|
-------------                   ----------|
-------------                   ----------|
-------------                   ----------|

5.PHANTOM OF THE OPERA

* INTRO : The two guitars play the next riff 3 times
E |-----------------------------------------------------------------------|
B |-----------------------------------------------------------------------|
G |------4-4-4-5p4---7-4---5-4--------------------------------------------|
D |---/5-----------5-----5-----5-4-5-7/-----------------------------------|
A |-------------------------------------2---------------------------------|
E |-----------------------------------------------------------------------|

Then,

Guitar One play

E |-----------------------------------------------------------------------|
B |-----------------------------------------------------------------------|
G |------4-4-4-5p4---7-4---5-4---------7-7-7-9-9-9/11-11-11/12-12-12------|
D |---/5-----------5-----5-----5-4-5-7------------------------------------|
A |-----------------------------------------------------------------------|
E |-----------------------------------------------------------------------|

E |----------------------------14-14-14-|--19p15----19p15----19p15--------|
B |-12-12-12-13-13-13-15-15-15----------|--------17-------17-------17-----|
G |-------------------------------------|---------------------------------|
D |-------------------------------------|---------------------------------|
A |-------------------------------------|---------------------------------|
E |-------------------------------------|---------------------------------|


E |---19p15----19p15----19p15----19p15----19/slide down-------------------|
B |---------17-------17-------17-------17---------------------------------|
G |-----------------------------------------------------------------------|
D |-----------------------------------------------------------------------|
A |-----------------------------------------------------------------------|
E |-----------------------------------------------------------------------|

Guitar Two play

E |-----------------------------------------------------------------------|
B |------------------------------------------------------5-5-5/8-8-8------|
G |------4-4-4-5p4---7-4---5-4---------4-4-4-5-5-5-7-7-7------------------|
D |---/5-----------5-----5-----5-4-5-7------------------------------------|
A |-----------------------------------------------------------------------|
E |-----------------------------------------------------------------------|

E |-----------------------------|--15-------15-------15-------15----------|
B |-10-10-10/12-12-12/15-15-15--|-----17-------17-------17-------17-------|
G |-----------------------------|--------16-------16-------16-------16----|
D |-----------------------------|-----------------------------------------|
A |-----------------------------|-----------------------------------------|
E |-----------------------------|-----------------------------------------|

E |---15-------15-------15-------15/slide down----------------------------|
B |------17-------17-------17---------------------------------------------|
G |---------16-------16-------16------------------------------------------|
D |-----------------------------------------------------------------------|
A |-----------------------------------------------------------------------|
E |-----------------------------------------------------------------------|

* End INTRO

Now,the guitars play the same riff together

* RIFF D
E |-----------------------------------------------------------------------|
B |-----------------------------------------------------------------------|
G |-----------------------------------------7^----------------------------|
D |----2-2-2-5-2-2-2-2-2-5-2-2-2-2-2-5-2-2--5^--7^------------------------|
A |---------------------------------------------5^------------------------|
E |-----------------------------------------------------------------------|
	(Repeat 4 times)

E |-----------------------------------------------------------------------|
B |-----------------------------------------------------------------------|
G |-----------------------------------------------------------------------|
D |----4-4-4-7-4-4-4-4-4-7-4-4/5-5-5-8-5-5-5-5-5-8-5-5--------------------|
A |-----------------------------------------------------------------------|
E |-----------------------------------------------------------------------|
	(Repeat 3 times)
* End RIFF D


* RIFF C
E |-----------------------------------------------------------------------|
B |-----------------------------------------------------------------------|
G |---9--9--X--X--4--4--X--X--5--5--X--X--7--7--X--X----------------------|
D |---9--9--X--X--4--4--X--X--5--5--X--X--7--7--X--X----------------------|
A |---7--7--X--X--2--2--X--X--3--3--X--X--5--5--X--X----------------------|
E |-----------------------------------------------------------------------|
* End RIFF C


* RIFF A
E |-----------------------------------------------------------------------|
B |-----------------------------------------3--3--3-----------------------|
G |-----------------------------------------2--2--2-----------------------|
D |----2-2-2-5-2-2-2-2-2-5-2-2-2-2-2-5-2-2--0--0--0-----------------------|
A |-----------------------------------------------------------------------|
E |-----------------------------------------------------------------------|
	( Repeat 2 times )
* End RIFF A


* RIFF B
E |-----------------------------------------------------------------------|
B |-----------------------------------------------------------------------|
G |------4-4-4-5p4---7-4---5-4--------------------------------------------|
D |---/5-----------5-----5-----5-4-5-7------------------------------------|
A |-----------------------------------------------------------------------|
E |-----------------------------------------------------------------------|
* End RIFF B

The song goes like this :

INTRO

RIFF D
RIFF C
RIFF A
RIFF C
RIFF A

RIFF B (Vocals)
RIFF A (Ooooohh...)
RIFF B (Vocals)
RIFF A (Ooooohh...)
RIFF C (Vocals)
RIFF A (Ooooohh...)
RIFF C (Vocals)

RIFF A

RIFF B (Vocals)
RIFF A (Ooooohh...)
RIFF B (Vocals)
RIFF A (Ooooohh...)
RIFF C (Vocals)
RIFF A (Ooooohh...)
RIFF C (Vocals)

RIFF A
RIFF C


* RIFF E
E |-------------------------------------------------------------------------|
B |-------------------------------------------------------------------------|
G |-------9-------9-------9----9^-7^------9-------9-------9----9^-7^--------|
D |-----9---9---9---9---9---9--9^-7^----9---9---9---9---9---9--7^-5^--------|
A |---7-------7-------7--------7^-5^--7-------7-------7--------7^-5^--------|
E |-------------------------------------------------------------------------|

E |-----------------------------------------------------------------------|
B |-------7-------7-------5-------5---------------------------------------|
G |-----7---7---7-------5---5---5-----------------------------------------|
D |---5-------5-------3-------3-------------------------------------------|
A |-----------------------------------------------------------------------|
E |-----------------------------------------------------------------------|


E |-----------------------------------------------------------------------|
B |-----------------------------------------------------------------------|
G |-------9-------9-------9----9^-7^--------------------------------------|
D |-----9---9---9---9---9---9--9^-7^--------------------------------------|
A |---7-------7-------7--------7^-5^--------------------------------------|
E |-----------------------------------------------------------------------|


* End RIFF E


RIFF E
RIFF E ( Vocals: Keep your distance,walk away...)
...

* SOLO ( The second guitar play arpegians behind )

			C 							Em

E |-------------12---------|----------------------------------------------|
B |---------/12----15b(17)-|-15b(17)rb(15)p12--14b(16)rb(14)p1214b(16)~~--|
G |-14b(16)----------------|----------------------------------------------|
D |------------------------|----------------------------------------------|
A |------------------------|----------------------------------------------|
E |------------------------|----------------------------------------------|


	  F		 		 G			  Em

E |---13-12h13p12----15-12h13p12h13p12h13p12------------------------------|
B |---------------15--------------------------15b(17)~~-------------------|
G |-----------------------------------------------------------------------|
D |-----------------------------------------------------------------------|
A |-----------------------------------------------------------------------|
E |-----------------------------------------------------------------------|


             C									Em

E |-----------------------------------------------------------------------|
B |-------15-17b(19)rb(17)~-17b(20)rb(17)b(20)rb17~-15h17p15--------------|
G |---/16----------------------------------------------------16~----------|
D |-----------------------------------------------------------------------|
A |-----------------------------------------------------------------------|
E |-----------------------------------------------------------------------|


 	   F		 	  G					        Em

E |-12-13-12h13p12----15-12h13p12h13p12h13p12-------------------------------|
B |----------------15---------------------------15b(17)~~-------------------|
G |-------------------------------------------------------------------------|
D |-------------------------------------------------------------------------|
A |-------------------------------------------------------------------------|
E |-------------------------------------------------------------------------|


 			   C

E |--/14-15-17-17b(19)~~-17b(19)rb(17)p14h17p14h17p14h17p14~~--14---------|
B |-----------------------------------------------------------------------|
G |-----------------------------------------------------------------------|
D |-----------------------------------------------------------------------|
A |-----------------------------------------------------------------------|
E |-----------------------------------------------------------------------|

	  Em

E |---14h15p14h15p14/12h14p12h14p12---------------------------------------|
B |---------------------------------15b(17)~------------------------------|
G |-----------------------------------------------------------------------|
D |-----------------------------------------------------------------------|
A |-----------------------------------------------------------------------|
E |-----------------------------------------------------------------------|

 	   F		 	  G					        Em

E |-12-13-12h13p12----15-12h13p12h13p12h13p12-----------------------------|
B |----------------15---------------------------15b(17)~~-----------------|
G |-----------------------------------------------------------------------|
D |-----------------------------------------------------------------------|
A |-----------------------------------------------------------------------|
E |-----------------------------------------------------------------------|

     		C				Em
E |-----------------------------------------------------------------------|
B |-----------------------------------------------------------------------|
G |--/12-14-14b(16)rb(14)b(16)-12h14p12h14p12/11~-11-12-11h12p11h12p11/---|
D |-----------------------------------------------------------------------|
A |-----------------------------------------------------------------------|
E |-----------------------------------------------------------------------|


E |-----------------------------------------------------------------------|
B |-----------------------------------------------------------------------|
G |--/9h11p9h11p9/7h9p7h9p7-7b(9)-----------------------------------------|
D |-----------------------------------------------------------------------|
A |-----------------------------------------------------------------------|
E |-----------------------------------------------------------------------|


 	   F		 	  G					        Em

E |-12-13-12h13p12----15-12h13p12h13p12h13p12-----------------------------|
B |----------------15---------------------------15b(17)~~~~~~-------------|
G |-----------------------------------------------------------------------|
D |-----------------------------------------------------------------------|
A |-----------------------------------------------------------------------|
E |-----------------------------------------------------------------------|

*End SOLO

Bassline then,the slaughtering begin !! ( And not for your daughter )
There's 2 Guitars on harmony

*Guitar One :
------------
	Repeat 4 times (Em,D,C,D) but in the 4th,play the RIFF F instead of
	the last part (Chord D)

		Em

E |--15-------15-------15-------15----------------------------------------|
B |-----17-------17-------17-------17-------------------------------------|
G |--------16-------16-------16-------16----------------------------------|
D |-----------------------------------------------------------------------|
A |-----------------------------------------------------------------------|
E |-----------------------------------------------------------------------|

       D

E |--14-------14-------14-------14----------------------------------------|
B |-----15-------15-------15-------15-------------------------------------|
G |--------14-------14-------14-------14----------------------------------|
D |-----------------------------------------------------------------------|
A |-----------------------------------------------------------------------|
E |-----------------------------------------------------------------------|

	   C

E |--15-------15-------15-------15----------------------------------------|
B |-----17-------17-------17-------17-------------------------------------|
G |--------15-------15-------15-------15----------------------------------|
D |-----------------------------------------------------------------------|
A |-----------------------------------------------------------------------|
E |-----------------------------------------------------------------------|


       D

E |--14-------14-------14-------14----------------------------------------|
B |-----15-------15-------15-------15-------------------------------------|
G |--------14-------14-------14-------14----------------------------------|
D |-----------------------------------------------------------------------|
A |-----------------------------------------------------------------------|
E |-----------------------------------------------------------------------|


*RIFF F

     C   					D

E |--12-12-12-12-12-12------14-14-14-14-14-14-----------------------------|
B |-----------------------------------------------------------------------|
G |-----------------------------------------------------------------------|
D |-----------------------------------------------------------------------|
A |-----------------------------------------------------------------------|
E |-----------------------------------------------------------------------|
*End RIFF F


Play the next part (Em,D,C,RIFF F) 2 times

Then play (Em,D,C,RIFF G,Em,D,C,RIFF H)

*RIFF G

       C				 D

E |----------------------17-15-14-----------------------------------------|
B |----17-15----17-15-------------17-15-----------------------------------|
G |----------17-------17----------------16--------------------------------|
D |-----------------------------------------------------------------------|
A |-----------------------------------------------------------------------|
E |-----------------------------------------------------------------------|
*End RIFF G


*RIFF H

       C				 D

E |-------------------------------17-15-14--------------------------------|
B |----17-15----17-15----17-15--------------------------------------------|
G |----------17-------17-------17-----------------------------------------|
D |-----------------------------------------------------------------------|
A |-----------------------------------------------------------------------|
E |-----------------------------------------------------------------------|
*End RIFF H


*Guitar two :
-------------

	Repeat 4 times (Em,D,C,D) but in the 4th,play the RIFF I instead of
	the last part (Chord D)

	   Em

E |--19h15----19h15-----19h15----19h15------------------------------------|
B |--------17-------17--------17-------17---------------------------------|
G |-----------------------------------------------------------------------|
D |-----------------------------------------------------------------------|
A |-----------------------------------------------------------------------|
E |-----------------------------------------------------------------------|

	   D

E |--17h14----17h14-----17h14----17h14------------------------------------|
B |--------15-------15--------15-------15---------------------------------|
G |-----------------------------------------------------------------------|
D |-----------------------------------------------------------------------|
A |-----------------------------------------------------------------------|
E |-----------------------------------------------------------------------|

	   C

E |--15h12----15h12-----15h12----15h12------------------------------------|
B |--------13-------13--------13-------13---------------------------------|
G |-----------------------------------------------------------------------|
D |-----------------------------------------------------------------------|
A |-----------------------------------------------------------------------|
E |-----------------------------------------------------------------------|

	   D

E |--17h14----17h14-----17h14----17h15------------------------------------|
B |--------15-------15--------15-------15---------------------------------|
G |-----------------------------------------------------------------------|
D |-----------------------------------------------------------------------|
A |-----------------------------------------------------------------------|
E |-----------------------------------------------------------------------|

* RIFF I

	 C					D

E |--12-12-12-12-12-12--14-14-14-14-14-14---------------------------------|
B |--13-13-13-13-13-13--15-15-15-15-15-15---------------------------------|
G |-----------------------------------------------------------------------|
D |-----------------------------------------------------------------------|
A |-----------------------------------------------------------------------|
E |-----------------------------------------------------------------------|

* End RIFF I

Play the next part (Em,D,C,RIFF I) 2 times

Then play (Em,D,C,RIFF J,Em,D,C,RIFF K)


* RIFF J

       C				 D

E |----------------------13-12--------------------------------------------|
B |----13-12----13-12----------15-13-12-----------------------------------|
G |----------14-------14----------------14--------------------------------|
D |-----------------------------------------------------------------------|
A |-----------------------------------------------------------------------|
E |-----------------------------------------------------------------------|
* End RIFF J


* RIFF K

       C				 D

E |-------------------------------13-12-----------------------------------|
B |----13-12----13-12----13-12----------15--------------------------------|
G |----------14-------14-------14-----------------------------------------|
D |-----------------------------------------------------------------------|
A |-----------------------------------------------------------------------|
E |-----------------------------------------------------------------------|
* End RIFF K


Now,The 2 guitars play :


E |-----------------------------------------------------------------------|
B |-----------------------------------------------------------------------|
G |-----------------------------------------------------------------------|
D |--9--9-9-9-9--9-9-9/12--12-12-12-12--12-12-12/14--14-14-14-14----------|
A |--7--7-7-7-7--7-7-7/10--10-10-10-10--10-10-10/12--12-12-12-12----------|
E |-----------------------------------------------------------------------|


E |-----------------------------------------------------------------------|
B |-----------------------------------------------------------------------|
G |-----------------------------------------------------------------------|
D |--14-14-14/17-17-17-17-17-17/16-16-16-16-16-16-------------------------|
A |--12-12-12/15-15-15-15-15-15/14-14-14-14-14-14-------------------------|
E |-----------------------------------------------------------------------|

Play it two times,then play the next riff two times :


E |-----------------------------------------------------------------------|
B |-----------------------------------------------------------------------|
G |--4^-4-4-4^-4-4-4^-4-4----------4^-4-4-4^-4-4-4^-4-4-------------------|
D |--2^-2-2-2^-2-2-2^-2-2--2p0---0-2^-2-2-2^-2-2-2^-2-2--2p0---0----------|
A |----------------------------2-----------------------------2------------|
E |-----------------------------------------------------------------------|

E |-----------------------------------------------------------------------|
B |-----------------------------------------------------------------------|
G |--7^-7-7-7^-7-7-7^-7-7-7^--9^-9-9-9/---5-/-7---------------------------|
D |--5^-5-5-5^-5-5-5^-5-5-5^--7^-7-7-7/---5-/-7---------------------------|
A |---------------------------------------3-/-5---------------------------|
E |-----------------------------------------------------------------------|


The harmony
-----------

	Guitar One:

E |------------------------------------------7----------------------------|
B |-------------------8-----8-7-8--8-7-8-7-8---8~--8-7-8~--7-8-7-8-7------|
G |--9-7-9--9-7-9-7-9---9~-------------------------------------------9~---|
D |-----------------------------------------------------------------------|
A |-----------------------------------------------------------------------|
E |-----------------------------------------------------------------------|


E |-----------------------------------------------------------------------|
B |----------8-7---10-8-7-------------------------------------------------|
G |--9-7-9~------9--------9~----------------------------------------------|
D |-----------------------------------------------------------------------|
A |-----------------------------------------------------------------------|
E |-----------------------------------------------------------------------|


	Guitar Two:

E |-----------------------------------------------------------10----------|
B |---------------------------12-----12-10-12--12-10-12-10-12----12~------|
G |--12-11-12--12-11-12-11-12----12~--------------------------------------|
D |-----------------------------------------------------------------------|
A |-----------------------------------------------------------------------|
E |-----------------------------------------------------------------------|


E |-----------------------------------------------------------------------|
B |--12-10-12--10-12-10-12-10-----------------12-10----13-12-10-----------|
G |---------------------------12~---12-11-12~-------12----------12~-------|
D |-----------------------------------------------------------------------|
A |-----------------------------------------------------------------------|
E |-----------------------------------------------------------------------|

6.TRANSYLVANIA

Riff 1: Play 4 times
 D                                   C   F
-----------------------|--------------------------|
-----------------------|--------------------------|
-----------------------|--------------------------|
-0-0-0-0-0--0-0-0-0-0--|-0-0-0-0-0-------3--------|
-----------------------|-------------3------------|
-----------------------|--------------------------|

Riff 2:play 4 times
 D                                   C   F
-----------------------|--------------------------|
-----------------------|--------------------------|
-----------------------|--------------------------|
-2-2-2-2-2--2-2-2-2-2--|-2-2-2-2-2-------5--------|
-----------------------|-------------5------------|
-----------------------|--------------------------|

Main Tune:
 D                                   C   F
-----------------------|--------------------------|
-----------------------|--------------------------|
-----------------------|--------------------------|
-2-----4--5--4----2----|---4--5---4----0----------|
-----------------------|--------------------------|
-----------------------|--------------------------|


Riff 1:
 D                                   C   F
-----------------------|--------------------------|
-----------------------|--------------------------|
-----------------------|--------------------------|
-0-------------2-------|---4--5---4----2----------|
------2--3-------------|--------------------------|
-----------------------|--------------------------|

-----------------------|--------------------------|
-----------------------|--------------------------|
-----------------------|--------------------------|
-4-5--4---2------------|---4--5---4----0----------|
-----------------------|--------------------------|
-----------------------|--------------------------|

-----------------------|--------------------------|
-----------------------|--------------------------|
-----------------------|--------------------------|
-0-------------2-------|--------------------------|
------2--3-------------|--4--5--4--2--------------|
-----------------------|--------------------------|

-----------------------|--------------------------|
-----------------------|--------------------------|
-----------------------|--------------------------|
-----------------------|--------------------------|
----4--5--4--2---------|--4--5--4--0--0---------2-|
-----------------------|-----------------2--3-----|
Play through one more time
Riff :2

-----------------------|--------------------------|
-----12---8---6--------|----6-8-6--7-8-7----------|
-----------------------|--------------------------|
-----------------------|--------------------------|
-----------------------|--------------------------|
-----------------------|--------------------------|

-----------------------|--------------------------|
-----9--8---6---6------|--------------------------|
-----------------------|--------------------------|
-----------------------|--------------------------|
-----------------------|--------------------------|
-----------------------|--------------------------|

7.STRANGE WORLD

Clean Guitar 1


E||------------------|------------------|--------------|-----------------|
B||------------------|------------------|--------------|-----------------|
G||------------------|------------------|--------------|-----------------|
D||------------------|------------------|--------------|-----------------|
A||------------------|------------------|--------------|-----------------|
E||------------------|------------------|--------------|-----------------|

  harmonics................
--7------12------7----7--12------|--------------------|
---------------------------------|--------------------|
---------------------------------|--------------------|
---------------------------------|--------------------|
---------------------------------|--------------------|
---------------------------------|--------------------|

  harmonics..................
--------12--7------7----7--12------|--------------------|
--12-------------------------------|--------------------|
-----------------------------------|--------------------|
-----------------------------------|--------------------|
-----------------------------------|--------------------|
-----------------------------------|--------------------|

  harmonics......................
--7--------12------12----------12------|--------------------|
-------12------------------12----------|--------------------|
-----------------------12--------------|--------------------|
---------------------------------------|--------------------|
---------------------------------------|--------------------|
---------------------------------------|--------------------|

  harmonics....................
--7----12--7----7--12--------12------|--------------------------|
-------------------------12----------|--------------------------|
-------------------------------------|--------------------------|
-------------------------------------|--------------------------|
-------------------------------------|--------------------------|
-------------------------------------|--------------------------|

--------------------------|--------------------------|-------------------|
--------------------------|--------------------------|-------------------|
--------------------------|--------------------------|-------------------|
--------------------------|--------------------------|-------------------|
--------------------------|--------------------------|-------------------|
--------------------------|--------------------------|-------------------|

--------------------------|--------------------------|-------------------|
--------------------------|--------------------------|-------------------|
--------------------------|--------------------------|-------------------|
--------------------------|--------------------------|-------------------|
--------------------------|--------------------------|-------------------|
--------------------------|--------------------------|-------------------|

                               (verse 1)
--------------------------|--------2-----2-----------------------------|
--------------------------|----------0------0-----------1--3-5-3-0-1-0-|
--------------------------|----0-------0-------------0-----------------|
--------------------------|----2------------------2--------------------|
--------------------------|----2---------------3-----------------------|
--------------------------|----0---------------------------------------|

----------3-2-------2-------0---0-10/12-12-12\10--|
------3-------3---------------1---10/12-12-12\10--|
----2---------------------0-----------------------|
--0-----0--------0--------------------------------|
-----------------------3--------------------------|
--------------------------------------------------|

----2---2-----2-----------------------------|
----0-----0------0-----------1--3-5-3-0-1-0-|
----0-------0-------------0-----------------|
----2------------------2--------------------|
----2---------------3-----------------------|
----0---------------------------------------|

----------3-2-------2-------0-10/12-12-12-12-12\10--|
------3-------3---------------10/12-12-12-12-12\10--|
----2---------------------0-------------------------|
--0-----0--------0----------------------------------|
-----------------------3----------------------------|
----------------------------------------------------|

--------2-----2-----------------------------|
----------0------0-----------1--3-5-3-0-1-0-|
----0-------0-------------0-----------------|
----2------------------2--------------------|
----2---------------3-----------------------|
----0---------------------------------------|

                              harmonics.......
----------3-2-------2-------0-------------------|
------3-------3---------------------------------|
----2---------------------0------------12-7--5--|
--0-----0--------0------------------12----------|
-----------------------3---------12-------------|
------------------------------12----------------|

--------2-----2-----------------------------|
----------0------0-----------1--3-5-3-0-1-0-|
----0-------0-------------0-----------------|
----2------------------2--------------------|
----2---------------3-----------------------|
----0---------------------------------------|

----------3-2-------2-------0-10/12-12-12-12-12\10--|--------7---7--------7------------|
------3-------3---------------10/12-12-12-12-12\10--|------8---8----8-----8------------|
----2---------------------0-------------------------|------------------9--9------------|
--0-----0--------0----------------------------------|----------------------------------|
-----------------------3----------------------------|----------------------------------|
----------------------------------------------------|--0-------------------------------|

                       harmonics.................
--------------------|--12------7------7--------12------|-----------------|
--------------------|----------------------12----------|-----------------|
--------------------|----------------------------------|-----------------|
--------------------|----------------------------------|-----------------|
--------------------|----------------------------------|-----------------|
--------------------|----------------------------------|-----------------|

  harmonics....................
--12--------12------7--------12------|--------------------|
--------12---------------12----------|--------------------|
-------------------------------------|--------------------|
-------------------------------------|--------------------|
-------------------------------------|--------------------|
-------------------------------------|--------------------|

  harmonics....................
--12--------12------7--------12------|--------------------|
--------12---------------12----------|--------------------|
-------------------------------------|--------------------|
-------------------------------------|--------------------|
-------------------------------------|--------------------|
-------------------------------------|--------------------|

   harmonics...................
--12--------12------7--------12------|--------------------------|
--------12---------------12----------|--------------------------|
-------------------------------------|--------------------------|
-------------------------------------|--------------------------|
-------------------------------------|--------------------------|
-------------------------------------|--------------------------|

--------------------------|--------------------------|-------------------|
--------------------------|--------------------------|-------------------|
--------------------------|--------------------------|-------------------|
--------------------------|--------------------------|-------------------|
--------------------------|--------------------------|-------------------|
--------------------------|--------------------------|-------------------|

--------------------------|--------------------------|-------------------|
--------------------------|--------------------------|-------------------|
--------------------------|--------------------------|-------------------|
--------------------------|--------------------------|-------------------|
--------------------------|--------------------------|-------------------|
--------------------------|--------------------------|-------------------|

                               (verse 2)
--------------------------|--------2-----2-----------------------------|
--------------------------|----------0------0-----------1--3-5-3-0-1-0-|
--------------------------|----0-------0-------------0-----------------|
--------------------------|----2------------------2--------------------|
--------------------------|----2---------------3-----------------------|
--------------------------|----0---------------------------------------|

----------3-2-------2-------0---0-10/12-12-12\10--|
------3-------3---------------1---10/12-12-12\10--|
----2---------------------0-----------------------|
--0-----0--------0--------------------------------|
-----------------------3--------------------------|
--------------------------------------------------|

----2---2-----2-----------------------------|
----0-----0------0-----------1--3-5-3-0-1-0-|
----0-------0-------------0-----------------|
----2------------------2--------------------|
----2---------------3-----------------------|
----0---------------------------------------|

----------3-2-------2-------0-10/12-12-12-12-12\10--|
------3-------3---------------10/12-12-12-12-12\10--|
----2---------------------0-------------------------|
--0-----0--------0----------------------------------|
-----------------------3----------------------------|
----------------------------------------------------|

--------2-----2-----------------------------|
----------0------0-----------1--3-5-3-0-1-0-|
----0-------0-------------0-----------------|
----2------------------2--------------------|
----2---------------3-----------------------|
----0---------------------------------------|

----------3-2-------2-------0-------------------|
------3-------3---------------------------------|
----2---------------------0------------12-7--5--|
--0-----0--------0------------------12----------|
-----------------------3---------12-------------|
------------------------------12----------------|

--------2-----2-----------------------------|
----------0------0-----------1--3-5-3-0-1-0-|
----0-------0-------------0-----------------|
----2------------------2--------------------|
----2---------------3-----------------------|
----0---------------------------------------|

----------3-2-------2-------0-10/12-12-12-12-12\10--|--------7---7--------7------------|
------3-------3---------------10/12-12-12-12-12\10--|------8---8----8-----8------------|
----2---------------------0-------------------------|------------------9--9------------|
--0-----0--------0----------------------------------|----------------------------------|
-----------------------3----------------------------|----------------------------------|
----------------------------------------------------|--0-------------------------------|

                       harmonics..................
--------------------|--12--------7------7----7--12------|
--------------------|--------12-------------------------|
--------------------|-----------------------------------|
--------------------|-----------------------------------|
--------------------|-----------------------------------|
--------------------|-----------------------------------|

  harmonics......................         harmonics.................
--7--------12------12----------12------|--7----7--12------7----7--12------|
-------12------------------12----------|----------------------------------|
-----------------------12--------------|----------------------------------|
---------------------------------------|----------------------------------|
---------------------------------------|----------------------------------|
---------------------------------------|----------------------------------|

--2----------------|--||
--0----------------|--||
--0----------------|--||
--2----------------|--||
--2----------------|--||
--0----------------|--||

Clean Guitar 2


E||----------0---------------0-------|----------0---------------0-------|
B||------------0---------------0-----|------------0---------------0-----|
G||--------0-----0---------0-----0---|--------0-----0---------0-----0---|
D||------4---------4-----4---------4-|------4---------4-----4---------4-|
A||----2---------------2-------------|----2---------------2-------------|
E||--0---------------0---------------|--0---------------0---------------|

--0-------------------|------0---------0--------------0---|
----0-----------------|--------0---------0----------0---0-|
------0---------------|--0-------0--0------0------0-------|
--------4-------------|--9----------5-----------7---------|
----------2-----------|--10---------7---------9-----------|
----------------------|-----------------------------------|

-------0---0----0---0------0---------0------|------0---------0--------------0---|
---------0---7----0---0------0-7-------0-7--|--------0---------0----------0---0-|
-----0--------------------------------------|----------0---------0------0-------|
------------------------5-------------------|-------------------------7---------|
--7-------------------------------7---------|--10---------7---------9-----------|
--------------------------------------------|-----------------------------------|

---------7-----0---0---0-----0-----------0-------|------0-----------0---------------0---|
-------0-----7---7---7---7-----7---7---0---0---0-|----0---0---0-------0---0-------0---0-|
-----0-----0---------------0-----0-----------0---|----------0-----------0-------0-------|
-------------------------------------5-----------|--5-------------5-----------7---------|
--7----------------------------------------------|--------------7-----------9-----------|
-------------------------------------------------|--------------------------------------|

---------7-----0---0---0---0---0---0------0---0-|------0---------0--------------0---|
-------0-----7---7---7---7---7---7------7---7---|--------0---------0----------0---0-|
-----0-----0------------------------------------|----------0---------0------0-------|
-------------------------5-----------5----------|-------------------------7---------|
--7---------------------------------------------|--10---------7---------9-----------|
------------------------------------------------|-----------------------------------|

---------------0---0------0---0------0---0---|--3--------3--------5-------5--------|
-------0-7--7----7---7-7----7---7-7----7---7-|-----5--------5-----7----7-----7-----|
-----0---------------------------------------|--------5--------5/-7-------------7--|
---------------------------------------------|-------------------------------------|
--7------7--7----------7----------7----------|-------------------------------------|
---------------------------------------------|-------------------------------------|

--7---7-----7--------7---7-----7--------|--3--------3---------5--------5----------|
--8-----8------8-----7-----7------7-----|-----5---------5---5----7----------7---7-|
--9-------9-------9--9-------9-------9--|--------5--------5---------7-----7---7---|
----------------------------------------|-----------------------------------------|
----------------------------------------|-----------------------------------------|
----------------------------------------|-----------------------------------------|

--7--------7----------7----------7------7--|--3--------3--------5-------5--------|
-----8-----8----8---8-7----7---7-7----7-7--|-----5--------5-----7----7-----7-----|
--------9--9--9---9---9--9---9---9--9---9--|--------5--------5/-7-------------7--|
-------------------------------------------|-------------------------------------|
-------------------------------------------|-------------------------------------|
-------------------------------------------|-------------------------------------|

--7---7-----7--------7---7-----7--------|--3--------3--------5-------5--------|
--8-----8------8-----7-----7------7-----|-----5--------5-----7----7-----7-----|
--9-------9-------9--9-------9-------9--|--------5--------5/-7-------------7--|
----------------------------------------|-------------------------------------|
----------------------------------------|-------------------------------------|
----------------------------------------|-------------------------------------|

                                              (verse 1)
--7---7-----7--------7---7-----7--------|-----7-----7--------7--------7--------|
--8-----8------8-----7-----7------7-----|-------8------8--------8--------8-----|
--9-------9-------9--9-------9-------9--|---------9-------9--------7--------7--|
----------------------------------------|--------------------------------------|
----------------------------------------|--------------------------------------|
----------------------------------------|--------------------------------------|

--5-----5-----5--------3--------3-----3--|--7--------7-------7--7--------7------|
----7-----7------7--------5--------5-----|-----8-------8---8-------8-----8------|
------7-----7-------7--------5-----------|--------9------9------------7--7------|
-----------------------------------------|--------------------------------------|
-----------------------------------------|--------------------------------------|
-----------------------------------------|--------------------------------------|

--5--------5-------5--3--------3-----3--|--7--------7-------7--7--------7------|
-----7-------7---7-------5--------5-----|-----8-------8---8-------8-----8------|
--------7------7------------5-----------|--------9------9------------7--7------|
----------------------------------------|--------------------------------------|
----------------------------------------|--------------------------------------|
----------------------------------------|--------------------------------------|

--5--------5--------3--------3------|--7--------7------7--------7-------|
-----7-------7---------5-----5------|-----8-----8---------8--------8----|
--------7------7----------5--5------|--------9--9------------7----------|
------------------------------------|-----------------------------------|
------------------------------------|-----------------------------------|
------------------------------------|-----------------------------------|

--5--------5--------3--------3--------|--------------------0---0------0---0-|
-----7--------7--------5--------5-----|---------------7--7---7---7--7---7---|
--------7--------7--------5--------5--|---------------0---------------------|
--------------------------------------|---------------5---------------------|
--------------------------------------|---------------7---------------------|
--------------------------------------|--0----------------------------------|

------0---------0--------------0---|---------7-----0---0---0-----0-----------0-------|
--------0---------0----------0---0-|-------0-----7---7---7---7-----7---7---0---0---0-|
--0-------0--0------0------0-------|-----0-----0---------------0-----0-----------0---|
--9----------5-----------7---------|-------------------------------------5-----------|
--10---------7---------9-----------|--7----------------------------------------------|
-----------------------------------|-------------------------------------------------|

------0---------0--------------0---|-----------0------0---0------0---0------0---0-|
--------0---------0----------0---0-|---------7---7--7---7---7--7---7---7--7---7---|
--0-------0--0------0------0-------|-------0-----0----------0----------0----------|
--9----------5-----------7---------|-----5-------5----------5----------5----------|
--10---------7---------9-----------|--7----------7----------7----------7----------|
-----------------------------------|----------------------------------------------|

------0---------0--------------0---|---------7-----0---0---0-----0-----------0-------|
--------0---------0----------0---0-|-------0-----7---7---7---7-----7---7---0---0---0-|
--0-------0--0------0------0-------|-----0-----0---------------0-----0-----------0---|
--9----------5-----------7---------|-------------------------------------5-----------|
--10---------7---------9-----------|--7----------------------------------------------|
-----------------------------------|-------------------------------------------------|

------0---------0--------------0---|---------------0---0------0---0------0---0---|
--------0---------0----------0---0-|-------0-7--7----7---7-7----7---7-7----7---7-|
--0-------0--0------0------0-------|-----0---------------------------------------|
--9----------5-----------7---------|---------------------------------------------|
--10---------7---------9-----------|--7------7--7----------7----------7----------|
-----------------------------------|---------------------------------------------|

--------3---------3---------5---------5---|--7---7-----7--------7------7-------7-------|
-----5----5----5----5----7----7----7----7-|--8-----8------8-----7--7-----7---7---7---7-|
--5---------5---------7---------7---------|--9-------9-------9--9----9-----9-------9---|
------------------------------------------|--------------------------------------------|
------------------------------------------|--------------------------------------------|
------------------------------------------|--------------------------------------------|

--3--------3--------5-----5------5-----|--7---7-----7--------7------7-------7-------|
-----5--------5----------------7----7--|--8-----8------8-----7--7-----7---7---7---7-|
--------5--------5-----7-----7---------|--9-------9-------9--9----9-----9-------9---|
---------------------------------------|--------------------------------------------|
---------------------------------------|--------------------------------------------|
---------------------------------------|--------------------------------------------|

-----3--------3--------5--------5-----|-----7--------7-----7------7--------|
--------5--------5--------7--------7--|--------8--------8--7---------7-----|
--5--------5--------7--------7--------|--9--------9--------9------------9--|
--------------------------------------|------------------------------------|
--------------------------------------|------------------------------------|
--------------------------------------|------------------------------------|

-----3--------3--------5--------5-----|-----7--------7-----7------7--------|
--------5--------5--------7--------7--|--------8--------8--7---------7-----|
--5--------5--------7--------7--------|--9--------9--------9------------9--|
--------------------------------------|------------------------------------|
--------------------------------------|------------------------------------|
--------------------------------------|------------------------------------|

   (verse 2) w/wah wah
--7------7--------7--------7------|--5--------5------3--------3--------|
--8---------8--------8-----8------|-----7-----7---------5--------5-----|
--9------------9--------7--7------|--------7--7------------5--------5--|
----------------------------------|------------------------------------|
----------------------------------|------------------------------------|
----------------------------------|------------------------------------|

--7--------7------7--------7------|--5--------5------3--------3--------|
-----8-----8---------8-----8------|-----7-----7---------5--------5-----|
--------9--9------------7--7------|--------7--7------------5--------5--|
----------------------------------|------------------------------------|
----------------------------------|------------------------------------|
----------------------------------|------------------------------------|

--7--------7------7--------7------|--5--------5------3--------3--------|
-----8-----8---------8-----8------|-----7-----7---------5--------5-----|
--------9--9------------7--7------|--------7--7------------5--------5--|
----------------------------------|------------------------------------|
----------------------------------|------------------------------------|
----------------------------------|------------------------------------|

--7--------7------7--------7------|--5--------5------3--------3--------|
-----8-----8---------8-----8------|-----7-----7---------5--------5-----|
--------9--9------------7--7------|--------7--7------------5--------5--|
----------------------------------|------------------------------------|
----------------------------------|------------------------------------|
----------------------------------|------------------------------------|

--7------7-------------0---0------0---0-|------0---------0--------------0---|
--8---------8-----7--7---7---7--7---7---|--------0---------0----------0---0-|
--9------------9--0----------0----------|--0-------0--0------0------0-------|
------------------5----------5----------|--9----------5-----------7---------|
------------------7----------7----------|--10---------7---------9-----------|
----------------------------------------|-----------------------------------|

---------7-----0---0---0-----0-----------0-------|------0---------0--------------0---|
-------0-----7---7---7---7-----7---7---0---0---0-|--------0---------0----------0---0-|
-----0-----0---------------0-----0-----------0---|--0-------0--0------0------0-------|
-------------------------------------5-----------|--9----------5-----------7---------|
--7----------------------------------------------|--10---------7---------9-----------|
-------------------------------------------------|-----------------------------------|

---------7-----0---0---0-----0-----------0-------|------0---------0--------------0---|
-------0-----7---7---7---7-----7---7---0---0---0-|--------0---------0----------0---0-|
-----0-----0---------------0-----0-----------0---|--0-------0--0------0------0-------|
-------------------------------------5-----------|--9----------5-----------7---------|
--7----------------------------------------------|--10---------7---------9-----------|
-------------------------------------------------|-----------------------------------|

---------7-----0---0---0-----0-----------0-------|------0---------0--------------0---|
-------0-----7---7---7---7-----7---7---0---0---0-|--------0---------0----------0---0-|
-----0-----0---------------0-----0-----------0---|--0-------0--0------0------0-------|
-------------------------------------5-----------|--9----------5-----------7---------|
--7----------------------------------------------|--10---------7---------9-----------|
-------------------------------------------------|-----------------------------------|

-------------------0-------|--0----------------|--||
--7------------------0-----|--7----------------|--||
--0--------------0-----0---|--0----------------|--||
--5------------4---------4-|--5----------------|--||
--7----------2-------------|--7----------------|--||
-----------0---------------|--0----------------|--||


Lead Guitar


E||------------------|------------------|--------------|--------------------|
B||------------------|------------------|--------------|--------------------|
G||------------------|------------------|--------------|--------------------|
D||------------------|------------------|--------------|--------------------|
A||------------------|------------------|--------------|--------------------|
E||------------------|------------------|--------------|--------------------|

--------------------------|--------------------|--------------------------|
--------------------------|--------------------|--------------------------|
--------------------------|--------------------|--------------------------|
--------------------------|--------------------|--------------------------|
--------------------------|--------------------|--------------------------|
--------------------------|--------------------|--------------------------|

--------------------|--------------------------|--------------------|
--------------------|--------------------------|--------------------|
--------------------|--------------------------|--------------------|
--------------------|--------------------------|--------------------|
--------------------|--------------------------|--------------------|
--------------------|--------------------------|--------------------|

-------------------------------|------------14--15--15/17~----15-17p15\14-15p14-----|
-------------------------17p15-|--17~-------------------------------------------15--|
-------------------------------|----------------------------------------------------|
-------------------------------|----------------------------------------------------|
-------------------------------|----------------------------------------------------|
-------------------------------|----------------------------------------------------|

-----------------------------------------|----------------------------------------------|
--17~---------17b17p15-17~---------------|-------------15-------------12-13-15-12-13-15/|
--------------------------------------12-|--14b-----------14b-14~-----------------------|
-----------------------------------14----|----------------------------------------------|
-----------------------------------------|----------------------------------------------|
-----------------------------------------|----------------------------------------------|

-------------14-14h15-14------------------|
--17~--------------------15-17~-----------|
----------------------------------------7/|
--------------------------------------9---|
------------------------------------------|
------------------------------------------|

-----------------------------------------------|-------------------------------12-14-|
---------7-8p7---7-8/-10~-----8h10p8-7h8p7-----|-------------------------------------|
--9~-----------9---------------------------9-7-|--9b---9b-9b-9b-9r7-9~---------------|
-----------------------------------------------|-------------------------------------|
-----------------------------------------------|-------------------------------------|
-----------------------------------------------|-------------------------------------|

--15~-----12-14-15-12-14-15/17--14h15----14-------------------|------|---------|
--------------------------------------17----15h17-13p12-13-15-|--17~-|---------|
--------------------------------------------------------------|------|------12-|
--------------------------------------------------------------|------|---14----|
--------------------------------------------------------------|------|---------|
--------------------------------------------------------------|------|---------|

-------------------------------------|--15b-----15b-15b---15b--15-14-12-------------|
-------------12-15b-15~-----------12-|----------------------------------15b---12-15-|
--14b--------------------------------|----------------------------------------------|
-------------------------------------|----------------------------------------------|
-------------------------------------|----------------------------------------------|
-------------------------------------|----------------------------------------------|

-------------14-15-17r-15-17p15---14-15-14------------------|
--17r-----17-------------------------------17p15h17p15-17---|
------------------------------------------------------------|
------------------------------------------------------------|
------------------------------------------------------------|
------------------------------------------------------------|

------14-15-14---------------------15--------------|
---------------15-------15----15b-----15r-15r------|
------------------16-14----------------------------|
---------------------------------------------------|
---------------------------------------------------|
---------------------------------------------------|

-----------------------------------14-15-17-19-17-15-|
-----------------------------15-17-------------------|
--14r---14r----16b--16----16-------------------------|
-----------------------------------------------------|
-----------------------------------------------------|
-----------------------------------------------------|

--17r-----15h17p15\14h15p14h15p14h15p14----14-----------------------------------------------|
----------------------------------------17----17p15h17p15h17p15----15-----------------------|
----------------------------------------------------------------16----16p14\12h14-14r12h14--|
--------------------------------------------------------------------------------------------|
--------------------------------------------------------------------------------------------|
--------------------------------------------------------------------------------------------|

-----------------------------------------------------12-|
--------------------------------------------------12----|
--14r-----12-14-12-11-12-11----------------12-14b-------|
----------------------------12/14~------14--------------|
--------------------------------------------------------|
--------------------------------------------------------|

---------15--------------------------------------------|---------------------------|
--15b---------15r--------------------------------------|---------------------------|
--------------------14r-----12h14p12\11h12p11\9h11p9\7-|--9~-----------------------|
-------------------------------------------------------|---------------------------|
-------------------------------------------------------|---------------------------|
-------------------------------------------------------|---------------------------|


Bass Guitar


G||------------------|------------------|--------------|--|---------------------------|
D||------------------|------------------|--------------|--|---------------------------|
A||------------------|------------------|--------------|--|---------------------------|
E||------------------|------------------|--------------|--|--0------------------------|

--------------------------|---------------------------|-----------------------------|
--------------14----------|---------------------------|--14-------------------------|
------------------14------|---------------------------|----------14------12--10--9\-|
----------------------12\-|--0------------------------|-----------------------------|

---------------------------|-----------------------------|
---------------------------|--14-------------------------|
---------------------------|----------14------12--10--9\-|
--0------------------------|-----------------------------|

---------------------------------|--------------------------------------------|
---------------------------7--9\-|--------2-3-5---3-2---------4-5-7--4-5-4----|
---------7------7------10--------|--3---3-------------3-5---5--------------5--|
--0------------------------------|--------------------------------------------|

-----------------9-9-9-9-9-9-7----------------|-----------------------------------------|
-----------7-9-----------------9-7------------|--------2-3-5----5-3-------4-5-7--5-4----|
--7---7-10-------------------------10-9-10\---|--3---3--------------5---5------------5--|
----------------------------------------------|-----------------------------------------|

----------------------12-14-12-11-12-11---------|
----------7-9---9/14--------------------14\-----|
--7----10---------------------------------------|
------------------------------------------------|

-----------------------------------------|-----------------9-9-9-9-9-9-7----------------|
--------2-3-5----3-2-------4-5-7--5-4----|-----------7-9-----------------9-7------------|
--3---3--------------5---5------------5--|--7---7-10-------------------------10-9-10\---|
-----------------------------------------|----------------------------------------------|

--------------------------------------|----------------------------------------|
-----------5---2-------------7--5--4--|-------------------------------------5--|
--3---3-3--------3--5---5-5-----------|--7---7-7--7---5-7-5-7---7-7--7--5-7----|
--------------------------------------|----------------------------------------|

--------------------------------------|--------------------------------------|
--------------------------------------|--------------5-----------------------|
--7-----7-5-7---------------------2-3-|--5---5-5--5-----5--3---3-3--3--0-----|
--0---0----------7\-3----3--3---3-----|-----------------------------------3--|

-----------------------------------------|---------------------------------------|
-------------------------------5---3-2---|-----------5---3-2--------------2-3-5--|
--7---5-7-5-7\--3-2-0------------------3-|--5---5-5-----------3---3-3--3---------|
----------------------3---3-3------------|---------------------------------------|

----------------------------------------|---------------------------------------|
----------------------------------------|--------------5--2---------------------|
--7---7-7--12\----------------------2-3-|--5---5-5--5--------3---3-3--3-2-0-----|
---------------7--5--3---3-3--3---3-----|------------------------------------3--|

--------------------------------------|--------------------------------------|
--------------------------------------|--------------5-----------------------|
--7-----7-5-7---------------------2-3-|--5---5-5--5-----5--3---3-3--3--0-----|
--0---0----------7\-3----3--3---3-----|-----------------------------------3--|

---------------------------------|--------------------|---------------------------|
---------------------------------|--------------------|---------------------------|
--7---7-7-7-7----7\--------------|--------------------|---------------------------|
--------------------0------------|--------------------|--0------------------------|

--------------------------|---------------------------|-----------------------------|
--------------14----------|---------------------------|--14-------------------------|
------------------14--12\-|---------------------------|----------14------12--10--9\-|
--------------------------|--0------------------------|-----------------------------|

---------------------------|-----------------------------|
---------------------------|--14-------------------------|
---------------------------|----------14------12--10--9\-|
--0------------------------|-----------------------------|

------------------------------------|--------------------------------------------|
------------------9--7--------------|--------2---2-3-5--5-4-------4---4-5-7--7-5-|
--7----7--7----7--------10--9--7\---|--3---3---3------------5---5---5------------|
------------------------------------|--------------------------------------------|

----------------------------------------------------------|
--------5-7-9---9/14-14-14-14-14-12-------12--------------|
--7---7-----------------------------14-12----14-12-10\7-5-|
----------------------------------------------------------|

-----------------------------------7------|
--------2------2-3-5--------4---7----7-5--|
--3---3---3-5---------5---5---5-----------|
------------------------------------------|

----------------------14-12-11----12-11-------12-11-------|
--------5-7/9---9/14-----------12-------12-14-------12----|
--7---7------------------------------------------------12\|
----------------------------------------------------------|

----------------5------------------------|
--------2-3-5-----5-3-------4---4--5--7--|
--3---3---------------5---5---5----------|
-----------------------------------------|

----------------------------------------------------------|
--------5-7-9---9/14-14-14-14-14-12-------12--------------|
--7---7-----------------------------14-12----14-12-10\7-5-|
----------------------------------------------------------|

---------------------------------------|-------------------------------------|
-----------5---3-------------7--5-4----|-------------------------------------|
--3---3-3--------3--5---5-5---------5--|--7----7--7---3-5--7---7-7--7--5-----|
---------------------------------------|----------------------------------5--|

--------------------------------------|------------------------------------|
--------------------------------------|-------------5----------------------|
--7-----7-5-7---------------------2-3-|--5----5--5-----5--3----3--3--2--0--|
------0----------7\-3----3--3---3-----|------------------------------------|

-----------------------------------------|-------------------------------------|
-------------------------------5---3-2---|----------5---4----------------3--5--|
--7---5-7-5-7\--3-2-0------------------3-|--5----5--------7-5-3----3--3--------|
----------------------3---3-3------------|-------------------------------------|

------------------------------------------|------------------------------------|
------------------------------------------|-------------5----------------------|
--7---7-7--10-9-7\5-------------------2-3-|--5----5--5-----5--3----3--3--2--0--|
--------------------7\5-3----3--3---3-----|------------------------------------|

-----------------------------------------|------------------------------------|
-----------------------------------------|-------------5----------------------|
--7---7-7-7-7---7--------------------2-3-|--5----5--5-----5--3----3--3--2--0--|
------------------7-5-3---3-3--3---3-----|------------------------------------|

------------------------------|--------------------|---------------------------|
------------------------------|--------------------|---------------------------|
--7----7--7\------------------|--------------------|---------------------------|
-----------------0------------|--------------------|--0------------------------|

--------------------------|---------------------------|-----------------------------|
--------------14----------|---------------------------|--14-------------------------|
------------------14------|---------------------------|----------14------12--10--9\-|
----------------------12\-|--0------------------------|-----------------------------|

---------------------------|-----------------------------|--------------------|
---------------------------|-----------------12------12--|--14----------------|
---------------------------|--7------12----------14------|--------------------|
--0------------------------|-----------------------------|--------------------|

-------------------|--||
-------------------|--||
--7----------------|--||
--0----------------|--||

8.CHARLOTTE AND HARLOT

This is the intro part (one guitar):

E-----------------------------|------------------------|----------------|
B-----------------------------|------------------------|----------------|
G-----------------------------|------------------------|----------------|
D---12--------10-----9-----7--|-----5----5--5h7--7--7--|----------------|
A---12--------10-----9-----7--|-----5----5--5h7--7--7--|----------------|
E-----------------------------|------------------------|----------------|

E---------------------------|--------------------|----------------------|
B---------------------------|--------------------|----------------------|
G---------------------------|--------------------|----------------------|
D---7p-5--5--5-----5-----5--|-----7-----7--7-----|----------------------|
A---7p-5--5--5-----5-----5--|-----7-----7--7-----|----------------------|
E---------------------------|--------------------|----------------------|

E---------------------------|--------------------|----------------------|
B---------------------------|--------------------|----------------------|
G---------------------------|--------------------|----------------------|
D---7p-5--5--5-----5-----5--|-----7-----7--7-----|----------------------|
A---7-p5--5--5-----5-----5--|-----7-----7--7-----|----------------------|
E---------------------------|--------------------|----------------------|

One guitar plays the above riff again, and the other guitar plays this:

E----------------------------|-------------------------|----------------|
B---10--------8-----7--------|-------------------------|----------------|
G-------------------------9--|-----7-----7--7h9--9--9--|----------------|
D----------------------------|-------------------------|----------------|
A----------------------------|-------------------------|----------------|
E----------------------------|-------------------------|----------------|

E--------------------------|-----------------------|--------------------|
B--------------------------|-----------------------|--------------------|
G---9p7--7--7-----7-----7--|-----7-----9-----9--9--|--------------------|
D--------------------------|-----------------------|--------------------|
A--------------------------|-----------------------|--------------------|
E--------------------------|-----------------------|--------------------|

E-----------------------------|-----------------------|-----------------|
B-----------------------------|-----------------------|-----------------|
G------9p7--7--7-----7-----7--|-----7-----9-----9--9--|-----------------|
D-----------------------------|-----------------------|-----------------|
A-----------------------------|-----------------------|-----------------|
E-----------------------------|-----------------------|-----------------|

Then they play this (guitar 1 plays the top notes, guitar 2 plays the
bottom notes):

E---------------------------|--------------------------|----------------|
B---10-----8------7-----8---|--10-----8------7-----8---|----------------|
G---------------------------|--------------------------|----------------|
D---12-----10-----9-----10--|--12-----10-----9-----10--|----------------|
A---12-----10-----9-----10--|--12-----10-----9-----10--|----------------|
E---------------------------|--------------------------|----------------|

E------------------------|-----------------------|----------------------|
B---10-----8------7--10--|-----8-----7--9--------|----------------------|
G------------------------|-----------------------|----------------------|
D---12-----10-----9--7---|-----5-----4--2--------|----------------------|
A---12-----10-----9--7---|-----5-----4--2--------|----------------------|
E------------------------|-----------------------|----------------------|

    (both guitars)
E-------------------|-----------|------------------|--------------------|
B-------------------|-----------|------------------|--------------------|
G---12--------7-----|--9--------|--12--------7-----|--------------------|
D---12--------7-----|--9--------|--12--------7-----|--------------------|
A---10--------5-----|--7--------|--10--------5-----|--------------------|
E-------------------|-----------|------------------|--------------------|

This is the verse riff (both guitars play 8 times):

E--------------------|----------------|---------------------------------|
B--------------------|----------------|---------------------------------|
G--------------------|----------------|---------------------------------|
D---9--9--7h9-----9--|--12-----12--7--|---------------------------------|
A---7--7--7-------7--|--10-----10--5--|---------------------------------|
E--------------------|----------------|---------------------------------|

This is the chorus riff (both guitars play twice):

E----------------------|------------------------|-----------------------|
B----------------------|------------------------|-----------------------|
G----------------------|------------------------|-----------------------|
D---9--9--7/9-----9----|--12-----12/14-----7----|-----------------------|
A---7--7--5/7-----7----|--10-----10/12-----5----|-----------------------|
E----------------------|------------------------|-----------------------|

E----------------------|----------------------|-------------------------|
B----------------------|----------------------|-------------------------|
G----------------------|----------------------|-------------------------|
D---7--7--5/7-----7----|-------------9--x--x--|-------------------------|
A---5--5--3/5-----5----|--2p0--------7--x--x--|-------------------------|
E----------------------|-------3~~~-----------|-------------------------|

This is the part right after the chorus (both guitars):

E------------------|----------------|-----------------------------------|
B------------------|----------------|-----------------------------------|
G------------------|----------------|-----------------------------------|
D---9--9-----9-----|--12--12--7-----|-----------------------------------|
A---7--7-----7-----|--10--10--5-----|-----------------------------------|
E------------------|----------------|-----------------------------------|

E----------------------------------|-----------------|------------------|
B----------------------------------|-----------------|------------------|
G----------------------------------|-----------------|------------------|
D---9/14-----9--9/14---------------|--9--9-----9-----|------------------|
A---7/12-----7--7/12--14p12\10-----|--7--7-----7-----|------------------|
E----------------------------------|-----------------|------------------|

E-----------------|---------------------|-------------------------------|
B-----------------|---------------------|-------------------------------|
G-----------------|--4p2p0-----0--2--0--|-------------------------------|
D---12--12--7-----|---------2-----------|-------------------------------|
A---10--10--5-----|---------------------|-------------------------------|
E-----------------|---------------------|-------------------------------|

Now repeat from where the first verse starts all the way up to the above
riff, then play this (both guitars):

E---------------------------|--------------------------|----------------|
B---------------------------|--------------------------|----------------|
G---------------------------|--------------------------|----------------|
D---2--2--2--2--2--2--2--2--|--2--2--2--2--2--2--2--2--|----------------|
A---------------------------|--------------------------|----------------|
E---------------------------|--------------------------|----------------|

      (one guitar plays top notes, another plays the bottom)
E------------------------|----------------------------------------------|
B------------------------|----------------------------------------------|
G------7--5--4--2--0-----|----------------------------------------------|
D---2--9--7--5--4--2--4--|----------------------------------------------|
A---------------------5--|----------------------------------------------|
E------------------------|----------------------------------------------|


    C         Em       Am
E---8---------7--------5------------------------------------------------|
B---8---------8--------5------------------------------------------------|
G---9---------9--------5------------------------------------------------|
D---10--------9--------7------------------------------------------------|
A---10--------7--------7------------------------------------------------|
E---8---------7--------5------------------------------------------------|

Then it gets faster. Both guitars play this (4 times):

E---------------------------|--------------------------|----------------|
B---------------------------|--------------------------|----------------|
G---------------------------|--------------------------|----------------|
D---9--9--9--9--9--9--9--9--|--9--9--9--9--9--7--------|----------------|
A---7--7--7--7--7--7--7--7--|--7--7--7--7--7--5--------|----------------|
E---------------------------|--------------------------|----------------|

Then one guitar keeps playing that, while the other plays a solo:

E-------12-12-----12-12-----12-|-12-----12-12-----12-|------------------|
B-------12-12-----12-12-----12-|-12-----12-12-15^----|------------------|
G---14^-------14^-------14^----|----14^--------------|------------------|
D------------------------------|---------------------|------------------|
A------------------------------|---------------------|------------------|
E------------------------------|---------------------|------------------|

E---15-12-15p12----12----------------|------------------|---------------|
B---------------15----15p12-15p12h15-|---------15h17p15-|---------------|
G------------------------------------|-14^--------------|---------------|
D------------------------------------|------------------|---------------|
A------------------------------------|------------------|---------------|
E------------------------------------|------------------|---------------|

E--------------|-----------------------------|-------------------|------|
B---17^-----15-|-17p15p14-15p14\12-----------|-------------------|------|
G--------------|-------------------14-12-14^-|-(14)-----12-14-12-|------|
D--------------|-----------------------------|-------------------|------|
A--------------|-----------------------------|-------------------|------|
E--------------|-----------------------------|-------------------|------|

E------------------------|----------------------------------------------|
B------------------------|----------------------------------------------|
G---11h12p11-12p11h12----|----------------------------------------------|
D---------------------14-|----------------------------------------------|
A------------------------|----------------------------------------------|
E------------------------|----------------------------------------------|

Now that guitar plays the rhythm part, while the other plays a solo:

E------------------------------------|----------------------------------|
B-------12h15p12-----12h15p12-----12-|----------------------------------|
G---14^----------14^----------14^----|----------------------------------|
D------------------------------------|----------------------------------|
A------------------------------------|----------------------------------|
E------------------------------------|----------------------------------|

E---------------------------------------|-------------------------------|
B---15p12-----12h15p12-----12h15p12-----|-------------------------------|
G---------14^----------14^----------14^-|-------------------------------|
D---------------------------------------|-------------------------------|
A---------------------------------------|-------------------------------|
E---------------------------------------|-------------------------------|

E---------------------------------------------------|-------------------|
B---12h15p12----12h15p12----12h15p12----12h15p12----|-------------------|
G------------14----------14----------14----------14-|-------------------|
D---------------------------------------------------|-------------------|
A---------------------------------------------------|-------------------|
E---------------------------------------------------|-------------------|

E---------------------------------------------------|-------------------|
B---12h15p12----12h15p12----12h15p12----12h15p12-15-|-------------------|
G------------14----------14----------14-------------|-------------------|
D---------------------------------------------------|-------------------|
A---------------------------------------------------|-------------------|
E---------------------------------------------------|-------------------|

E---------------------------------------------------|-------------------|
B---20p17----17-20p17----17-20p17----17-20p17----17-|-------------------|
G---------19----------19----------19----------19----|-------------------|
D---------------------------------------------------|-------------------|
A---------------------------------------------------|-------------------|
E---------------------------------------------------|-------------------|

E---------------------------------------------------|---------------|---|
B---20p17----17-20p17----17-20p17----17-20p17----17-|-22^-22^-20h22-|---|
G---------19----------19----------19----------19----|---------------|---|
D---------------------------------------------------|---------------|---|
A---------------------------------------------------|---------------|---|
E---------------------------------------------------|---------------|---|

E-------------------|---------------------------------------------------|
B---20p17----17-----|---------------------------------------------------|
G---------19----19^-|---------------------------------------------------|
D-------------------|---------------------------------------------------|
A-------------------|---------------------------------------------------|
E-------------------|---------------------------------------------------|

Now one guitar play this (twice):

E------------|------------|---------------------------------------------|
B------------|------------|---------------------------------------------|
G---9--------|--12-----7--|---------------------------------------------|
D---9--------|--12-----7--|---------------------------------------------|
A---7--------|--10-----5--|---------------------------------------------|
E------------|------------|---------------------------------------------|

The other guitar plays this over top:

            trill...
E-------------------|--------------------|------------------------------|
B--------8--7--(8)--|--7-----8-----------|------------------------------|
G---7h9-------------|-----------9--------|------------------------------|
D-------------------|--------------------|------------------------------|
A-------------------|--------------------|------------------------------|
E-------------------|--------------------|------------------------------|

Now repeat from the second verse until the end of the second chorus,
then play this (both guitars):

E---------------------------|--------------------------|----------------|
B---------------------------|--------------------------|----------------|
G---------------------------|--------------------------|----------------|
D---2--2--2--2--2--2--2--2--|--2--2--2--2--2--2--2--2--|----------------|
A---------------------------|--------------------------|----------------|
E---------------------------|--------------------------|----------------|

Now play the intro riff again, but replace the last bar with this (as
usual, one guitar plays the top notes and the other plays the bottom):

E-----------------------|------------------|----------------------------|
B---10-----8------7-----|------------------|----------------------------|
G--------------------9--|--6-----------14--|----------------------------|
D---12-----10-----9--7--|--11--7---6---14--|----------------------------|
A---12-----10-----9--7--|--11--12--11--12--|----------------------------|
E-----------------------|------12--11------|----------------------------|

9.IRON MAIDEN

E||----------------------------|-----------------------||
B||-------------------------5--|-----------------------||
G||*--2------2--0h-2h-0--------|------5----2--4--0----*||
D||*---------------------2-----|----------------------*||
A||----------------------------|-----------------------||
E||----------------------------|-----------------------||

---------------------------|----------------------|---------------------------|
------------------------5--|----------------------|------------------------5--|
--2------2--0h-2h-0--------|------5----2--4--0----|--2------2--0h-2h-0--------|
---------------------2-----|----------------------|---------------------2-----|
---------------------------|----------------------|---------------------------|
---------------------------|----------------------|---------------------------|

----------------------||----------------------------|----------------------|
----------------------||-------------------------5--|----------------------|
------5----2--4--0----||*--2------2--0h-2h-0--------|------5----2--4--0----|
----------------------||*---------------------2-----|----------------------|
----------------------||----------------------------|----------------------|
----------------------||----------------------------|----------------------|

---------------------------|-----------------------||
------------------------5--|-----------------------||
--2------2--0h-2h-0--------|------5----2--4--0----*||
---------------------2-----|----------------------*||
---------------------------|-----------------------||
---------------------------|-----------------------||

---------------------------|--------------------------|
---------------------------|--------------------------|
*--2-----------------------|--------------------------|
*--2--2--2--2--2--2--2--2--|--2--2--2--2--2--2--2--2--|
---0--0--0--0--0--0--0--0--|--0--0--0--0--0--0--0--0--|
---------------------------|--------------------------|


                                                 3x
--------------------------|----------------------||----------------------------|
--------------------------|----------------------||-------------------------5--|
--------------------------|--5------4-----------*||*--2------2--0h-2h-0--------|
--5-----------------------|--5------5------5----*||*---------------------2-----|
--5--5--5--5--5--5--5--5--|----------------5-----||----------------------------|
--3--3--3--3--3--3--3--3--|----------------------||----------------------------|

----------------------|---------------------------|-----------------------||
----------------------|------------------------5--|-----------------------||
------5----2--4--0----|--2------2--0h-2h-0--------|------5----2--4--0----*||
----------------------|---------------------2-----|----------------------*||
----------------------|---------------------------|-----------------------||
----------------------|---------------------------|-----------------------||

----------------------|---------------------|---------------------|
----------------------|---------------------|---------------------|
*--5------5------5----|---------------------|--7------7------7----|
*--5------5------5----|--5------5------5----|--7------7------7----|
---3------3------3----|--5------5------5----|--5------5------5----|
----------------------|--3------3------3----|---------------------|


                      3x
----------------------||----------------------------|----------------------|
----------------------||-------------------------5--|----------------------|
---------------------*||*--2------2--0h-2h-0--------|------5----2--4--0----|
--7------7------7----*||*---------------------2-----|----------------------|
--7------7------7-----||----------------------------|----------------------|
--5------5------5-----||----------------------------|----------------------|

---------------------------|-----------------------||
------------------------5--|-----------------------||
--2------2--0h-2h-0--------|------5----2--4--0----*||
---------------------2-----|----------------------*||
---------------------------|-----------------------||
---------------------------|-----------------------||

---------------------------|--------------------------|
---------------------------|--------------------------|
*--2-----------------------|--------------------------|
*--2--2--2--2--2--2--2--2--|--2--2--2--2--2--2--2--2--|
---0--0--0--0--0--0--0--0--|--0--0--0--0--0--0--0--0--|
---------------------------|--------------------------|


                                                 3x
--------------------------|----------------------||----------------------|
--------------------------|----------------------||----------------------|
--------------------------|--5------4-----------*||*--5------5------5----|
--5-----------------------|--5------5------5----*||*--5------5------5----|
--5--5--5--5--5--5--5--5--|----------------5-----||---3------3------3----|
--3--3--3--3--3--3--3--3--|----------------------||----------------------|


                                                                  2x
---------------------|---------------------|----------------------||
---------------------|---------------------|----------------------||
---------------------|--7------7------7----|---------------------*||
--5------5------5----|--7------7------7----|--7------7------7----*||
--5------5------5----|--5------5------5----|--7------7------7-----||
--3------3------3----|---------------------|--5------5------5-----||

---------------------|---------------------|-------------------|
---------------------|---------------------|-------------------|
--5------5------5----|---------------------|--7----------------|
--5------5------5----|--5------5------5----|--7----------------|
--3------3------3----|--5------5------5----|--5----------------|
---------------------|--3------3------3----|-------------------|

---------------------|---------------------|---------------------|
---------------------|---------------------|---------------------|
---------------------|---------------------|---------------------|
---------------------|----0------2----3----|--0------2------3----|
--0------2------3----|---------------------|---------------------|
---------------------|---------------------|---------------------|

---------------------||----------------------|---------------------|
---------------------||----------------------|---------------------|
----0------2----4----||*---------------------|---------------------|
---------------------||*---------------------|----0------2----3----|
---------------------||---0------2------3----|---------------------|
---------------------||----------------------|---------------------|


                                            2x
---------------------|----------------------||-------------------|
---------------------|----------------------||-------------------|
---------------------|----0------2----4----*||--2~---------------|
--0------2------3----|---------------------*||-------------------|
---------------------|----------------------||-------------------|
---------------------|----------------------||-------------------|


                                                           2x
------------------||-------------------|-------------------||
------------------||-------------------|-------------------||
------------------||*------------------|------------------*||
------------------||*------------------|------------------*||
------------------||-------------------|-------------------||
------------------||-------------------|-------------------||

--------------------------|------------------||----------------------------|
--------------------------|------------------||-------------------------5--|
--------------------------|------------------||*--2------2--0h-2h-0--------|
----------------7----5----|------------------||*---------------------2-----|
--7-7-7-7-7--7--5----3----|------------------||----------------------------|
--------------------------|------------------||----------------------------|

-----------------------||---------------------------|----------------------|
-----------------------||------------------------5--|----------------------|
------5----2--4--0----*||--2------2--0h-2h-0--------|------5----2--4--0----|
----------------------*||---------------------2-----|----------------------|
-----------------------||---------------------------|----------------------|
-----------------------||---------------------------|----------------------|

---------------------------|----------------------|
------------------------5--|----------------------|
--2------2--0h-2h-0--------|------5----2--4--0----|
---------------------2-----|----------------------|
---------------------------|----------------------|
---------------------------|----------------------|

|----------------------------|----------------------|
|-------------------------5--|----------------------|
|*--2------2--0h-2h-0--------|------5----2--4--0----|
|*---------------------2-----|----------------------|
|----------------------------|----------------------|
|----------------------------|----------------------|

---------------------------|-----------------------||
------------------------5--|-----------------------||
--2------2--0h-2h-0--------|------5----2--4--0----*||
---------------------2-----|----------------------*||
---------------------------|-----------------------||
---------------------------|-----------------------||

---------------------------|--------------------------|
---------------------------|--------------------------|
*--2-----------------------|--------------------------|
*--2--2--2--2--2--2--2--2--|--2--2--2--2--2--2--2--2--|
---0--0--0--0--0--0--0--0--|--0--0--0--0--0--0--0--0--|
---------------------------|--------------------------|


                                                 3x
--------------------------|----------------------||----------------------|
--------------------------|----------------------||----------------------|
--------------------------|--5------4-----------*||*--5------5------5----|
--5-----------------------|--5------5------5----*||*--5------5------5----|
--5--5--5--5--5--5--5--5--|----------------5-----||---3------3------3----|
--3--3--3--3--3--3--3--3--|----------------------||----------------------|


                                                                  2x
---------------------|---------------------|----------------------||
---------------------|---------------------|----------------------||
---------------------|--7------7------7----|---------------------*||
--5------5------5----|--7------7------7----|--7------7------7----*||
--5------5------5----|--5------5------5----|--7------7------7-----||
--3------3------3----|---------------------|--5------5------5-----||

---------------------|---------------------|-------------------|
---------------------|---------------------|-------------------|
--5------5------5----|---------------------|--7----------------|
--5------5------5----|--5------5------5----|--7----------------|
--3------3------3----|--5------5------5----|--5----------------|
---------------------|--3------3------3----|-------------------|

------------------|------------------|--------------------|--------------------|
------------------|------------------|--------------------|--------------------|
------------------|------------------|--------------------|--------------------|
------------------|------------------|--7--------7--------|--7--------7--------|
------------------|------------------|--7--------7--------|--7--------7--------|
------------------|------------------|--5--------5--------|--5--------5--------|

----------------------|--------------------------|
----------------------|--------------------------|
----------------------|--------------------------|
--7----7----7----7----|--7--7--7--7--7--7--7--7--|
--7----7----7----7----|--7--7--7--7--7--7--7--7--|
--5----5----5----5----|--5--5--5--5--5--5--5--5--|

----------------------------------|------------------|-------------------||
----------------------------------|------------------|-------------------||
----------------------------------|------------------|-------------------||
--7-7-7-7-7-7-7-7-7-7-7-7-7-7-7-7-|------------------|--7/---------------||
--7-7-7-7-7-7-7-7-7-7-7-7-7-7-7-7-|------------------|--7/---------------||
--5-5-5-5-5-5-5-5-5-5-5-5-5-5-5-5-|------------------|--5/---------------||

Those are all the albums i can think of right now.I'm going to put up some
of their other stuff later so check it out when i do!
comments
print report bad tab
7 comments total. Showing first comments.
+1 reply
knerken wrote on June 27 2005, 12:00 am

janick gers dosn't play on this album

+1 reply
Nightfall_P.M. wrote on September 2 2005, 12:00 am

The line up on this album was Paul Di'Anno, Dave Murray, Dennis Stratton, Steve Harris and Clive Burr. Janick Gers first played on "No Prayer For The Dying" nine years after "Iron Maiden" was released.

0 reply
Spartan 117 wrote on January 14 2006, 09:53 am

I don't know about all of these songs, but good effort.

I want to post or [tab]
guest
You may want to rate the tab now too:
select rating
Please do not post tabs as comments. Select "correction" instead!