Oops, an error
Loading. Please wait.

Isle Of Avalon Tab

8,591 views 12 this week
no commentswrite comment
1 2 3 4 5
excellent!
x 7
add to favorites launch autoscroll
font size
0
reset
Autoscroll
+/-
esc
set tempo
stop
Difficulty
intermediate
WARNING: You are trying to view
                                    content from Ultimate-Guitar.com
                                    in an unauthorized application,
                                    which is prohibited.

                                    Please use an official Ultimate
                                    Guitar Tabs application for iPhone,
                                    iPad or Android to access legitimate
                                    chords, guitar, bass, and drum tabs
                                    from Ultimate-Guitar.com database.

                                    Type "ultimate guitar tabs" in Apple
                                    App Store's or Android Market's
                                    search to find the application.
Tabbed by: Garr1
Email: Garr.chris@gmail.com

Tuning: EADGBE

Adrian Smith
e|---------------------------------------------------|
B|---------------------------------------------------|
G|---------------------------------------------------|
D|----6-----7-----9-----9-----9----------------------|
A|------7-7---7-7---7-7---7-7---7-7------------------|
E|-0-------------------------------------------------|

e|---------------------------------------------------|
B|---------------------------------------------------|
G|---------------------------------------------------|
D|-6-----7-----10-----10-----10----------------------|
A|---7-7---7-7----7-7----7-7----7-7------------------|
E|---------------------------------------------------|

e|---------------------------------------------------|
B|---------------------------------------------------|
G|---------------------------------------------------|
D|--7-9-6-----6-----6-----6-7-10-----10-----10-------|
A|--------7-7---7-7---7-7--------7-7----7-7----7-7---|
E|---------------------------------------------------|

e|---------------------------------------------------|
B|---------------------------------------------------|
G|---------------------------------------------------|
D|-11-------12-------14-------14-------14------------|
A|----12-12----12-12----12-12----12-12----12-12------|
E|---------------------------------------------------|

e|---------------------------------------------------|
B|---------------------------------------------------|
G|---------------------------------------------------|
D|-11-------12-------15-------15-------15------------|
A|----12-12----12-12----12-12----12-12----12-12------|
E|---------------------------------------------------|

e|---------------------------------------------------|
B|---------------------------------------------------|
G|---------------------------------------------------|
D|-12-14-11--------11-------11-------11--------------|
A|-----------12-12----12-12----12-12----12-12--------|
E|---------------------------------------------------|

e|---------------------------------------------------|
B|---------------------------------------------------|
G|---------------------------------------------------|
D|-11-12-15-------15-------15-------15-------15------|
A|----------12-12----12-12----12-12----12-12---------|
E|---------------------------------------------------|

e|----------------------0----------------------------|
B|----------------------0----------------------------|
G|----------------------0----------------------------|
D|----------------------2----------------------------|
A|----------------------2----------------------------|
E|----------------------0----------------------------|

Janick Gers/Dave Murray
e|---------------------------------------------------|
B|-9-9-9--10-10-10--12-12-12-12-12-------------------|
G|-9-9-9--9--9--9---9--9--9--9--9--------------------|
D|---------------------------------------------------|
A|---------------------------------------------------|
E|---------------------------------------------------|

e|---------------------------------------------------|
B|-9-9-9--10-10-10--13-13-13-13-13-------------------|
G|-9-9-9--9--9--9---9--9--9--9--9--------------------|
D|---------------------------------------------------|
A|---------------------------------------------------|
E|---------------------------------------------------|

e|---------------------------------------------------|
B|-10-12-9-9-9-9-9-9-9----9-10-13-13-13-13-----------|
G|-9--9--9-9-9-9-9-9-9----9-9--9--9--9--9------------|
D|---------------------------------------------------|
A|---------------------------------------------------|
E|---------------------------------------------------|

e|---------------------------------------------------|
B|-14-14-14-15-15-15-17-17-17-17-17------------------|
G|-14-14-14-14-14-14-14-14-14-14-14------------------|
D|---------------------------------------------------|
A|---------------------------------------------------|
E|---------------------------------------------------|

e|---------------------------------------------------|
B|-14-14-14-15-15-15-18-18-18-18-18------------------|
G|-14-14-14-14-14-14-14-14-14-14-14------------------|
D|---------------------------------------------------|
A|---------------------------------------------------|
E|---------------------------------------------------|

e|---------------------------------------------------|
B|-15-17-14-14-14-14-14---14-15-18-18-18-18----------|
G|-14-14-14-14-14-14-14---14-14-14-14-14-14----------|
D|---------------------------------------------------|
A|---------------------------------------------------|
E|---------------------------------------------------|
Repeat whatever variations that are needed.

Adrian Smith
e|---------------------------------------------------|
B|---------------------------------------------------|
G|------------5--5--5----5-5-5---5--5--5---7---------|
D|------------5--5--5----5-5-5---5--5--5---7---------|
A|------------3--3--3----3-3-3---3--3--3---5---------|
E|---------------------------------------------------|

e|---------------------2-----------------------------|
B|---------------------3-----------------------------|
G|------------4--4-----4---4-------------------------|
D|------------4--4-----5---4-------------------------|
A|------------2--2-----2---2-------------------------|
E|---------------------------------------------------|

Dave Murray/Janick Gers
e|----------------------------------------------------|
B|----------------------------------------------------|
G|--11-12-12---11-12-14-12---11-12-14----11-11-12--11-|
D|----------------------------------------------------|
A|--9--10-10----9-10-12-10---9--10-12----9--9--10--9--|
E|----------------------------------------------------|

Verse  (All Guitars)
e|---------------------------------------------------|
B|---------------------------------------------------|
G|-----------5--7----------5--2----------------------|
D|--2----5---5--7---2---5--5--3----------------------|
A|--2----5---3--5---2---5--3--3----------------------|
E|--0----3----------0---3-----1----------------------|
Figure out the pattern yourself. It's simple enough

Chorus
e|---------------------------------------------------|
B|---------------------------------------------------|
G|---------------------------------------------------|
D|--9-9-7-7------------------------------------------|
A|--7-6-5-4------------------------------------------|
E|--0------------------------------------------------|
Again the pattern is simple enough

e|---------------------------------------------------|
B|---------------------------------------------------|
G|--5---7--------------------------------------------|
D|--5---7--------------------------------------------|
A|--3---5--------------------------------------------|
E|---------------------------------------------------|

Break
e|---------------------------------------------------|
B|---------------------------------------------------|
G|---------------------------------------------------|
D|---9-9----7-7----5---------------------------------|
A|---7-7----5-5----3--------2------------------------|
E|-0------0------0----0-2-3---3-2-3------------------|


e|---------------------------------------------------|
B|---------------------------------------------------|
G|---9-9----7-7----5---------------------------------|
D|---7-7----5-5----3--------2------------------------|
A|-0------0------0----0-2-3---3-2-3------------------|
E|---------------------------------------------------|

The above are the chords for daveys solo also

e|---------------------------------------------------|
B|---------------------------------------------------|
G|---------------------------------------------------|
D|-------------------2-----x2------------------------|
A|-------------------2-------------------------------|
E|-------------------0-------------------------------|

All Guitars
e|---------------------------------------------------|
B|---------------------------------------------------|
G|---------------------------------------------------|
D|-----------------4----------------7p4--------------|
A|--------5h7--------5--------5h7-------5------------|
E|--0-5h7------0-0------0-5h7-----0------------------|

The above are the Chords for Adrians solo also

Adrian Smith (Solo)
e|--------------7------------------------------------|
B|-----10-10-10---10---8-8p7-------------------------|
G|---7-----------------------9p7---7-9/11-9-9h11-----|
D|-9-----------------------------9-------------------|
A|---------------------------------------------------|
E|---------------------------------------------------|

e|---------------------------------------------------|
B|---------------------------------------------------|
G|--7\6---6------------------------------------------|
D|------9----7\5---5\4-------------------------------|
A|---------------7-----7p5---5-7/9-7-7h9-------------|
E|-------------------------7-------------------------|

e|---------------------------------------------------|
B|---------------------------------------------------|
G|---------------------------------------------------|
D|-------4b---4b----4-5-7/9-7-5-7-5------------------|
A|---5h7----------4-----------------7-5-7------------|
E|-7--------7----------------------------------------|

e|---------------------------------------------------|
B|---------------------------8-----------------------|
G|------------7h9/11-9---7h9---9---------------------|
D|------5h7/9----------------------------------------|
A|--5h7----------------------------------------------|
E|---------------------------------0-----------------|

e|---------------------------------------------------|
B|------T------T-------------T--------T--------------|
G|-7h9-12--7h9-12--9b----7h9-12--7h9--12---9b--------|
D|---------------------------------------------------|
A|---------------------------------------------------|
E|---------------------------------------------------|

e|---------------------------------------------------|
B|------T---------------------------------------T----|
G|--7h9-12------T-----------------------T---7h9-12-9-|
D|----------7h9-12-------T-------T--7h9-12-----------|
A|------------------7h9-12---7h9-12------------------|
E|---------------------------------------------------|

e|---------------------------------------------------|
B|---------------------------------------------------|
G|---7h9/11-9h11-9h11/12-11h12/14-12\11--------------|
D|---------------------------------------------------|
A|---------------------------------------------------|
E|---------------------------------------------------|

e|---------------------------------------------------|
B|---------------------------------------------------|
G|-9-9h11p9----9-11-12-14-12-11----------------------|
D|----------12------------------14-------------------|
A|---------------------------------------------------|
E|---------------------------------------------------|

e|---------------------------------------------------|
B|--12-10--12p10----10-------------------------------|
G|---------------12----12-11-9-11-12-11--------------|
D|---------------------------------------------------|
A|---------------------------------------------------|
E|---------------------------------------------------|

e|---------------------------------------------------|
B|---------------------------------------------------|
G|--9-9p7\6------6-----------------------------------|
D|-----------9-9---9-7-5-----------------------------|
A|---------------------------------------------------|
E|---------------------------------------------------|

e|-----------------------------------------------------|
B|-----------------------------------------------------|
G|---------------4-6-7/9-7h9/11-9h11-12--9-11-12-14-12-|
D|--4h5p4---4------------------------------------------|
A|--------7---5----------------------------------------|
E|-----------------------------------------------------|

e|-17-17-17-14-14-14---------------------------------|
B|-------------------15----17-15---------------------|
G|----------------------14---------------------------|
D|---------------------------------------------------|
A|---------------------------------------------------|
E|---------------------------------------------------|

e|---------------------14----12----------------------|
B|---------------------15----12----------------------|
G|--12--11--14---------14----12----------------------|
D|--12--12--12---x2----------14---x1-----------------|
A|---------------------------------------------------|
E|---------------------------------------------------|
The Chords are accurate but you will have to figure
out the strumming pattern.

Break
e|---------------------------------------------------|
B|---------------------------------------------------|
G|----------------4------------------4-6-------------|
D|----4-5---4-5-7--------4-5-7-4-5-7-----------------|
A|--7-----7------------------------------------------|
E|---------------------------------------------------|

Repeat the verse chorus etc...


Adrian Smith Fill for the outro verse
e|---------------------------------------------------|
B|--------------------12-----------------------------|
G|--9---9-11-12----------12-11-12--------------------|
D|----9----------x3----------------------------------|
A|---------------------------------------------------|
E|---------------------------------------------------|


e|------------------0-------------------------------|
B|------------------0-------------------------------|
G|--5-------7-------0-------------------------------|
D|--5-------7-------2-------------------------------|
A|--3-------5-------2-------------------------------|
E|------------------0-------------------------------|
Finish with the above chords


Done
comments
print report bad tab
I want to post or [tab]
guest
You may want to rate the tab now too:
select rating
Please do not post tabs as comments. Select "correction" instead!