Oops, an error
Loading. Please wait.

Judas Be My Guide Tab

ver2
ver2

Whole song

More versions @911Tabs.com
3,887 views 6 this week
no commentswrite comment
1 2 3 4 5
excellent!
x 1
Autoscroll
+/-
esc
set tempo
stop
Contributor
Difficulty
novice
WARNING: You are trying to view
                                    content from Ultimate-Guitar.com
                                    in an unauthorized application,
                                    which is prohibited.

                                    Please use an official Ultimate
                                    Guitar Tabs application for iPhone,
                                    iPad or Android to access legitimate
                                    chords, guitar, bass, and drum tabs
                                    from Ultimate-Guitar.com database.

                                    Type "ultimate guitar tabs" in Apple
                                    App Store's or Android Market's
                                    search to find the application.
#----------------------------------PLEASE NOTE---------------------------------#
#This file is the author's own work and represents their interpretation of the #
#song. You may only use this file for private study, scholarship, or research. #
#------------------------------------------------------------------------------##

                                JUDAS BE MY GUIDE
                           As recorded by Iron Maiden
                     (From the 1992 Album FEAR OF THE DARK)

Words and Music by Bruce Dickinson, Dave Murray
Transcribed by Blood-Brother@nexgo.de

Gtr I (E A D G B E) - 'Untitled'
Gtr II (E A D G B E) - 'Untitled'
Gtr III (E A D G B E) - 'Untitled'

 Intro
  Q=117
 4/4                             7/8
  Gtr I
                  PM---------------------------------
  W             E E E E E E E E    E  E E E  E  E E
|-------------|-----------------|-------------------|
|-------------|-----6---5-------|--6----5----8----6-|
|-------------|---7---7---5---7-|-----7---5-----7---|
|-------------|-------------7---|-------------------|
|-------------|-----------------|-------------------|
|-------------|-----------------|-------------------|
|
| Gtr III
| H    Q  E E   W                 +H        +Q    E
|-------------|-----------------|-------------------|
|-------------|-----------------|-------------------|
|-------------|-2---------------|-(2)-------(2)-----|
|-----------2-|-0---------------|-(0)-------(0)---2-|
|-----------0-|-----------------|-----------------0-|
|-------------|-----------------|-------------------|


 4/4
 -------------------------------------|
  E E E E E E E E    E  E E E  E  E E E
|-----------------|---------------------|
|-5-----6---5-----|-----6---5-----8---6-|
|-----7---7---5---|--7----7----5----7---|
|---------------8-|---------------------|
|-----------------|---------------------|
|-----------------|---------------------|
|
| W                 +H        +Q.     E
|-----------------|---------------------|
|-----------------|---------------------|
|-----------------|---------------------|
|-3---------------|-(3)-------(3)-----2-|
|-1---------------|-(1)-------(1)-----0-|
|-----------------|---------------------|


                   7/8
  Gtr II
  W                  W
|-----------------|-------------------|
|-----------------|-------------------|
|-----------------|-------------------|
|-----------------|-------------------|
|-----------------|-------------------|
|-----------------|-------------------|
|
| Gtr I
| PM-----------------------------------
| E E E E E E E E    E  E E E  E  E E
|-----------------|-------------------|
|-5-8---6---5-----|--6----5----8----6-|
|-----7---7---7-7-|-----7---5-----7---|
|-----------------|-------------------|
|-----------------|-------------------|
|-----------------|-------------------|
|
| Gtr III
| W                 +H        +Q    E
|-----------------|-------------------|
|-----------------|-------------------|
|-2---------------|-(2)-------(2)-----|
|-0---------------|-(0)-------(0)---2-|
|-----------------|-----------------0-|
|-----------------|-------------------|


  H=H
 4/4
  W                      H        E  S  S  S  S  E
|---------------------|-----------------------------|
|---------------------|-----------------------------|
|---------------------|-------------------------10--|
|---------------------|-------------------10h12-----|
|---------------------|-------------10h12-----------|
|---------------------|-----------------------------|
|
|                        \4
|---------|
|             |-3-|
| E E E E E E S S S E    W
|---------------------|-----------------------------|
|-5-----6---8-6h8p6p5-|-----------------------------|
|-----7---7-----------|-<5>-------------------------|
|---8-----------------|-----------------------------|
|---------------------|-----------------------------|
|---------------------|-----------------------------|
|
| PM--------------------------------------------|
| E E E E E E E     E    E  E E E E  E     E     E
|---------------------|-----------------------------|
|---------------------|-----------------------------|
|---------------------|-----------------------------|
|-3-3-3-3-3-3-3-----3-|-----------------------------|
|-1-1-1-1-1-1-1-----1-|--5--5-5-5-5--5-----5-----5--|
|---------------------|--3--3-3-3-3--3-----3-----3--|


  Q=153
  Gtr II
                                                                          |--3--|
   E     E       E     E     +Q    E     E    S  S  E    E     +E   +Q    E  E  E
|------------------------------------------|-----------------------------------13-|
|-13b15-13b15---13b15-13b15-(13)--13b15r13-|-10h13p10--------------------13h15----|
|------------------------------------------|------------12b14-(12)-(12)-----------|
|------------------------------------------|--------------------------------------|
|------------------------------------------|--------------------------------------|
|------------------------------------------|--------------------------------------|
|
| Gtrs I, III
|        PM-----|                                   PM--|
|  E     S    S  E     E     +H               E     S S  E      E   +H
|------------------------------------------|--------------------------------------|
|--6-------------------5-----(5)-----------|--6-----------------5---(5)-----------|
|--7-------------------5-----(5)-----------|--7-----------------5---(5)-----------|
|--7-------------------5-----(5)-----------|--7-----------------5---(5)-----------|
|--------5----5--5-------------------------|--------5-5--5------------------------|
|------------------------------------------|--------------------------------------|


   H           +E   E      +E   S  S    H        +E   E     E  E
|-15b17-------(15)-15b17==(15)r15p13-|-15-------(15)-15b17r15p13--|
|------------------------------------|----------------------------|
|------------------------------------|----------------------------|
|------------------------------------|----------------------------|
|------------------------------------|----------------------------|
|------------------------------------|----------------------------|
|
|  E    E E E  +H                       E E E E  +H
|------------------------------------|----------------------------|
|--5p===3---3--(3)-------------------|--6p5---5--(5)--------------|
|--5p===3---3--(3)-------------------|--7p5---5--(5)--------------|
|--5p===3---3--(3)-------------------|--7p5---5--(5)--------------|
|------------------------------------|----------------------------|
|------------------------------------|----------------------------|


                                                                                     |--3--|
   E.    S      +Q     +Q    +E    S      +S     +E    E    E  S     S  S   S  E     E  E  E
|-15----13b15==(13)---(13)--(13)r-13b15==(13)-|-(13)r-13---10-------10-13p=10-------10-------|
|---------------------------------------------|---------------13b15-----------13b15----13p10-|
|---------------------------------------------|----------------------------------------------|
|---------------------------------------------|----------------------------------------------|
|---------------------------------------------|----------------------------------------------|
|---------------------------------------------|----------------------------------------------|
|
|     PM-------|                                       PM--|
|  E  S  S       E  E  +H                         E    S S  E  E       +H
|---------------------------------------------|----------------------------------------------|
|--6----------------5--(5)--------------------|---6------------5-------(5)-------------------|
|--7----------------5--(5)--------------------|---7------------5-------(5)-------------------|
|--7----------------5--(5)--------------------|---7------------5-------(5)-------------------|
|-----5--5-------5----------------------------|--------5-5--5--------------------------------|
|---------------------------------------------|----------------------------------------------|


   S  S  S  S  S  E.    S   S  E  a      +E.  S        +H.             E  E
|-----------------------------13-15b17==(15)r15b17==|=(15)r===========15p13--||
|----------------------13--15-----------------------|------------------------||
|-12-12-10----10-12---------------------------------|------------------------||
|----------12---------------------------------------|------------------------||
|---------------------------------------------------|------------------------||
|---------------------------------------------------|------------------------||
|
|  E     E     E     E +H                               E  E E E +H
|---------------------------------------------------|------------------------||
|--5p====3-----------3-(3)--------------------------|---6p=5---5-(5)---------||
|--5p====3-----------3-(3)--------------------------|---7p=5---5-(5)---------||
|--5p====3-----------3-(3)--------------------------|---7p=5---5-(5)---------||
|---------------------------------------------------|------------------------||
|---------------------------------------------------|------------------------||


   Verse
     W                  +E   a E Q  H      W          W
||-------------------|-------------------|----------|-----------|
||o-15---------------|-(15)S10-----------|----------|-----------|
||-------------------|-------------------|----------|-----------|
||-------------------|-------------------|----------|-----------|
||o------------------|-------------------|----------|-----------|
||-------------------|-------------------|----------|-----------|
|
|   Gtrs I, III
|    H.      +E  S S     W                 W          H    H
||-------------------|-------------------|-3--------|-----------|
||o--6-------(6)-x-x-|---5---------------|-3--------|-----------|
||---7-------(7)-x-x-|---5---------------|-0--------|-3----2----|
||---7-------(7)-x-x-|---5---------------|-0--------|-3----3----|
||o------------------|-------------------|----------|-1----3----|
||-------------------|-------------------|-3--------|------1----|


  Gtrs I, III
  H.      +E  S S   W          W          H    H
|-----------------|----------|-3--------|-----------|
|-6-------(6)-x-x-|-5--------|-3--------|-----------|
|-7-------(7)-x-x-|-5--------|-0--------|-3----2----|
|-7-------(7)-x-x-|-5--------|-0--------|-3----3----|
|-----------------|----------|----------|-1----3----|
|-----------------|----------|-3--------|------1----|


  H     H       H     H      W          H    H
|------------|-------------|-1--------|-----------|
|------------|-------------|-1--------|-----------|
|------------|-------------|-3--------|-----------|
|-7----10----|-10----12----|-3--------|-3----5----|
|-5-----7----|--8----10----|-1--------|-3----3----|
|------------|-------------|----------|-1---------|


  H     H       H     H      W          H    H
|------------|-------------|-1--------|-----------|
|------------|-------------|-1--------|-----------|
|------------|-------------|-3--------|-----------|
|-7----10----|-10----12----|-3--------|-3----5----|
|-5-----7----|--8----10----|-1--------|-3----3----|
|------------|-------------|----------|-1---------|


 Chorus
  Gtrs I, III
    PM--|              PM--|
  E S S E E +H       E S S E E +H       E E E E +H       E E E E +H
|------------------|------------------|----------------|----------------|
|-6-------5-(5)----|-6-------5-(5)----|-5p3---3-(3)----|-6p5---5-(5)----|
|-7-------5-(5)----|-7-------5-(5)----|-5p3---3-(3)----|-7p5---5-(5)----|
|-7-------5-(5)----|-7-------5-(5)----|-5p3---3-(3)----|-7p5---5-(5)----|
|---5-5-5----------|---5-5-5----------|----------------|----------------|
|------------------|------------------|----------------|----------------|


    PM--|              PM--|
  E S S E E +H       E S S E E +H
|------------------|------------------|
|-6-------5-(5)----|-6-------5-(5)----|
|-7-------5-(5)----|-7-------5-(5)----|
|-7-------5-(5)----|-7-------5-(5)----|
|---5-5-5----------|---5-5-5----------|
|------------------|------------------|


                  1.                 2.
  E E E E +H       E E E E +H         E E E E +H
|----------------|-----------------||----------------|
|-5p3---3-(3)----|-6p5---5-(5)----o||-6p5---5-(5)----|
|-5p3---3-(3)----|-7p5---5-(5)-----||-7p5---5-(5)----|
|-5p3---3-(3)----|-7p5---5-(5)-----||-7p5---7-(7)----|
|----------------|----------------o||----------------|
|----------------|-----------------||----------------|


    PM--|              PM--|
  E S S E E +H       E S S E E +H       E E E E +H       E E E E +H
|------------------|------------------|----------------|----------------|
|-6-------5-(5)----|-6-------5-(5)----|-5p3---3-(3)----|-6p5---5-(5)----|
|-7-------5-(5)----|-7-------5-(5)----|-5p3---3-(3)----|-7p5---5-(5)----|
|-7-------5-(5)----|-7-------5-(5)----|-5p3---3-(3)----|-7p5---5-(5)----|
|---5-5-5----------|---5-5-5----------|----------------|----------------|
|------------------|------------------|----------------|----------------|


    PM--|              PM--|
  E S S E E +H       E S S E E +H       E E E E +H       E E E E +H
|------------------|------------------|----------------|----------------||
|-6-------5-(5)----|-6-------5-(5)----|-5p3---3-(3)----|-6p5---5-(5)----||
|-7-------5-(5)----|-7-------5-(5)----|-5p3---3-(3)----|-7p5---5-(5)----||
|-7-------5-(5)----|-7-------5-(5)----|-5p3---3-(3)----|-7p5---5-(5)----||
|---5-5-5----------|---5-5-5----------|----------------|----------------||
|------------------|------------------|----------------|----------------||


 Interlude
  Gtr I
  E S S E E E E E E   +E  S S E E E E E E
|-------5-----------|---------5-----------|
|---6h8---6-8-5---6-|-(6)-6h8---6-8-5-----|
|---------------5---|-----------------5-7-|
|-------------------|---------------------|
|-------------------|---------------------|
|-------------------|---------------------|
|
| Gtr III
| E S S E E E E E E   +E  S S E E E E E E
|-------------------|---------------------|
|-------6---5-------|---------6---5-------|
|---5h7---7---5---7-|-(7)-5h7---7---5-----|
|---------------7---|-----------------7-8-|
|-------------------|---------------------|
|-------------------|---------------------|


  +E  S S E E E E E E   +E  S S E E E E E E
|---------5-----------|---------5-----------|
|-----6h8---6-8-5-----|-----6h8---6-8-5---6-|
|-(7)-------------5-7-|-(7)-------------5---|
|---------------------|---------------------|
|---------------------|---------------------|
|---------------------|---------------------|
|
| +E  S S E E E E E E   +E  S S E E E E E E
|---------------------|---------------------|
|---------6---5-------|---------6---5-------|
|-----5h7---7---5-----|-----5h7---7---5---7-|
|-(8)-------------7-8-|-(8)-------------7---|
|---------------------|---------------------|
|---------------------|---------------------|


  Gtr I
  +E  S S E E E E E E   +E  S S E E E E E E
|---------5-----------|---------5-----------|
|-(6)-6h8---6-8-5---6-|-(6)-6h8---6-8-5-----|
|-----------------5---|-----------------5-7-|
|---------------------|---------------------|
|---------------------|---------------------|
|---------------------|---------------------|
|
| Gtr III
| +E  S S E E E E E E   +E  S S E E E E E E
|---------------------|---------------------|
|---------6---5-------|---------6---5-------|
|-(7)-5h7---7---5---7-|-(7)-5h7---7---5-----|
|-----------------7---|-----------------7-8-|
|---------------------|---------------------|
|---------------------|---------------------|


  +E  S S E E E E E E   +E  S S E E E E E E
|---------5-----------|---------5-----------|
|-----6h8---6-8-5-----|-----6h8---6-8-5-----|
|-(7)-------------5-7-|-(7)-------------5---|
|---------------------|-------------------3-|
|---------------------|-------------------1-|
|---------------------|---------------------|
|
| +E  S S E E E E E E   +E  S S E E E E E E
|---------------------|---------------------|
|---------6---5-------|---------6---5-------|
|-----5h7---7---5-----|-----5h7---7---5-----|
|-(8)-------------7-8-|-(8)-------------7-3-|
|---------------------|-------------------1-|
|---------------------|---------------------|


 Bridge
  Gtrs I, III
  +H     +Q.   E   +H     +Q.   E   +H     +Q.   E   +H     +Q.   E
|----------------|----------------|----------------|----------------|
|----------------|----------------|----------------|----------------|
|----------------|----------------|----------------|----------------|
|-(3)----(3)---5-|-(5)----(5)---7-|-(7)----(7)---2-|-(2)----(2)---3-|
|-(1)----(1)---3-|-(3)----(3)---5-|-(5)----(5)---3-|-(3)----(3)---1-|
|----------------|----------------|----------------|----------------|


  Gtr II
   W                W           W
|----------------|------------|---------------------------|
|----------------|------------|---------------------------|
|----------------|------------|---------------------------|
|----------------|------------|---------------------------|
|----------------|------------|---------------------------|
|----------------|------------|---------------------------|
|
| Gtrs I, III
|                               PM----|   PM----|   PM|
| +H     +Q.   E   +W           S S S S E S S S S E S S E
|----------------|------------|---------------------------|
|----------------|------------|---------------------------|
|----------------|------------|---------5---------5-----5-|
|-(3)----(3)---5-|-(5)--------|---------5---------5-----5-|
|-(1)----(1)---3-|-(3)--------|-0-0-0-0---0-0-0-0---0-0---|
|----------------|------------|---------------------------|


  H             Q     S  S  S  S
|-----------------------15-17-18--||
|---------------------------------||
|---------------------------------||
|---------------------------------||
|---------------------------------||
|---------------------------------||
|
| PM----|   PM----|   PM|
| S S S S E S S S S E S  S  E
|---------------------------------||
|---------------------------------||
|---------5---------5-------5-----||
|---------5---------5-------5-----||
|-0-0-0-0---0-0-0-0---0--0--------||
|---------------------------------||


 Guitar Solo
  Gtr II
   S  S  E      +Q     +Q    +E.   S
|-17p15------------------------------|
|-------18b20==(18)---(18)--(18)r-15-|
|------------------------------------|
|------------------------------------|
|------------------------------------|
|------------------------------------|
|
| Gtrs I, III
|  q             E  E   Q     q
|------------------------------------|
|--6----------------5---------6------|
|--7----------------5---------7------|
|--7----------------5---------7------|
|------------------------------------|
|------------------------------------|


                                               |--3--|
   S  S  S  S  E     +E  a E  E  S  S  E    E  S  S  S  E  E  E  E  E.    +S
|-------------------------------------17-|-20p17h20p17----17------------------|
|-17h18p17p15----------------17-18h20----|-------------18----20p18-20b22r(20)-|
|-------------17b19-(17)S9---------------|------------------------------------|
|----------------------------------------|------------------------------------|
|----------------------------------------|------------------------------------|
|----------------------------------------|------------------------------------|
|
|  E     E     Q           E  E  E     E    q           E  E  Q     q
|----------------------------------------|------------------------------------|
|--------5-----------------6--6--5-------|------------------------------------|
|--------5-----------------7--7--5-------|--3--------------3--------3---------|
|--------5-----------------7--7--5-------|--3--------------3--------3---------|
|----------------------------------------|--1--------------1--------1---------|
|----------------------------------------|------------------------------------|


    ~~~~
   +Q.      +E  a  E  E  S  S  S  S
|--------------------15-17p15----15-|
|-(20)-----(20)S8S18----------18----|
|-----------------------------------|
|-----------------------------------|
|-----------------------------------|
|-----------------------------------|
|
|   E  E Q         E  E  E     E
|-----------------------------------|
|-----------------------------------|
|------3-----------3--3--3----------|
|------3-----------3--3--3----------|
|-----------------------------------|
|-----------------------------------|


         |--3--|                                 |--3--|
   S  S  S  S  S  S  S  S  S  S  S  S  S  E a a  S  S  S    S  S  S  S  S  S  E  E  E  E  E
|-17p15h18p17p15----17p15----17p15--------------------15h|=17p15------------------------------|
|----------------18-------18-------18p17p15---x-17h18----|-------18p17-15-------17-18-17S15h==|
|-------------------------------------------x------------|----------------17S19---------------|
|--------------------------------------------------------|------------------------------------|
|--------------------------------------------------------|------------------------------------|
|--------------------------------------------------------|------------------------------------|
|
|  q              E     E     Q           q                 E     E     Q        E  E  E  E
|--------------------------------------------------------|------------------------------------|
|--6--------------------5-----------------6--------------|--------5--------------5--5--5------|
|--5--------------------5-----------------5--------------|--------5--------------5--5--5------|
|--5--------------------5-----------------5--------------|--------5--------------5--5--5------|
|--------------------------------------------------------|------------------------------------|
|--------------------------------------------------------|------------------------------------|


         \1          \1.5          \1
   E  E  a   +E   E  a     +E   E  a   +E   E
|---------------------------------------------|
|-18p15-17--(17)p15-18----(18)p15-17--(17)p15-|
|---------------------------------------------|
|---------------------------------------------|
|---------------------------------------------|
|---------------------------------------------|
|
|  q          E   E         Q           q
|---------------------------------------------|
|--6--------------5---------------------6-----|
|--7--------------5---------------------7-----|
|--7--------------5---------------------7-----|
|---------------------------------------------|
|---------------------------------------------|


   \1.5          \1
                                          |----3-----|                            |--3--|
   a     +E   E  a   +E   E  +E.    a  S  E  E    S  S    E  E      +Q     +Q     E  E  E
|------------------------------------------------17-18-|-20-20b22==(20)---(20)r--20-18-17-|
|-18----(18)p15-17--(17)p15-(15)S==10-17-18-20---------|----------------------------------|
|------------------------------------------------------|----------------------------------|
|------------------------------------------------------|----------------------------------|
|------------------------------------------------------|----------------------------------|
|------------------------------------------------------|----------------------------------|
|
|         E   E       Q       E  E        E    E          q          E  E   Q     q
|------------------------------------------------------|----------------------------------|
|-------------5---------------6--6--------5------------|--6-------------5---------6-------|
|-------------5---------------7--7--------5------------|--7-------------5---------7-------|
|-------------5---------------7--7--------5------------|--7-------------5---------7-------|
|------------------------------------------------------|----------------------------------|
|------------------------------------------------------|----------------------------------|


      |3-|  |3-|  |--3--|
   E  E  S  E  S  S  S  S  E  E  a  E  E    E  E  E  E     E  S S  S  S  E
|-15-------------------------------------|-------------------------------------|
|----18-18p17p15-17h18p17p15-------------|----15-17-17b18r17p15p0-18p15--------|
|----------------------------17S15-17-15-|-17---------------------------17b19==|
|----------------------------------------|-------------------------------------|
|----------------------------------------|-------------------------------------|
|----------------------------------------|-------------------------------------|
|
|  E  E     Q              E  E     E  E    q     E  E     Q       q
|----------------------------------------|-------------------------------------|
|-----5--------------------6--6-----5----|-------------------------------------|
|-----5--------------------7--7-----5----|--3--------3-------------3-----------|
|-----5--------------------7--7-----5----|--3--------3-------------3-----------|
|----------------------------------------|--1--------1-------------1-----------|
|----------------------------------------|-------------------------------------|


                        |--3--|
   +Q.      +E    a  E  S  S  S  S  S  S  S
|-------------------------------------------|
|----------------------15h16p15----15----15-|
|-(17)-----(17)rS10S17----------18----18----|
|-------------------------------------------|
|-------------------------------------------|
|-------------------------------------------|
|
|   E  E Q           E  E        E     E
|-------------------------------------------|
|-------------------------------------------|
|------3-------------3--3--------3----------|
|------3-------------3--3--------3----------|
|-------------------------------------------|
|-------------------------------------------|


                                       |--3--|
   S  S  S  S  S  S  S  S  S  S  S  S  S  S  S  S  S
|-----------------------------------------------------|
|-15h18p15----15h18p15----15h17p15h17-15----15h18p15--|
|----------17----------17----------------17-----------|
|-----------------------------------------------------|
|-----------------------------------------------------|
|-----------------------------------------------------|
|
|  q           E     E     Q           q
|-----------------------------------------------------|
|--6-----------------5-----------------6--------------|
|--5-----------------5-----------------5--------------|
|--5-----------------5-----------------5--------------|
|-----------------------------------------------------|
|-----------------------------------------------------|


         |--3--|                |---3---|
   S  S  S  S  S  S  S  S   S   E  E    E  E   E
|----15h17p15----15h16p15---------17---18-20------|
|-18----------18----------[18]S20------------[17]S|
|-------------------------------------------------|
|-------------------------------------------------|
|-------------------------------------------------|
|-------------------------------------------------|
|
|  E     E        Q             E    E     E   E
|-------------------------------------------------|
|--------5----------------------5----5-----5------|
|--------5----------------------5----5-----5------|
|--------5----------------------5----5-----5------|
|-------------------------------------------------|
|-------------------------------------------------|


   |-----5-----|
   S  S  S  S  S  E  S  S  S  S  S  S  S  S  S  S    S   E  S      +H.
|----17h18p17----------17h18p17----------17h18p17-|-----17----------------|
|-20----------20p17-20----------20p17-20----------|-20-----20b22==(20)----|
|-------------------------------------------------|-----------------------|
|-------------------------------------------------|-----------------------|
|-------------------------------------------------|-----------------------|
|-------------------------------------------------|-----------------------|
|
|  W                                                +W
|--3----------------------------------------------|-(3)-------------------|
|--3----------------------------------------------|-(3)-------------------|
|--0----------------------------------------------|-(0)-------------------|
|--0----------------------------------------------|-(0)-------------------|
|-------------------------------------------------|-----------------------|
|--3----------------------------------------------|-(3)-------------------|


 Outro Chorus
   +H           +Q     a Q    W
|---------------------------|------------------|
|-(20)---------(20)rS=10----|------------------|
|---------------------------|------------------|
|---------------------------|------------------|
|---------------------------|------------------|
|---------------------------|------------------|
|
| Gtrs I, III
|      PM--|                    PM--|
|   E  S S E E  +H            E S S E E +H
|---------------------------|------------------|
|---6--------5--(5)---------|-6-------5-(5)----|
|---7--------5--(5)---------|-7-------5-(5)----|
|---7--------5--(5)---------|-7-------5-(5)----|
|------5-5-5----------------|---5-5-5----------|
|---------------------------|------------------|


  W                W
|----------------|----------------|
|----------------|----------------|
|----------------|----------------|
|----------------|----------------|
|----------------|----------------|
|----------------|----------------|
|
| E E E E +H       E E E E +H
|----------------|----------------|
|-5p3---3-(3)----|-6p5---5-(5)----|
|-5p3---3-(3)----|-7p5---5-(5)----|
|-5p3---3-(3)----|-7p5---5-(5)----|
|----------------|----------------|
|----------------|----------------|


  Gtrs I, III
    PM--|              PM--|
  E S S E E +H       E S S E E +H       E E E E +H
|------------------|------------------|----------------|
|-6-------5-(5)----|-6-------5-(5)----|-5p3---3-(3)----|
|-7-------5-(5)----|-7-------5-(5)----|-5p3---3-(3)----|
|-7-------5-(5)----|-7-------5-(5)----|-5p3---3-(3)----|
|---5-5-5----------|---5-5-5----------|----------------|
|------------------|------------------|----------------|


  Gtr II
  H        Q   E.  S    W
|--------------------|----------------------|
|--------------------|-11b13----------------|
|--------------------|----------------------|
|-----------------12-|----------------------|
|--------------------|----------------------|
|--------------------|----------------------|
|
| Gtrs I, III
|                            PM--|
| E E E E +H            E    S S E E +H
|--------------------|----------------------|
|-6p5---5-(5)--------|--6----------5-(5)----|
|-7p5---5-(5)--------|--7----------5-(5)----|
|-7p5---5-(5)--------|--7----------5-(5)----|
|--------------------|-------5-5-5----------|
|--------------------|----------------------|


   |------3-------|
   Q       Q      Q       E   E  S      +S   +E
|-------------------------------------------------|
|-13b15---10--------------------------------------|
|----------------12b13---12--10-12b14==(12)r(12)--|
|-------------------------------------------------|
|-------------------------------------------------|
|-------------------------------------------------|
|
|       PM-----|
|  E    S    S E       E +H
|-------------------------------------------------|
|--6-------------------5-(5)----------------------|
|--7-------------------5-(5)----------------------|
|--7-------------------5-(5)----------------------|
|-------5----5-5----------------------------------|
|-------------------------------------------------|


                         |--3--|
   +H        E. a  a  S  E  E  E    +S  E.    +H          E  E
|-----------------------------13-|-(13)------------------13-15-|
|-----------------------13h15----|-----15----(15)--------------|
|-(12)------12S=3-12S14----------|-----------------------------|
|--------------------------------|-----------------------------|
|--------------------------------|-----------------------------|
|--------------------------------|-----------------------------|
|
|   E E E E +H                       E     E   E  E +H
|--------------------------------|-----------------------------|
|---5p3---3-(3)------------------|---6p====5------5-(5)--------|
|---5p3---3-(3)------------------|---7p====5------5-(5)--------|
|---5p3---3-(3)------------------|---7p====5------5-(5)--------|
|--------------------------------|-----------------------------|
|--------------------------------|-----------------------------|


   S     S      +E     +H.
|-15b17r15b17==(15)---(15)----------|
|-----------------------------------|
|-----------------------------------|
|-----------------------------------|
|-----------------------------------|
|-----------------------------------|
|
|                PM---|
|  E             S  S   E  E +H
|-----------------------------------|
|--6-----------------------5-(5)----|
|--7-----------------------5-(5)----|
|--7-----------------------5-(5)----|
|----------------5--5---5-----------|
|-----------------------------------|


   +E    Q         E      +E   E  E  E
|-(15)r-15b17-----15b17==(15)r15-13-15-|
|--------------------------------------|
|--------------------------------------|
|--------------------------------------|
|--------------------------------------|
|--------------------------------------|
|
|        PM-----|
|   E    S    S E  E      +H
|--------------------------------------|
|---6--------------5------(5)----------|
|---7--------------5------(5)----------|
|---7--------------5------(5)----------|
|--------5----5-5----------------------|
|--------------------------------------|


        ~~
   E.   S  +E   E  +E   E      +S   S  E    H.            +S   S  S  S
|-15---15-(15)-15-(15)-15b17==(15)r15p13-|------------------------------|
|----------------------------------------|-15------------(15)-15h17h18--|
|----------------------------------------|------------------------------|
|----------------------------------------|------------------------------|
|----------------------------------------|------------------------------|
|----------------------------------------|------------------------------|
|
|  E E      E   E  +H                       E E E E +H
|----------------------------------------|------------------------------|
|--5p3----------3--(3)-------------------|--6p5---5-(5)-----------------|
|--5p3----------3--(3)-------------------|--7p5---5-(5)-----------------|
|--5p3----------3--(3)-------------------|--7p5---5-(5)-----------------|
|----------------------------------------|------------------------------|
|----------------------------------------|------------------------------|


      T                    T                   T
                                            |--3--|
   S  S  S  S  S  S  S  S  S  S  S  S S  S  S  S  S
|-15h17p15-------15----15h17p15------------15h17p15-|
|----------18p17----18----------18p17---18----------|
|---------------------------------------------------|
|---------------------------------------------------|
|---------------------------------------------------|
|---------------------------------------------------|
|
|        PM---|            PM---|           PM-------
|  E     E     E     E     E     E    E     E
|---------------------------------------------------|
|--6-----------------5----------------6-------------|
|--7-----------------5----------------7-------------|
|--7-----------------5----------------7-------------|
|--------5-----5-----------5-----5----------5-------|
|---------------------------------------------------|


                       T
   S  S  S  S S  S  S  S  S  S  S  S  S  E    S       +Q   a Q  H
|----------15---15----16p15------------------------|-----------------*|
|-18p17-18---------18-------18p17p15-18p15---18b20-|-(18)S=8---------*|
|--------------------------------------------------|-----------------*|
|--------------------------------------------------|-----------------*|
|--------------------------------------------------|-----------------*|
|--------------------------------------------------|-----------------*|
|
|-|           PM---|            PM         PM
|  E     E    E     E     E     E     E    E           Q     Q  H
|--------------------------------------------------|-----------------*|
|--------5----------------6-----------5------------|---6-------------*|
|--------5----------------7-----------5------------|---7-------------*|
|--------5----------------7-----------5------------|---7-------------*|
|--5----------5-----5-----------5----------5-------|---5-------------*|
|--------------------------------------------------|-----------------*|


Duration Legend
---------------
W - whole; H - half; Q - quarter; E - 8th; S - 16th; T - 32nd; X - 64th; a - acciaccatura
+ - note tied to previous; . - note dotted; .. - note double dotted
Uncapitalized letters represent notes that are staccato (1/2 duration)
Irregular groupings are notated above the duration line
Duration letters will always appear directly above the note/fret number it represents the
duration for.  Duration letters with no fret number below them represent rests.  Multi-
bar rests are notated in the form Wxn, where n is the number of bars to rest for.  Low
melody durations appear below the staff

Tablature Legend
----------------
 h   - hammer-on
 p   - pull-off
 b   - bend
 pb  - pre-bend
 r   - bend release (if no number after the r, then release immediately)
 /\  - slide into or out of (from/to "nowhere")
 s   - legato slide
 S   - shift slide
  - natural harmonic
[n]  - artificial harmonic
n(n) - tapped harmonic
 ~   - vibrato
 tr  - trill
 T   - tap
 TP  - trem. picking
 PM  - palm muting
\n/  - tremolo bar dip; n = amount to dip
 \n  - tremolo bar down
 n/  - tremolo bar up
/n\  - tremolo bar inverted dip
 =   - hold bend; also acts as connecting device for hammers/pulls
 <>  - volume swell (louder/softer)
 x   - on rhythm slash represents muted slash
 o   - on rhythm slash represents single note slash

Misc Legend
-----------
 |  - bar
||  - double bar
||o - repeat start
o|| - repeat end
*|  - double bar (ending)
 :  - bar (freetime)
 $  - Segno
 &  - Coda
Tempo markers -  = BPM(8/16=s8/s16), where s8 = swing 8ths, s16 = swing 16ths


***************************************************************************************
* Generated using Power Tab Editor by Brad Larsen - http://powertab.guitarnetwork.org *
***************************************************************************************
comments
We did not receive enough feedback on this tab! Please rate:
print report bad tab
1 2 3 4 5
I want to post or [tab]
guest
You may want to rate the tab now too:
select rating
Please do not post tabs as comments. Select "correction" instead!