Oops, an error
Loading. Please wait.

Killers Tab

ver1
ver1

Album

Solo

Whole song

Interactive

More versions @911Tabs.com
22,816 views 12 this week
2 commentsread comments
1 2 3 4 5
accurate
x 4
Autoscroll
+/-
esc
set tempo
stop
Contributor
Hey! There's an official Ultimate Guitar app which is ideal
for learning songs when you're away from computer. Get the app
WARNING: You are trying to view
                                    content from Ultimate-Guitar.com
                                    in an unauthorized application,
                                    which is prohibited.

                                    Please use an official Ultimate
                                    Guitar Tabs application for iPhone,
                                    iPad or Android to access legitimate
                                    chords, guitar, bass, and drum tabs
                                    from Ultimate-Guitar.com database.

                                    Type "ultimate guitar tabs" in Apple
                                    App Store's or Android Market's
                                    search to find the application.
Band- Iron Maiden
Album- Killers

1.THE IDEAS OF MARCH

|------------------------------------------------------------------|
|------------------------------------------------------------------|
|------------------------------------------------------------------|
|--9-------11----12--------2---4---5--------4-----2--------12-11-9-|
|--7--------9----10--------0---2---3--------2-----0--------10--9-7-|
|------------------------------------------------------------------|

|------------------------------------------------------------------|
|------------------------------------------------------------------|
|------------------------------------------------------------------|
|--7--------9----11--------12--11--9--------7-----9--------7-------|
|--5--------7-----9--------10---9--7--------5-----7--------5-------|
|------------------------------------------------------------------|

Fig. 2
[gtr. 1]
|-------------------------------------------------------------------|
|--------------------------13--15--15b(17)--15(17)-13------12-------|
|(11)b12---14----14b(16)--------------------------------------14-12-|
|-------------------------------------------------------------------|
|-------------------------------------------------------------------|
|-------------------------------------------------------------------|

[gtr. 2]
|-------------------------------------------------------------------|
|-------------------------------------------------------------------|
|-------------------------------------------------------------------|
|(12)b14---11----11b(12)---14--16--16b(17)--16(17)-14------12-11----|
|----------------------------------------------------------------14-|
|-------------------------------------------------------------------|


[gtr. 1]
|-------------------------------------------------------------------|
|----------------------------------------------------------15b(17)--|
|--11------12----12b(14)---(16)b14-12--------11----12---------------|
|-------------------------------------------------------------------|
|-------------------------------------------------------------------|
|-------------------------------------------------------------------|

[gtr. 2]
|-------------------------------------------------------------------|
|-------------------------------------------------------------------|
|--------------------------(12)b11----------------------------------|
|--12------14----14b(16)-----------14--------12----14---------------|
|-------------------------------------------------------------------|
|-------------------------------------------------------------------|


Fig. 3
[space compressed]
|----------------------------------------------15b17--15---12--------12--------------|
|--15b(17)--15p12---------------------------12----------------15b17------15--12------|
|-------------------15p14p12--14b16--12------------------------------------------14b-|
|------------------------------------------------------------------------------------|
|------------------------------------------------------------------------------------|
|------------------------------------------------------------------------------------|

|------12----------------------------------------------------------------------------|
|--12------15--12--------------------------------------------------------------------|
|------------------15--14--12------12--14--12------12--14--12------12--14--12--------|
|------------------------------14--------------14--------------14--------------14----|
|------------------------------------------------------------------------------------|
|------------------------------------------------------------------------------------|

|------------------------------------------|--15--14-------------------15--14---------|
|------------------------------------------|----------15------17b19------------15-----|
|--12--------------12----------------------|--------------14-----------------------14-|
|------14--12------------------------------|------------------------------------------|
|--------------14------14--12--10----------|------------------------------------------|
|------------------------------------------|------------------------------------------|

|--17b19--17----------12------------12-12-12-15-12----12-----------------------------|
|----------------15b-----15-12-15b-----------------15----15-12-15-12-----------------|
|--------------------------------------------------------------------15-14-12----12--|
|-----------------------------------------------------------------------------14-----|
|------------------------------------------------------------------------------------|
|------------------------------------------------------------------------------------|

|--------------------------------------------------|
|--------------------------------------------------|
|--14----12----------------------------------------|
|-------------14---12------------------------------|
|-----------------------14---13---12---------------|
|--------------------------------------15---12-----|


Fig. 4
|------------------------------------------------------------------------------------|
|-----12-15-12----12-15-12----12-15-12----12-15-12----12-15-12----12-15----------15--|
|--14b---------14b---------14b---------14b---------14b---------14b----------/16------|
|------------------------------------------------------------------------------------|
|------------------------------------------------------------------------------------|
|------------------------------------------------------------------------------------|

|------------------------------------------------------------------------------------|
|--17b(20)----------------------17b(20)------------15---17---15h17-15h17-14h15-14h15-|
|------------------------------------------------------------------------------------|
|------------------------------------------------------------------------------------|
|------------------------------------------------------------------------------------|
|------------------------------------------------------------------------------------|

|------------------------------------------------------------------------------------|
|------------------------------------------------------------------------------------|
|--16p14p12---14p12-14p12-14h16p14p12-14p12-14p12p11-12p11---------------------------|
|----------------------------------------------------------14-------------12---14----|
|---------------------------------------------------------------12h13h14-------------|
|------------------------------------------------------------------------------------|

|-------------------------------------------------------------------------12---15b---|
|------------------------------------------------------------------------------------|
|--12--------------------------------------12----------------------------------------|
|-------14---12---14-------------12---14--------14-----------------------------------|
|----------------------12h13h14------------------------------------------------------|
|------------------------------------------------------------------------------------|

|--(17)-------------------------------15b(17)-----15b(17)------(15)------12----------|
|------------------------------------------------------------------------------------|
|------------------------------------------------------------------------------------|
|------------------------------------------------------------------------------------|
|------------------------------------------------------------------------------------|
|------------------------------------------------------------------------------------|

|--17b(19)---17b(19)---17b(19)---15---14---15---14--------14-------------------------|
|----------------------------------------------------17--------17----15----17--------|
|------------------------------------------------------------------------------------|
|------------------------------------------------------------------------------------|
|------------------------------------------------------------------------------------|
|------------------------------------------------------------------------------------|

2.WRATHCHILD

Intro / Verse
e----------|------------------------------------|
b----------|------------------------------------|
g----------|------------------------------------|
d-7/9-99-9-|------------------------------------|
a-5/7-77-7-|-10-10-9-9-10-10-12-12-10-10-9-9----|
e----------|---------------------------------10-|

Intro Lead
e----------------------------------|-------------------------------------------|
b-15b(17)-15b(17)-r15--------------|-18b(20)-18b(20)r19b(20)-r18---------------|
g---------------------12h14p12~12\-|-----------------------------12h14p12~-----|
d----------------------------------|---------------------------------------14\-|
a----------------------------------|-------------------------------------------|
e----------------------------------|-------------------------------------------|

Verse

Pre Chorus
e---------|------------------|---------|-12-15b(17)-15-12h15p12-------|---------------|
b---------|-10b(12)-8h10p8~~-|---------|------------------------15b~~-|---------------|
g-5--4--9-|------------------|-5--4--9-|------------------------------|-5-4-----5-4-9-|
d-5--4--9-|------------------|-5--4--9-|------------------------------|-5-4-5-4-5-4-9-|
a-3--2--7-|------------------|-3--2--7-|------------------------------|-3-2-5-4-3-2-7-|
e---------|------------------|---------|------------------------------|-----3-2-------|

Verse/ Lead is in E

Chorus                               x3
e------------------------------------|-----------------------------------|---------------------|
b------------------------------------|-----------------------------------|---------------------|
g-9-9----------------9-9-------------|-5555-5-55-5-55-5-7777-7-77-7-77-7-|---------------------|
d-9-9----------------9-9-5-6-7-------|-5555-5-55-5-55-5-7777-7-77-7-77-7-|---------------------|
a-7-7-7-5---5~---5h7-7-7-------5-3-5-|-3333-3-33-3-33-3-5555-5-55-5-55-5-|-7-5---5-------------|
e---------7----7---------------------|-----------------------------------|-----7---7-6-7-6-5-3-|

Bridge
e-------------------------------|----------------------------|---------------------------|
b-------------------------------|----------------------------|---------------------------|
g-------------------------------|----------------------------|---------------------------|
d-------------------------------|---------2------2-----------|--------3------3-----------|
a----------5-------5------------|--4-4--4---4--4---4-3-2-0---|-5-5--5---5--5---5-4-3-1---|
e--7-7---7---7---7---7-6-5-3-0--|--------------------------2-|-------------------------3-|

3.MURDERS IN THE RUE MORGUE

|-----0-------0---------0-------0-----------------------------------------|
|----0-0-1---1-1-3-----0-0-1---0-0-1--------------------------------------|
|-------------------------------------------------------------------------|
|-------------------0--------0---------repeat until drums come in fully---|
|-2--------3--------------------------------------------------------------|
|-------------------------------------------------------------------------|

With distortion
|-------------------------------------------------------------------------|
|--guitar 1---------------------------------------------------------------|
|-------------------------------------------------------------------------|
|--4-----2--4--5---4--5--7---------7--7--7--5-4-2-------------------------|
|--2-----0--2--3---2--3--5---------5--5--5--3-2-0-------------------------|
|-------------------------------------------------------------------------|
|                                                                         |
|-------------------------------------------------------------------------|
|-12~--10-12-13~--12-13-15b16r15--15-15-15-13-12-10-----------------------|
|-------------------------------------------------------------------------|
|-guitar 2----------------------------------------------------------------|
|-------------------------------------------------------------------------|
|-------------------------------------------------------------------------|

|-------------------------------------------------------------------------|
|--guitar 1---------------------------------------------------------------|
|-------------------------------------------------------------------------|
|--4-----2--4--5---4--5--7---------7--7--7--5-4-2-------------------------|
|--2-----0--2--3---2--3--5---------5--5--5--3-2-0-------------------------|
|-------------------------------------------------------------------------|
|                                                                         |
|---------------------------------17-15-14-12-15-14-12-10-----------------|
|-12~--10-12-13~--12-13-15b16r15------------------------------------------|
|-------------------------------------------------------------------------|
|-guitar 2----------------------------------------------------------------|
|-------------------------------------------------------------------------|
|-------------------------------------------------------------------------|

|-------------------------------------------------------------------------|
|--guitar 1---------------------------------------------------------------|
|-------------------------------------------------------------------------|
|--4-----2--4--5---4--5--7---------7--7--7--5-4-2-------------------------|
|--2-----0--2--3---2--3--5---------5--5--5--3-2-0-------------------------|
|-------------------------------------------------------------------------|
|                                                                         |
|------12-14-15-14-12-----12-14-15-14-12----------17-15-14-12-15-14-12-10-|
|-12~-----------------13~----------------15b16r15-------------------------|
|-------------------------------------------------------------------------|
|-------------------------------------------------------------------------|
|--guitar 2---------------------------------------------------------------|
|-------------------------------------------------------------------------|

|-----------------------------------------------|
|--guitar 1-------------------------------------|
|-----------------------------------------------|
|--4-------------------2--4--5------------------|
|--2-------------------0--2--3---2--3--2--------|
|----------------------------------------3-2-0--|hold and then depress with bar
|                                                                         |
|------12-14-15-14-12-----12-14-15-14-12----------------------------------|
|-12~-----------------13~----------------15b16-hold-and fade out----------|
|-------------------------------------------------------------------------|
|-------------------------------------------------------------------------|
|-guitar 2----------------------------------------------------------------|
|-------------------------------------------------------------------------|

Verse Riff                       Ending 1         Ending 2
|-------------------------------|---------------|----------|
|-------------------------------|---------------|----------|
|-------------------------------|---------------|------7---|
|--9-999999-----------6-666666--|-7--0-4-0-5-4-0|--7-7-5-7-|
|--7-777777-7-777777--4-444444--|-5-------------|--5-5---5-|
|-----------5-555555------------|---------------|----------|

Chorus
|-------------------------------------------------------------------------|
|-------------------------------------------------------------------------|
|-------------------------------------------4-4-4-4-4---------------------|
|----------5---------------------------5-7~-----------7-5-----------------|
|--7-7-5-7---7~--5-5-5-5-4p0---7-7-5-7------------------------------------|
|-------------------------------------------------------------------------|

|-------------------------------------------------------------------------|
|-------------------------------------------------------------------------|
|-------------------------------------------------------------------------|
|----------5--------------------------------------------------------------|
|--7-7-5-7---7~--5-5-5-5-4p0---7-7-5-7----5-5-----------------------------|
|--------------------------------------7------7--0(depress with bar)------|

Interlude                            1st ending          2nd ending
|---------------------------------|---------------------|-------------------|
|---------------------------------|---------------------|-------------------|
|--/14-1414141414---12-14b15-12---|-12-12-14-16-12------|-12-12-12-12--11---|
|--/12-1212121212---------------14|----------------12-14|-------------------|
|---------------------------------|---------------------|-------------------|
|---------------------------------|---------------------|-------------------|

Interlude 2
|-------------------------------------------------------------------------|
|-------------------------------------------------------------------------|
|------------------------------------15b16-15-14-12-15-14-12-10-----------|
|--9-9-9-9/7--9-9-9-9/7--9-9-9-9-7---------------------------------X2-----|
|--7-7-7-7/5--7-7-7-7/5--7-7-7-7/5----------------------------------------|
|-------------------------------------------------------------------------|

Solo rythm
|-------------------------------------------------------------------------|
|-------------------------------------------------------------------------|
|----------------------------------------------------------5--------7-----|
|--5-5-5-5-7--9-9-9-7-5-a-few times----------------X4--5-5-3-5-7-7--5-7---|
|--3-3-3-3/5--7-7-7-5-3--------------3-3-3-3-2-0-2-----3-3---3-5-5----5---|
|-------------------------------------------------------------------------|

4.ANOTHER LIFE

-||---------------------|-----------------|-----------------|------------|----|
-||--------------8b-----|------------8b---|------------8b---|------------|----|
-||------5-7-5---7b-----|----5-7-5---7b---|----5-7-5---7b---|5----5------|----|
-||--/7-----------------|/7---------------|/7---------------|--7--------7|----|
-||---------------------|-----------------|-----------------|------------|----|
-||---------------------|-----------------|-----------------|------------|----|

                                                                  ~~~~~
-------------------|-------------------|-------------------|------------||----|
------------8b-----|------------8b-----|------------8b-----|------------||----|
-----5-7-5--7b-----|----5-7-5---7b-----|----5-7-5---7b-----|5----5------||----|
-/7----------------|/7-----------------|/7-----------------|--7--------7||----|
-------------------|-------------------|-------------------|------------||----|
-------------------|-------------------|-------------------|------------||----|

   %
-||---------------------------------------------------------------------------|
-||---------------------------------------------------------------------------|
-||---------------------------------------------------------------------------|
-||7---7-7-7---7---7--7-7-7----7---7---7---7-7-7--5---5-5-5---5---5---5-------|
-||7---7-7-7---7---7--7-7-7----7---7---7---7-7-7--5---5-5-5---5---5---5-------|
-||5---------5-5-5-5---------5---5---5------------3---------3---3---3---------|

             Rhy fig 1.
-----------||--------------------------------------------------||-------------|
-----------||*------------------------------------------------*||-------------|
-----------||--------------------------------------------------||-------------|
---5--5-5-5||-7---7-7-7---7---7----7-7-7----7---7---7----7-7-7-||-------------|
---5--5-5-5||*7---7-7-7---7---7----7-7-7----7---7---7----7-7-7*||-------------|
-3---------||-5---------5-5-5-5-----------5---5---5------------||-------------|

                  end fig 1.   Rhy. Fig 2
-----------------------------||-------------------------------------|---------|
-----------------------------||-------------------------------------|---------|
-----------------------------||-------------------------------------|---------|
-5-----5---5---5---5---5-5-5-||7---7---7---7-7-7-----7----7---7-7-7-|--7---7--|
-5-----5---5---5---5---5-5-5-||7---7---7---7-7-7-----7----7---7-7-7-|--7---7--|
-3---3---3---3---3-----------||5---5-5-----------5-5-5--5-5---------|5---5----|
                                As I lay here ly-ing on my bed, sweet voices

-------------------------|------------------|-------------|-------------------|
-------------------------|------------------|-------------|-------------------|
-------------------------|------------------|-------------|-------------------|
---7---7-7-7-------------|5------5---5---5--|5---5-5-5----|7---7---7---7-7-7--|
---7---7-7-7-------------|5------5---5---5--|5---5-5-5----|7---7---7---7-7-7--|
-5-----------------------|3----3---3---3---3|-------------|5---5-5------------|
 come_ into my head.        What it is, I wanna know,____      Please

----------------------------------|----------------|---------------|----------|
----------------------------------|----------------|---------------|----------|
----------------------------------|----------------|---------------|----------|
-----7---7-7-7-----7---7---7---7-7|7------9-----9--|--10-----11----|10-----9--|
-----7---7-7-7-----7---7---7---7-7|7------9-----9--|---9------9----|-9-----9--|
-5-5-5-----------5-5-5---5--------|---7-7---7-7---7|7----7-7----7-7|---7-7----|
 won't you tell me it's got-ta go._______________________________

--------------------------------------|-----------------------------|---------|
--------------------------------------|-----------------------------|---------|
--------------------------------------|-----------------------------|---------|
-7---7---7---7-7-7-----7----7---7-7-7-|--7---7-----7---7-7-7-----7--|5------5-|
-7---7---7---7-7-7-----7----7---7-7-7-|--7---7-----7---7-7-7-----7--|5------5-|
-5---5-5-----------5-5-5--5-5---------|5---5---5-5-5---------5-5-5--|3----3---|
 There's a feeling that's inside me    telling me to get a-way.____  But I'm
                                              End fig 1.  Interlude
-----------------------|--------------------------------||--------------------|
-----------------------|--------------------------------||*-------------------|
-----------------------|--------------------------------||19-19-19-19-19-19---|
---5---5---5---5-5-5---|-7-----7---7---7---7----7-7-7---||--------------------|
---5---5---5---5-5-5---|-7-----7---7---7---7----7-7-7---||*-------------------|
-3---3---3-------------|-5---5---5---5---5--------------||--------------------|
 so tired of living.     I might as well end to-day.___
                                                 (end interlude)
---------------------||-----------------------------------12----||------------|
--------------------*||-----------------------------------------||------------|
-19----19-17-15-17---||19-17-15-17-----19-17-15-14-12-10--------||------------|
---------------------||-----------------------------------------||------------|
--------------------*||-----------------------------------------||------------|
---------------------||-----------------------------------------||------------|
         Play 3 times                                   (To Coda)

-||-----------------------------------------------------------------------||--|
-||-----------------------------------------------------------------------||--|
-||-----------------------------------------------------------------------||--|
-||-----------------------------------------------------------------------||--|
-||-----------------------------------------------------------------------||--|
-||-----------------------------------------------------------------------||--|
         Play Rhy. Fig 1. Then verse, then Interlude, then following Rhym.

-||----------------------------------------------------------------------------|
-||*---------------------------------------------------------------------------|
-||----------------------------------------------------------------------------|
-||----------------------------------------------------------------------------|
-||*-10--10--10---------10--------13--13--13---------13--------12--12-12-------|
-||--8---8---8----8-8-8-8----8-8--11--11--11--111111-11--1111--10--10-10-------|
                 |--3--|    |---|            |--3---|   |----------------------|

-------------------------------------------------------||----------------------|
------------------------------------------------------*||----------------------|
-------------------------------------------------------||----------------------|
-------------------------------------------------------||----------------------|
---------12-------12--12-131313\1212--------12------12*||10--1010-10--1010-----|
-101010--10--1010-10--10-111111\1010-101010-10-1010-10-||8----8-8--8---8-8-----|
|--3---|    |----|       |----------||--3--|   |---|         |---|    |--------|

------------------|------------------------------------|-----------------------|
------------------|------------------------------------|-----------------------|
------------------|------------------------------------|-----------------------|
------------------|------------------------------------|-----------------------|
-10--1010-10101010|-13--1313-13--1313-13--1313-13131313|-12--1212-12--1212-----|
--8---8-8--8-8-8-8|-11--1111-11--1111-11--1111-11111111|-10--1010-10--1010-----|
    |----||-------|    |----|   |----|   |----||-------------------------------|

------------------|------------------------------------|----------------------|
------------------|------------------------------------|----------------------|
------------------|------------------------------------|----------------------|
------------------|------------------------------------|----------------------|
-12--1212-12121212|-12--1212-12--1212-12--1212-12121212|-10--1010-10--1010----|
-10--1010-10101010|-10--1010-10--1010-10--1010-10101010|--8---8-8--8---8-8----|


------------------|------------------------------------|----------------------|
------------------|------------------------------------|----------------------|
------------------|------------------------------------|----------------------|
------------------|------------------------------------|-10--1010-10--1010----|
-10--1010-10101010|-13--1313-13--1313-13--1313-13131313|--8---8-8--8---8-8----|
--8---8-8--8-8-8-8|-11--1111-11--1111-11--1111-11111111|----------------------|

                                            go to %
------------------|-----------------------||-------------------------------|-|
------------------|-----------------------||-------------------------------|-|
------------------|-9---------------------||-------------------------------|-|
-10--1010-10101010|-7---------------------||-------------------------------|-|
--8---8-8--8-8-8-8|-0---------------------||-------------------------------|-|
------------------|-----------------------||-------------------------------|-|

Coda
-------------------------|--------------------|----||-------------------------|
-------------------------|--------------------|----||-------------------------|
-------------------------|--------------------|----||-------------------------|
-10----(10)--------------|8-------------------|----||-------------------------|
--8----(-8)--------------|6-------------------|7---||-------------------------|
-------------------------|--------------------|5---||-------------------------|
       ////              ////
      tremelo pick

5.GENGHIS KHAN

This is the intro riff (both guitars):

E-------||---------------------------|-------------------------|
B-------||---------------------------|-------------------------|
G---4:--||*--------------------------|-------------------------|
D---4:--||*--0-0-0-7-7-7-5-5-5-4-4-4-|-2-2-2-0-0-0-------------|
A-------||---------------------------|-------------3-3-3-0-0-0-|
E-------||---------------------------|-------------------------|

E----------------------|----------------------||--|
B----------------------|----------------------||--|
G----------------------|---------------------*||--|
D----------------------|---2--2--2-2-5---4---*||--|
A--3--3--3-3-5--5--5-5-|---0--0--0-0-3---2----||--|
E--1--1--1-1-3--3--3-3-|----------------------||--|


This is the next part (both guitars, doubled by bass):

E||-------------------------------|------------------------------||--|
B||-------------------------------|------------------------------||--|
G||*-----7-7-7-7--7--9--7--5-7-5--|------7-7-7-7--7--9--7--5----*||--|
D||*--0--0-0-0-0--5--7--5--3-5-3--|---0--0-0-0-0--5--7--5--3----*||--|
A||-------------------------------|------------------------------||--|
E||-------------------------------|------------------------------||--|


E||-------------------------------|------------------------------||--|
B||-------------------------------|------------------------------||--|
G||*------------------------------|-----------------------------*||--|
D||*--------------7--9--7--5-7-5--|---------------7--9--7--5----*||--|
A||---0--3-3-3-3--5--7--5--3-5-3--|---0--3-3-3-3--5--7--5--5-----||--|
E||-------------------------------|------------------------3-----||--|


E||-------------------------------|------------------------------||--|
B||-------------------------------|------------------------------||--|
G||*-----7-7-7-7--7--9--7--5-7-5--|------7-7-7-7--7--9--7--5----*||--|
D||*--0--0-0-0-0--5--7--5--3-5-3--|---0--0-0-0-0--5--7--5--3----*||--|
A||-------------------------------|------------------------------||--|
E||-------------------------------|------------------------------||--|


E||-------------------------------|------------------------------||--|
B||-------------------------------|------------------------------||--|
G||*------------------------------|-----------------------------*||--|
D||*--------------7--9--7--5-7-5--|---------------7--9--7--5----*||--|
A||---0--3-3-3-3--5--7--5--3-5-3--|---0--3-3-3-3--5--7--5--5-----||--|
E||-------------------------------|------------------------3-----||--|


This is the next riff (still both guitars):
                                                                      3x
E||------------------------------------|------------------------------||
B||------------------------------------|------------------------------||
G||*-----7-7-7-7--9-----10-10-10-9--7--|------10-10-10-9--7--5--4----*||
D||*--0--5-5-5-5--7--0--8--8--8--7--5--|---0--8--8--8--7--5--3--2----*||
A||------------------------------------|---------------------------3--||
E||------------------------------------|------------------------------||


E------------------------------------|--------------------|----|
B------------------------------------|--------------------|----|
G------7-7-7-7--9-----10-10-10-9--7--|-----10-10-10-9--7--|----|
D---0--5-5-5-5--7--0--8--8--8--7--5--|--0--8--8--8--7--5--|----|
A------------------------------------|--------------------|----|
E------------------------------------|--------------------|----|

The next part (still both guitars):

E--------||-------------------------|----------------------------||
B--------||-------------------------|----------------------------||
G---12:--||*------------------------|---------------------------*||
D---8-:--||*--0--0-3-2-0-0--0-3-2-0-|------------0-2-2-2-2-0----*||
A--------||-------------------------|---0--0-2-3-------------3---||
E--------||-------------------------|----------------------------||

E---||--------------------------|---------------------------||
B---||--------------------------|---------------------------||
G---||*-------------0--0-----0--|---2--2-------0--0--------*||
D---||*--0--0-3-2-0------2-3----|--------3-2-0------3-2-0--*||
A---||--------------------------|---------------------------||
E---||--------------------------|---------------------------||

E--------||-------------------------|----------------------------||
B--------||-------------------------|----------------------------||
G---12:--||*------------------------|---------------------------*||
D---8-:--||*--0--0-3-2-0-0--0-3-2-0-|------------0-2-2-2-2-0----*||
A--------||-------------------------|---0--0-2-3-------------3---||
E--------||-------------------------|----------------------------||

E---||--------------------------|---------------------------||
B---||--------------------------|---------------------------||
G---||*-------------0--0-----0--|---2--2-------0--0--------*||
D---||*--0--0-3-2-0------2-3----|--------3-2-0------3-2-0--*||
A---||--------------------------|---------------------------||
E---||--------------------------|---------------------------||

The next part (you guessed it, still both guitars):

E||--------------------------|----------------------------||
B||--------------------------|----------------------------||
G||*-------------------------|---------------------------*||
D||*-------------------------|---------------------------*||
A||---0--0-3-2-0-7-5-0-3--0--|---(0)-0-3-2---0--0-3-2-----||
E||--------------------------|-------------3----------3---||

E----------------------------|------------------------------|
B----------------------------|------------------------------|
G----------------------------|------------------------------|
D----0--0-3-2-0-7-5-0--3--0--|--(0)--0-3-2---0--0-3-2-------|
A----------------------------|-------------3----------3-----|
E----------------------------|------------------------------|
                                                          3x
E||--------------------------|----------------------------||
B||--------------------------|----------------------------||
G||*-------------------------|---------------------------*||
D||*-------------------------|---------------------------*||
A||---0--0-3-2-0-7-5-0-3--0--|---(0)-0-3-2---0--0-3-2-----||
E||--------------------------|-------------3----------3---||


E--------------------------------------|-------------------|
B--------------------------------------|-------------------|
G--------------------------------------|-------------------|
D---0--0-3-2-0----------0-2-2-2-2-0----|-------------------|
A--------------0--0-2-3-------------3--|-------------------|
E--------------------------------------|-------------------|

E---------------------------------|--------------------------|
B---------------------------------|--------------------------|
G---12:---------------------------|--------------------------|
D---8-:-----0--0-3-2-0-0--0-3-2-0-|------------0-2-2-2-2-0---|
A---------------------------------|---0--0-2-3-------------3-|
E---------------------------------|--------------------------|

E---||--------------------------|---------------------------||
B---||--------------------------|---------------------------||
G---||*-------------0--0-----0--|---2--2-------0--0--------*||
D---||*--0--0-3-2-0------2-3----|--------3-2-0------3-2-0--*||
A---||--------------------------|---------------------------||
E---||--------------------------|---------------------------||


E------|----------------------------------------------------------------|
B------|----------------------------------------------------------------|
G---7--|----------------------------------------------------------------|
D---7--|----------------------------------------------------------------|
A---5--|----------------------------------------------------------------|
E------|----------------------------------------------------------------|

This is the rhythm for the next part (play 4 times):

E-----------------------------------|-------------------------------|
B-----------------------------------|-------------------------------|
G---4:------------------------------|-------------------------------|
D---4:--9--9-9-9--9-9-9--9-9-9--9-9-|---5--5-5-5--5-5-5--5-5-5--5-5-|
A-------7--7-7-7--7-7-7--7-7-7--7-7-|---3--3-3-3--3-3-3--3-3-3--3-3-|
E-----------------------------------|-------------------------------|

E-------------------------------|-------------------------------|
B-------------------------------|-------------------------------|
G-------------------------------|-------------------------------|
D---2--2-2-2--2-2-2--2-2-2-4----|---5--5-5-5--5-5-5--5-5-5--5-5-|
A---0--0-0-0--0-0-0--0-0-0-2----|---3--3-3-3--3-3-3--3-3-3--3-3-|
E-------------------------------|-------------------------------|

E-----------------------------------|------------------------------|
B-----------------------------------|------------------------------|
G---4:------------------------------|------------------------------|
D---4:--9--9-9-9--9-9-9--9-9-9--9-9-|--9--9-9-9--9-9-9--9-9-9--9-9-|
A-------7--7-7-7--7-7-7--7-7-7--7-7-|--7--7-7-7--7-7-7--7-7-7--7-7-|
E-----------------------------------|------------------------------|

This is the lead part that is played over top of the above rhythm
(straight 16ths, all palm muted, play 4 times):

E----------------------------------------|---------------|
B----------------------------------------|---------------|
G---4:----------4---------------4--------|---------------|
D---4:----5-4-5---5-4-5---5-4-5---5-4-5--|---------------|
A-------7---------------7----------------|---------------|
E----------------------------------------|---------------|

E------------------------------------|-------------------|
B------------------------------------|-------------------|
G-----------5---------------5--------|-------------------|
D-----5-4-5---5-4-5---5-4-5---5-4-5--|-------------------|
A---7---------------7----------------|-------------------|
E------------------------------------|-------------------|

E----------------------------------------|---------------|
B----------------------------------------|---------------|
G---4:----------4---------------4--------|---------------|
D---4:----5-4-5---5-4-5---5-4-5---5-4-5--|---------------|
A-------7---------------7----------------|---------------|
E----------------------------------------|---------------|

E------------------------------------|-------------------|
B------------------------------------|-------------------|
G-----------5---------------5--------|-------------------|
D-----5-4-5---5-4-5---5-4-5---5-4-5--|-------------------|
A---7---------------7----------------|-------------------|
E------------------------------------|-------------------|

E----------------------------------------|---------------|
B----------------------------------------|---------------|
G---4:----------4---------------4--------|---------------|
D---4:----5-4-5---5-4-5---5-4-5---5-4-5--|---------------|
A-------7---------------7----------------|---------------|
E----------------------------------------|---------------|

E----------------------------------------|---------------|
B----------------------------------------|---------------|
G---4:----------4---------------4--------|---------------|
D---4:----5-4-5---5-4-5---5-4-5---5-4-5--|---------------|
A-------7---------------7----------------|---------------|
E----------------------------------------|---------------|

Then there is another lead part played over top of both
of the above parts. This is played by 2 guitars. They both
play exactly the same part, except one of them adds a
dotted quarter rest in front of the first bend at the 15th,
offsetting the entire part by a dotted quarter note. Play twice.

E-----------------------|-----------------|---------------|-----|-------|
B-------15^--15^--(15)--|--13--12^--(12)--|--10--8^--(8)--|--5--|-------|
G---4:------------------|-----------------|---------------|-----|-------|
D---4:------------------|-----------------|---------------|-----|-------|
A-----------------------|-----------------|---------------|-----|-------|
E-----------------------|-----------------|---------------|-----|-------|


          dive w/bar
E------|--------|-------------------------------------------------------|
B---8--|--(8)\--|-------------------------------------------------------|
G---9--|--(9)\--|-------------------------------------------------------|
D---9--|--(9)\--|-------------------------------------------------------|
A---7--|--(7)\--|-------------------------------------------------------|
E------|--------|-------------------------------------------------------|

This is the rhythm for the ending:

E----------|-----|-----|-----------|-----|-----|-----|-----------|------|
B----------|-----|-----|-----------|-----|-----|-----|-----------|------|
G---4:--9--|--7--|--5--|--4--5--7--|--9--|--7--|--5--|--4--5--7--|------|
D---4:--9--|--7--|--5--|--4--5--7--|--9--|--7--|--5--|--4--5--7--|------|
A-------7--|--5--|--3--|--2--3--5--|--7--|--5--|--3--|--2--3--5--|------|
E----------|-----|-----|-----------|-----|-----|-----|-----------|------|

E------|----------------------------------------------------------------|
B------|----------------------------------------------------------------|
G---9--|----------------------------------------------------------------|
D---9--|----------------------------------------------------------------|
A---7--|----------------------------------------------------------------|
E------|----------------------------------------------------------------|

This is the lead for the ending:
                                         7x
E----------------------------------------||---------------|
B----------------------------------------||---------------|
G---4:----------4---------------4-------*||---------------|
D---4:----5-4-5---5-4-5---5-4-5---5-4-5-*||---------------|
A-------7---------------7----------------||---------------|
E----------------------------------------||---------------|

E---------------------------------------|---------------|
B---------------------------------------|-------7-------|
G---4:----------4-----------------------|---------------|
D---4:----5-4-5---5-4-5---5-4-5-7-5-4-5-|-----5---------|
A-------7---------------7---------------|---7-----------|
E---------------------------------------|---------------|

6.INNOCENT EXILE

Don't Know

7.KILLERS

Bass Intro
G|----------|----------|----------|
D|----------|----------|----------|
A|-7-7-7-7--|-7-7-7-7--|-5-5-3-2/-|
E|--0-0-0-0-|--0-0-0-0-|--0-0-0---|

   (Dave)           (Adrian)
e|---------------||-<12>------|------<7>-----|
B|---------------||-----<12>--|---------<7>--|
G|---------------||-----------|--------------|
D|---------------||-----------|--------------|
A|-5h7p5h7 trill-||-----------|--------------|
E|---------------||-----------|--------------|
                                     Oh...
   Dave
     E5        E5
e|--------------------------------||
B|--------------------------------||
G|---9\--------9\-----------------||
D|---9\--------9\-----------------||
A|---7\--------7\-----------------||
E|--------------------------------||
 | Adrian
e|---0---0---0---0---0---0---0----||
B|-----8-------8-------8-------8--||
G|-9-------9-------9-------9------||
D|--------------------------------||
A|--------------------------------||
E|--------------------------------||
    Yeah!     Yeah!

e||------------------------------------||
B||------------------------------------||
G||------------------------------------||
D||---5/7------7/9/10----7\5---5/7-----||
A||------------------------------------||
E||---3/5------5/7//8----5\3---3/5-----||


Verse Intro
Dave plays it by gently touching the strings to allow the harmonics to sound
and slowly sliding up to the 12th fret while gallopping with the right hand.
When vocals start he plays E5's like Adrian.
e||--///////////////--------------------|---------------------------------||
B||--/////////////////////////----------|---------------------------------||
G||-1/////////////////////////12--12\---|---------------------------------||
D||-1/////////////////////////12--12\---|-0-5-4-0-5-4-0-5-4-0-5-0-5-0-5---||
A||-1/////////////////////////12--12\---|---------------------------------||
E||---------------////////////----------|---------------------------------||
 |Adrian  E5
e||-------------------------------------|---------------------------------||
B||-------------------------------------|---------------------------------||
G||-------------------------------------|---------------------------------||
D||---9---9---9---9---9---9---9---9---9-|-0-9-7-0-9-7-0-9-7-0-9-7-9-7-9---||
A||---7-777-777-777-777-777-777-777-777-|---------------------------------||
E||-------------------------------------|---------------------------------||

Chorus
    C5      E5                   G
e|--------------------------------------------------------|
B|--------------------------------------------------------|
G|----------9--------------------12-----------------------|
D|--10------9---9---9---9-10-----12-----12-----12-----12--|
A|--10------7-777-777-777-10-----10-101010-101010-101010--|
E|---8---------------------8------------------------------|

    C5      E5            C5
e|---------------------------|
B|---------------------------|
G|----------9----------------|
D|--10------9---9---9---9-10-|
A|--10------7-777-777-777-10-|
E|---8---------------------8-|

e|---------------------------------------------------------------||
b|---------------------------------------------------------------||
g|---------------------------------------------------------------||
D|-----9-9-9p7------9-9-9p7------10-10-10p8-------12-12-12p10----||
A|-------------9------------9---------------10---------------12--||
E|---7------------7------------8---------------10----------------||

Harmony
(this is only one of the guitars)
e||------------------------------------------------------------------------||
b||-11b(13)-11~-9-9-9h11p9-8h9p8----------11b(13)~-11-9-9-9h11p9-8h9p8-----||
g||-----------------------------10h12p10-8----------------------------10-8-||
D||------------------------------------------------------------------------||
A||------------------------------------------------------------------------||
E||------------------------------------------------------------------------||

Bridge
     G5  A5   E5  D5  D5  E5    G5  A5   E5  D5   E5
e||---------------------------|-----------------------|
B||*--------------------------|-----------------------|
G||*--------------------------|-----------------------|
D||-----------999-777-777-999-|----------9-9-7-7-7-9--|
A||---5--777--777-555-555-777-|--5--777--7-7-5-5-5-7--|
E||---3--555------------------|--3--555---------------|

     G5  A5   E5  D5  D5  E5
e||---------------------------|
B||*--------------------------|
G||*--------------------------|
D||-----------999-777-777-999-|
A||---5--777--777-555-555-777-|
E||---3--555------------------|

(x2 times)
    G5  A5    F5                      G5
e||---------------------------------|---------------------------------|
B||---------------------------------|---------------------------------|
G||---------------------------------|---------------------------------|
D||---------------------------------|---------------------------------|
A||-5--777----3-333-333-333-333-333-|-555-555-555-555-555-555-555-555-|
E||-3--555----1-111-111-111-111-111-|-333-333-333-333-333-333-333-333-|

    C5                                D5 (omit 2nd time, skip to solo)
e||---------------------------------|---------------------------------|
B||---------------------------------|---------------------------------|
G||---------------------------------|---------------------------------|
D||-555-555-555-555-555-555-555-555-|-777-777-777-777-777-777-777-777-|
A||-333-333-333-333-333-333-333-333-|-555-555-555-555-555-555-555-555-|
E||---------------------------------|---------------------------------|

Rhythm for first solo:
   D5
e||---------------------|
B||---------------------|
G||-7-------7-------7---|
D||-7-------7-------7---|
A||-5-------5-------5---|
E||---------------------|
   see!    see!    see!

(x2 times)
   E5                                C5      D5      E5
e||---------------------------------|---------------------------------|
B||---------------------------------|---------------------------------|
G||---------------------------------|---------------------------------|
A||-9-9-9-9-9-9-9-9-9-9-9-9-9-9-9-9-|-5-5-5-5-7-7-7-7-9-9-9-9-9-9-9-9-|
D||-7-7-7-7-7-7-7-7-7-7-7-7-7-7-7-7-|-3-3-3-3-5-5-5-5-7-7-7-7-7-7-7-7-|
E||---------------------------------|---------------------------------|

(x2 times)
   G5 A5             B5 C5           G5      B5      A5
e||---------------------------------|---------------------------------|
B||---------------------------------|---------------------------------|
G||---------------------------------|---------------------------------|
A||---------------------------------|---------------------------------|
D||-5-7-7-7-7-7-7-7-7/9101010101010-|-5-5-5-5-9-9-9-9-7-7-7-7-7-7-7-7-|
E||-3-5-5-5-5-5-5-5-5/7-8-8-8-8-8-8-|-3-3-3-3-7-7-7-7-5-5-5-5-5-5-5-5-|

Rhythm for 2nd solo is same as bridge.

Ending (both guitars) [this is probably wrong]
e|----------------------------------------------||
B|--------------------------10-8----------------||
G|---9-7---9-7---9-7---9-7---7-5-9-7-----9--9---||
D|-0-5-4-0-5-4-0-5-4-0-5-4-------5-4-7---9--9---||
A|-----------------------------------7---7--7---||
E|----------------------------------------------||


Solos courtesy of Eddie Breslin (caladan@maths.tcd.ie)

It's impossible to be 100% accurate tabbing a solo like this (so I
didn't, I edited somebody elses) so concentrate on isolating the
individual phrases and how they link together.

Dave's Solo:
  (see)      (see)      (see)
|--------------------------------------------------------------------|
|--13b(15)----13b(15)----13b(15)-------------------------------------|
|----------------------------------14b(16)-(16)-(15)-14--12--14b(16)-|
|--------------------------------------------------------------------|
|--------------------------------------------------------------------|
|--------------------------------------------------------------------|

|-----------12-15-12---12-----------12-----------------------------------|
|--15b(17)-----------x------15b(17)----15-12-15p12-----------------------|
|--------------------------------------------------14b(16)-14-12---12h14-|
|----------------------------------------------------------------14------|
|------------------------------------------------------------------------|
|------------------------------------------------------------------------|

                 The open B is hardly heard as the high notes should be
                 hammered very quickly.
|----------------------------------------12------------------------------|
|----------------0h15h17--0h15h17--14p12-----0h15h17--0h15h17--14p12-----|
|-14b(16)-(16)\------------------------------------------------------14~-|
|------------------------------------------------------------------------|
|------------------------------------------------------------------------|
|------------------------------------------------------------------------|

|-------------------14h15p14h15p14h15p14h17p15p14h15p14----------14p12-------|
|---------14h16h17--------------------------------------17p15----------15p14-|
|--14/16------------------------------------------------------15-------------|
|----------------------------------------------------------------------------|
|----------------------------------------------------------------------------|
|----------------------------------------------------------------------------|

                Concentrate on strumming 16th notes on the
                open E string and quickly dart in and out with
                the high notes.
|---------------0-0---12-0-0-14-14-0-15--17-15-14--0-0--12---|
|--12--(12)\--0----------------------------------------------|
|------------------------------------------------------------|
|------------------------------------------------------------|
|------------------------------------------------------------|
|------------------------------------------------------------|


|--12-0-0-14-0-0-15-15-0-0-17-15-14-0-0-12--12-12-0-0-14-14-0-0--|
|----------------------------------------------------------------|
|----------------------------------------------------------------|
|----------------------------------------------------------------|
|----------------------------------------------------------------|
|----------------------------------------------------------------|

|--15-15-17-17-15-14-0-0--12-12-0-0-14-14-0-0-15-15-17-15-14-14-0-0--|
|--------------------------------------------------------------------|
|--------------------------------------------------------------------|
|--------------------------------------------------------------------|
|--------------------------------------------------------------------|
|--------------------------------------------------------------------|

|--12-0-0-14-0-0-15-15-0-0-17-14-15p14--17p14--17p14--17p14--17p14--|
|-------------------------------------------------------------------|
|-------------------------------------------------------------------|
|-------------------------------------------------------------------|
|-------------------------------------------------------------------|
|-------------------------------------------------------------------|


|--17p14--17p14--17p14--14--17b(19)r17--17b(19)--17b(19)--17b(19)--|
|------------------------------------------------------------------|
|------------------------------------------------------------------|
|------------------------------------------------------------------|
|------------------------------------------------------------------|
|------------------------------------------------------------------|

Adrian's solo:

|-----------------------------------------------------|
|--15-------15----------------------------------------|
|--14b(16)--14--12-----12--14b(16)--14p12--14b(16)~~--|
|------------------14---------------------------------|
|-----------------------------------------------------|
|-----------------------------------------------------|

|----------12-----------------12-----------------12---------|
|--------------15p12--------------15p12--------------15p12--|
|--14b(16)------------14b(16)------------14b(16)------------|
|-----------------------------------------------------------|
|-----------------------------------------------------------|
|-----------------------------------------------------------|

|----------12--15b(18)r15-----------------------12-----|
|--------------------------------------------------12--|
|--14b(16)--------------------12h14--14b(16)-14--------|
|------------------------------------------------------|
|------------------------------------------------------|
|------------------------------------------------------|

Hold the bends on the 3rd string to get the unison bend sound.
|----------14-------------15-------------------------------|
|-------------14-------------15----------17------17--------|
|--16b(18)--------17b(19)--------19b(21)----(21)----(21)~--|
|----------------------------------------------------------|
|----------------------------------------------------------|
|----------------------------------------------------------|

|--0--0--20b(22)--------r20-----------------7---------------|
|----------------------------17\---10b(12)----7--10------7--|
|---------------------------------------------------9-------|
|------------------------------------------------------9----|
|-----------------------------------------------------------|
|-----------------------------------------------------------|

|-------------------------------------------------------------------|
|-------------------------------------------------------------------|
|--10p9--7---9b(11)--7-7~------------------2--4--5--4h5p4----7b(9)~-|
|----------9----------------------2--4--5------------------5--------|
|----------------------------3--5-----------------------------------|
|-------------------------------------------------------------------|

Overdub:
|-------------------------------------------------------------------|
|---------------------------------------------3--5--3h5p3----7b(8)~-|
|------------------------------------2--4--5---------------4--------|
|----------------------------2--4-5---------------------------------|
|-------------------------------------------------------------------|
|-------------------------------------------------------------------|

8.PRODIGAL SON

Intro:

||-------------0------------0------------0---------------------||
||------0-----0------0-----0------0-----0----------------------||
||o----8-----8------6-----6------5-----5------1h2p1-----1h2p1-o||
||o---9-----9------7-----7------5-----5------2-----2---2------o||
||---9-----9------7-----7------5-----5------2---------2--------||
||--7-----7------5-----5------3-----3------0---------0---------||


    strum ....................
||--0------0------0------0------||
||--0------0------0------0------||
||o-8-/-/--6-/-/--4-/-/--1-/-/-o||
||o-9-/-/--7-/-/--5-/-/--2-/-/-o||
||--9------7------5------2------||
||--7------5------3------0------||


   Riff A                                                      (end Riff A)
||--------------------------------------------------------------------------||
||-----0----------0----------0----------2-----3-2-3-2------0----------0-----||
||-----1-/-/------1-/-/------1-/-/------2-/-/-2-2-2-2------1-/-/------1-/-/-||
||-5-7-2-/-/--5-7-2-/-/--5-7-2-/-/--5-2-2-/-/-4-2-4-2--5-7-2-/-/--5-7-2-/-/-||
||-5-7-2------5-7-2------5-7-2------5-2-0-----0-0-0-0--5-7-2------5-7-2-----||
||-3-5-0------3-5-0------3-5-0------3-0----------------3-5-0------3-5-0-----||

Em                  G                                       Riff B
Listen to me Lamia, listen to what I've got to say.       |-------------------|
Am                       C                 D [w/ Riff B]  |-3---3---3-3-3-----|
I've got these feelings, and they won't go away.          |-0h2-0h2-0-2-0h2p0-|
Em                          G                             |-0---0---0-0-0-----|
I've got these fears inside that'll bring me to my knees. |-------------------|
Am                      C                 D [w/ Riff B]   |-------------------|
Oh help me Lamia or I'm sure I'll die, oh please.

Em                G
I feel unsettled, now I know that I've done wrong.
Am                             C                        D [w/ Riff B]
I've messed around with mystic things and magic for too long.
Em                              G
I feel I'm being paid with this nightmare inside me,
Am                                C                        D
The devil's got a hold on my soul and he just won't let me be.

[w/ Riff A]
    G5 A5 E                        G5   A5 E
I'm on my knees,                oh help me please.
    G5 E5 A D/A A D/A A         G5   A5 E
I'm on my knees,                help me please.


   A     B      C           B   E
Oh Lamia please try to help me.
    A       B     C          B                        D   Dsus4   D
The devil's got a hold of my soul and he won't let me be.
A          B        C          B          E
Lamia I've got this curse, I'm turning to bad.
    A       B     C          B                         E    D    E    D
The devil's got a hold of my soul, and it's driving me mad. Oh


Oh Lamia please try to help me.
The devil's got a hold of my soul and he won't let me be.
Lamia I've got this curse, I'm turning to bad.
The devil's got a hold of my soul, and it's driving me mad. Oh

9.PURGATORY

This is the intro riff:

                                                   4x
E---||---------------------------------------------||-------------------|
B---||---------------------------------------------||-------------------|
G---||*----------------------------0--------------*||-------------------|
D---||*----4------0----4------4--------------2----*||-------------------|
A---||-----0h2---------2p0----2---------5----0-----||-------------------|
E---||----------------------------------3----------||-------------------|

Then play this (one guitar plays the top notes, another plays the
bottom notes):

                                                              4x
E---||--------------------2-----------------------------------||--------|
B---||-------------------------3---------2----3----2----------||--------|
G---||*----2----4---------2----4---------2----4----2----4----*||--------|
D---||*----2----4---------------------------------------4----*||--------|
A---||--------------------------------------------------------||--------|
E---||--------------------------------------------------------||--------|

Then the vocals start. Play the above riff 3 times, then play this:

                                                               4x
E---||---------------------------------------------------------||-------|
B---||---------------------------------------------------------||-------|
G---||*-----------------------------------6-------4-------2---*||-------|
D---||*-----------------------------------4-------2-------0---*||-------|
A---||----2---2---2---2---2---2---2---2------------------------||-------|
E---||---------------------------------------------------------||-------|

Then the second verse starts. Play this 7 times:

E---||--------------------2-----------------------------------||--------|
B---||-------------------------3---------2----3----2----------||--------|
G---||*----2----4---------2----4---------2----4----2----4----*||--------|
D---||*----2----4---------------------------------------4----*||--------|
A---||--------------------------------------------------------||--------|
E---||--------------------------------------------------------||--------|

Then play this again:

                                                               4x
E---||---------------------------------------------------------||-------|
B---||---------------------------------------------------------||-------|
G---||*-----------------------------------6-------4-------2---*||-------|
D---||*-----------------------------------4-------2-------0---*||-------|
A---||----2---2---2---2---2---2---2---2------------------------||-------|
E---||---------------------------------------------------------||-------|

Then one guitar plays this:

E---||------------------------|-----------------------|-----------------|
B---||------------------------|-----------------------|-----------------|
G---||*-----------------------|-----------0-----------|-----------------|
D---||*---0-------0---2---3---|---------------3---2---|-----------------|
A---||------------------------|---1-------------------|-----------------|
E---||------------------------|-----------------------|-----------------|

                                                       2x
E-----------------------|------------------------------||---------------|
B-----------------------|---------------------1--------||---------------|
G-----------------------|---0-------0---2h3-------2---*||---------------|
D---0-------0---2---3---|-------3---------------------*||---------------|
A-----------------------|------------------------------||---------------|
E-----------------------|------------------------------||---------------|

The other just plays some power chords:

                                4x
E---||----------|---------------||--------------------------------------|
B---||----------|---------------||--------------------------------------|
G---||*----7----|----3----5----*||--------------------------------------|
D---||*----7----|----3----5----*||--------------------------------------|
A---||-----5----|----1----3-----||--------------------------------------|
E---||----------|---------------||--------------------------------------|

Then there is a solo. Play this 7 times:

E---||--------------------2-----------------------------------||--------|
B---||-------------------------3---------2----3----2----------||--------|
G---||*----2----4---------2----4---------2----4----2----4----*||--------|
D---||*----2----4---------------------------------------4----*||--------|
A---||--------------------------------------------------------||--------|
E---||--------------------------------------------------------||--------|

Then play this again:

                                                               4x
E---||---------------------------------------------------------||-------|
B---||---------------------------------------------------------||-------|
G---||*-----------------------------------6-------4-------2---*||-------|
D---||*-----------------------------------4-------2-------0---*||-------|
A---||----2---2---2---2---2---2---2---2------------------------||-------|
E---||---------------------------------------------------------||-------|

Then just play a C5 power chord for one bar before the chorus. This is
solo:

E------------------------|-------------------|--------------------------|
B---17^--17^--17^--(17)--|--(17)--15---------|--------------------------|
G------------------------|------------16~~~--|--------------------------|
D------------------------|-------------------|--------------------------|
A------------------------|-------------------|--------------------------|
E------------------------|-------------------|--------------------------|

E------------------------------------|----------------------------------|
B-------15--17--15p14--15p14---------|----------------------------------|
G---16------------------------16~~~--|----------------------------------|
D------------------------------------|----------------------------------|
A------------------------------------|----------------------------------|
E------------------------------------|----------------------------------|

E----------------------------------|------------------------------------|
B----------------------------------|------------------------------------|
G---(16)~~~-----------------14~~~--|------------------------------------|
D------------14h16--14--16---------|------------------------------------|
A----------------------------------|------------------------------------|
E----------------------------------|------------------------------------|

E---------------------------------14--|---------------------------------|
B-------------------14--14h15h17------|---------------------------------|
G---(14)~~~--14h16--------------------|---------------------------------|
D-------------------------------------|---------------------------------|
A-------------------------------------|---------------------------------|
E-------------------------------------|---------------------------------|

                                                     trill.....
E---(14)---------14--17^--17^--17^--(17)--|--14--17--14h(17)--|---------|
B---------15h17---------------------------|-------------------|---------|
G-----------------------------------------|-------------------|---------|
D-----------------------------------------|-------------------|---------|
A-----------------------------------------|-------------------|---------|
E-----------------------------------------|-------------------|---------|

E----------------------|--------------------------------|---------|-----|
B---17^--17^--17^--15--|--17--15--14--15p14------14~~~--|--13~~~--|-----|
G----------------------|---------------------16---------|---------|-----|
D----------------------|--------------------------------|---------|-----|
A----------------------|--------------------------------|---------|-----|
E----------------------|--------------------------------|---------|-----|

This is the chorus riff:

E---||-------------------------------------------|----------------------|
B---||-------------------------------------------|----------------------|
G---||*--14-----14p12---------14-----14p12-------|----------------------|
D---||*--15-----15p14--15-----15-----15p14--15---|----------------------|
A---||-----------------17-------------------17---|----------------------|
E---||-------------------------------------------|----------------------|

E-------------------------------------------|---------------------------|
B-------------------------------------------|---------------------------|
G-------------------------------------------|---------------------------|
D---12-----12h14--15-----12-----13h14--15---|---------------------------|
A---13-----13h15--17-----13-----13h15--17---|---------------------------|
E-------------------------------------------|---------------------------|

E------------------------------------------|----------------------------|
B------------------------------------------|----------------------------|
G-----------------12-------------------12--|----------------------------|
D---14-----14h15--14-----14-----14h15--14--|----------------------------|
A---15-----15h17---------15-----15h17------|----------------------------|
E------------------------------------------|----------------------------|

       first ending..............................................
E----------------------------------------------------------------||-----|
B-------------13--1513-------------------------------------------||-----|
G------14-----14--1p14--14--12--14--12----------12--------------*||-----|
D------15---------------15--14--15--14--15--14--14--15--14--12--*||-----|
A---------------------------------------17--15------17--15--14---||-----|
E----------------------------------------------------------------||-----|

    second ending...........................................
E-----------------------------------------------------------|-----------|
B-----------------------------------------------------------|-----------|
G---14p12--14p12--15p14--15p14--17p15--17p15--19p17--19p17--|-----------|
D---15p14--15p14--17p15--17p15--19p17--19p17--20p19--20p19--|-----------|
A-----------------------------------------------------------|-----------|
E-----------------------------------------------------------|-----------|

    third ending.........................
E--------------13----------15^---15--13--|------------------------------|
B---15-----17--15--17--15--17^---17--15--|------------------------------|
G---15-----17------17--15----------------|------------------------------|
D----------------------------------------|------------------------------|
A----------------------------------------|------------------------------|
E----------------------------------------|------------------------------|

E-------------------------------------------|---------------------------|
B-------------------------------------------|---------------------------|
G---14-----1412---------14-----1412---------|---------------------------|
D---15-----1p14--15-----15-----1p14--15-----|---------------------------|
A----------------17------------------17-----|---------------------------|
E-------------------------------------------|---------------------------|

E---------------------------------------------|-------------------------|
B---------------------------------------------|-------------------------|
G---15-----1p14---------15-----15--14---------|-------------------------|
D----------------17--------------------17-----|-------------------------|
A---13-----1315--17-----13-----13--15--17-----|-------------------------|
E---------------------------------------------|-------------------------|

E-------------------------------------------|-------|-------------------|
B-------------------------------------------|-------|-------------------|
G---17-----1p15--14-----17-----1p15--14-----|--17^--|-------------------|
D----------------14------------------14-----|-------|-------------------|
A---15-----1517---------15-----1517---------|-------|-------------------|
E-------------------------------------------|-------|-------------------|

Now play the intro riff again. Then the third verse starts. Play this
7 times:

E---||--------------------2-----------------------------------||--------|
B---||-------------------------3---------2----3----2----------||--------|
G---||*----2----4---------2----4---------2----4----2----4----*||--------|
D---||*----2----4---------------------------------------4----*||--------|
A---||--------------------------------------------------------||--------|
E---||--------------------------------------------------------||--------|

Then play this again:

                                                               4x
E---||---------------------------------------------------------||-------|
B---||---------------------------------------------------------||-------|
G---||*-----------------------------------6-------4-------2---*||-------|
D---||*-----------------------------------4-------2-------0---*||-------|
A---||----2---2---2---2---2---2---2---2------------------------||-------|
E---||---------------------------------------------------------||-------|

Then the fourth verse starts. Play this 7 times:

E---||--------------------2-----------------------------------||--------|
B---||-------------------------3---------2----3----2----------||--------|
G---||*----2----4---------2----4---------2----4----2----4----*||--------|
D---||*----2----4---------------------------------------4----*||--------|
A---||--------------------------------------------------------||--------|
E---||--------------------------------------------------------||--------|

Then play this again:

                                                               4x
E---||---------------------------------------------------------||-------|
B---||---------------------------------------------------------||-------|
G---||*-----------------------------------6-------4-------2---*||-------|
D---||*-----------------------------------4-------2-------0---*||-------|
A---||----2---2---2---2---2---2---2---2------------------------||-------|
E---||---------------------------------------------------------||-------|

Then one guitar plays this:

E---||------------------------|-----------------------|-----------------|
B---||------------------------|-----------------------|-----------------|
G---||*-----------------------|-----------0-----------|-----------------|
D---||*---0-------0---2---3---|---------------3---2---|-----------------|
A---||------------------------|---1-------------------|-----------------|
E---||------------------------|-----------------------|-----------------|

                                                       2x
E-----------------------|------------------------------||---------------|
B-----------------------|---------------------1--------||---------------|
G-----------------------|---0-------0---2h3-------2---*||---------------|
D---0-------0---2---3---|-------3---------------------*||---------------|
A-----------------------|------------------------------||---------------|
E-----------------------|------------------------------||---------------|

The other just plays some power chords:

                                4x
E---||----------|---------------||--------------------------------------|
B---||----------|---------------||--------------------------------------|
G---||*----7----|----3----5----*||--------------------------------------|
D---||*----7----|----3----5----*||--------------------------------------|
A---||-----5----|----1----3-----||--------------------------------------|
E---||----------|---------------||--------------------------------------|

10.TWILIGHT ZONE

Riff 1:
E-----------------------------------|---------------------------------|
B-----------------------------------|---------------------------------|
G-----------------------------------|---------------------------------|
D------7---5---4---5---4---5-4-(5)--|------7---5---4---5---4---5------|
A--0-0---0---0---0---0---0----------|--0-0---0---0---0---0---0---3----|
E-----------------------------------|---------------------------------|

Riff 2:
E-----------------------------|-----------------------------|
B-----------------------------|-----------------------------|
G------------------------5----|------------------------5----|
D------7---5---4---5---4------|------7---5---4---5---4------|
A--0-0---0---0---0---0--------|--0-0---0---0---0---0--------|
E-----------------------------|-----------------------------|

E-----------------------------|-------------------------------|
B-----------------------------|-------------------------------|
G------------------------5----|-------------------------------|
D------7---5---4---5---4------|------7---5---4---5-4-2--5--7--|
A--0-0---0---0---0---0--------|--0-0---0---0---0--------3--5--|
E-----------------------------|-------------------------------|

Verse:
E-----------------------------------|------------------------------------|
B-----------------------------------|------------------------------------|
G------7---5---4---5---4---5-4-(5)--|------7---5---4---5---4---5--4-(5)--|
D------7---7---5---5---5---5--------|------7---7---5---5---5---5---------|
A--0-0---0---0---0---0---0----------|--0-0---0---0---0---0---0-----------|
E-----------------------------------|------------------------------------|

Chorus:
Oh             Oh              Oh         I'm crying
E--------------------------------------|------------------------------------|
B--------------------------------------|------------------------------------|
G--------------------------------------|--2----------------------5-4-----5--|
D--------------------------------------|--2--------------------------7-5----|
A--------------------------------------|--0---------------------------------|
E--1-1-1-1--1-1-1-1--1-1-1-1--1-1-1-1--|------------------------------------|

Oh             Oh              Oh         I'm crying
E--------------------------------------|------------------------------------|
B--------------------------------------|------------------------------------|
G--------------------------------------|--2----------------------5-4-----5--|
D--------------------------------------|--2--------------------------7-5----|
A--------------------------------------|--0---------------------------------|
E--1-1-1-1--1-1-1-1--1-1-1-1--1-1-1-1--|------------------------------------|

Oh             Oh              Oh         can't you see me?
E--------------------------------------|-------------------------------------------|
B--------------------------------------|-------------------------------------------|
G--------------------------------------|-------------------------------------------|
D--------------------------------------|--2--------------------2-------------------|
A--------------------------------------|--0---0-0-0-0-0---0-3--0---0-0-0-0-0--0-3--|
E--1-1-1-1--1-1-1-1--1-1-1-1--1-1-1-1--|-------------------------------------------|

Ah           Ah            Ah          can't you see me?
E-----------------------------------|------------------------------|
B-----------------------------------|------------------------------|
G-----------------------------------|------------------------------|
D-----------------------------------|--5----9----5----9------------|
A-----------------------------------|--3----7----3----7------------|
E--3-3-3-3-3-3-3-3-3-3-3-3-3-3-3-3--|------------------------------|

Solo-riff:
E-----------------------|-----------------------|
B-----------------------|-----------------------|
G--2-----4-----5-----7--|--2-----4-----5-----7--|
D--2-----4-----5-----7--|--2-----4-----5-----7--|
A--0-----2-----3-----5--|--0-----2-----3-----5--|
E-----------------------|-----------------------|

E-----------------------|-----------------|
B-----------------------|-----------------|
G--2-----4-----5-----7--|--2-----4-----5--|
D--2-----4-----5-----7--|--2-----4-----5--|
A--0-----2-----3-----5--|--0-----2-----3--|
E-----------------------|-----------------|

Bridge:
E---------------------------|
B---------------------------|
G---------------------------|
D--7-5----------------------|
A------7-5-3-----2---3-2----|
E------------5-3---3-----3--|

11.DRIFTER

Intro
|-------------------------------------------------------------------------|
|----3---3---3---3---3---3------------------------------------------------|
|--3---2---0--------------------------------------------------------------|
|--------------3---2---0--------0-0---------------------------------------|
|---------------------------3h5-------------------------------------------|
|-------------------------------------------------------------------------|

(ROCK 'N ROOOLL!!)
|-------------------------------------------------------------------------|
|-------------------------------------------------------------------------|
|-------------------------------------------------------------------------|
|--7--Strum a few times---5-5-5-5-5-5-------------------------------------|
|--5----------------------3-2-3-2-3-2-------------------------------------|
|-------------------------------------------------------------------------|

Verse
|-------------------------------------------------------------------------|
|-------------------------------------------------------------------------|
|-------------------------------------------------------------------------|
|---5-----------------------7---------------------------------------------|
|---3-33-33-33-33-33-33-33--5---------------------------------------------|
|-------------------------------------------------------------------------|
comments
print report bad tab
2 comments total.
0 reply
METSOAD wrote on March 9 2006, 03:08 am

Good Tab, EXCEPT FOR THE FACT THAT YOU MISSED A SONG, MORON

0 reply
Dero Zero wrote on January 11 2009, 06:23 am

First song is Ides Of March, not Ideas Of March.

I want to post or [tab]
guest
You may want to rate the tab now too:
select rating
Please do not post tabs as comments. Select "correction" instead!