Oops, an error
Loading. Please wait.

No Prayer For The Dying Tab

ver1
ver1

Album

Whole song

More versions @911Tabs.com
12,539 views 15 this week
1 commentread comment
1 2 3 4 5
accurate
x 5
Autoscroll
+/-
esc
set tempo
stop
Contributor
WARNING: You are trying to view
                                    content from Ultimate-Guitar.com
                                    in an unauthorized application,
                                    which is prohibited.

                                    Please use an official Ultimate
                                    Guitar Tabs application for iPhone,
                                    iPad or Android to access legitimate
                                    chords, guitar, bass, and drum tabs
                                    from Ultimate-Guitar.com database.

                                    Type "ultimate guitar tabs" in Apple
                                    App Store's or Android Market's
                                    search to find the application.
Band- Iron Maiden
Album- No Prayer For The Dying

1.TAILGUNNER

INTRO
 |
 |Both Guitars
 |
E|---------------------------------|---------------------------------|
B|---------------------------------|---------------------------------|
G|---------------------------------|---------------------------------|
D|-11--11--11--11--11--11--11--11--|-11--11--11--11--11--11--11--11--|
A|-9---9---9---9---9---9---9---9---|-9---9---9---9---9---9---9---9---|
E|---------------------------------|---------------------------------|

 |
 |Both Guitars
 |
E|---------------------------------|---------------------------------|
B|---------------------------------|---------------------------------|
G|---------------------------------|---------------------------------|
D|-11--11--11--11--11--11--11--11--|-11--11--11--11--11--11--11--11--|
A|-9---9---9---9---9---9---9---9---|-9---9---9---9---9---9---9---9---|
E|---------------------------------|---------------------------------|

 |
 |Both Guitars
 |
E|---------------------------------|---------------------------------|
B|---------------------------------|---------------------------------|
G|---------------------------------|---------------------------------|
D|-11--11--11--11--11--11--11--11--|-11--11--11--11--11--11--11--11--|
A|-9---9---9---9---9---9---9---9---|-9---9---9---9---9---9---9---9---|
E|---------------------------------|---------------------------------|

 |
 |Both Guitars
 |
E|---------------------------------|---------------------------------|
B|---------------------------------|---------------------------------|
G|---------------------------------|---------------------------------|
D|-11--11--11--11--11--11--11--11--|-11--11--11--11--11--11--11--11--|
A|-9---9---9---9---9---9---9---9---|-9---9---9---9---9---9---9---9---|
E|---------------------------------|---------------------------------|

 |
 |Both Guitars
 |
E|---------------------------------|---------------------------------|
B|---------------------------------|---------------------------------|
G|---------------------------------|---------------------------------|
D|-11--11--11--11--11--11--11--11--|-11--11--11--11--11--11--11--11--|
A|-9---9---9---9---9---9---9---9---|-9---9---9---9---9---9---9---9---|
E|---------------------------------|---------------------------------|

 |                                 |
 |Both Guitars                     |Guitar 1
 |                                 |
E|---------------------------------|---------------------------------|
B|---------------------------------|---------------------11--11--11--|
G|---------------------------------|---------------------11--11--11--|
D|-11--11--11--11--11--11--11--11--|-11--11--11--11--11--11--11--11--|
A|-9---9---9---9---9---9---9---9---|-9---9---9---9---9---9---9---9---|
E|---------------------------------|---------------------------------|
                                   |
                                   |Guitar 2
                                   |
                                   |---------------------------------|
                                   |---------------------7---7---7---|
                                   |---------------------6---6---6---|
                                   |---------------------8---8---8---|
                                   |---------------------------------|
                                   |---------------------------------|

 |
 |Guitar 1
 |
E|---------------------------------|---------------------------------|
B|-11\-9-------9-------------------|-(9)-----------------------------|
G|-11\-9-------9-------------------|-(9)-----------------------------|
D|-11\-9-------9-------------------|-(9)-----------------------------|
A|-9-\-7-------7-------------------|-(7)-----------------------------|
E|---------------------------------|---------------------------------|
 |
 |Guitar 2
 |
E|---------------------------------|------------------------------------|
B|-7-\-5-------5-------------------|-(5)--------------------------------|
G|-6-\-4-------4-------------------|-(4)-- -----------------------------|
D|-8-\-6-------6-------------------|-(6)--------------------------------|
A|---------------------------------|------------------------------------|
E|---------------------------------|------------------------------------|

 |
 |Guitar 1
 |
E|---------------------------------|---------------------------------|
B|-(9)-----------------------------|-(9)-----------------9---9---9---|
G|-(9)-----------------------------|-(9)-----------------9---9---9---|
D|-(9)-----------------------------|-(9)-----------------9---9---9---|
A|-(7)-----------------------------|-(7)-----------------7---7---7---|
E|---------------------------------|---------------------------------|
 |
 |Guitar 2
 |
E|---------------------------------|---------------------------------|
B|-(5)-----------------------------|-(5)-----------------5---5---5---|
G|-(4)-----------------------------|-(4)-----------------4---4---4---|
D|-(6)-----------------------------|-(6)-----------------6---6---6---|
A|---------------------------------|---------------------------------|
E|---------------------------------|---------------------------------|

 |
 |Guitar 1
 |
E|---------------------------------|---------------------------------|
B|-9-/-11--------------------------|-(11)----------------------------|
G|-9-/-11--------------------------|-(11)----------------------------|
D|-9-/-11--------------------------|-(11)----------------------------|
A|-7-/-9---------------------------|-(9)-----------------------------|
E|---------------------------------|---------------------------------|
 |
 |Guitar 2
 |
E|---------------------------------|---------------------------------|
B|-5-/-7---------------------------|-(7)-----------------------------|
G|-4-/-6---------------------------|-(6)-----------------------------|
D|-6-/-8---------------------------|-(8)-----------------------------|
A|---------------------------------|---------------------------------|
E|---------------------------------|---------------------------------|

 |
 |Guitar 1
 |
E|---------------------------------|---------------------------------|
B|-(11)----------------------------|-(11)----------------------------|
G|-(11)----------------------------|-(11)----------------------------|
D|-(11)----------------------------|-(11)----------------------------|
A|-(9)-----------------------------|-(9)-----------------------------|
E|---------------------------------|---------------------------------|
 |
 |Guitar 2
 |
E|---------------------------------|---------------------------------|
B|-(7)-----------------------------|-(7)-----------------------------|
G|-(6)-----------------------------|-(6)-----------------------------|
D|-(8)-----------------------------|-(8)-----------------------------|
A|---------------------------------|---------------------------------|
E|---------------------------------|---------------------------------|

 |
 |Guitar 1
 |
E|---------------------------------|---------------------------------|
B|---------------------------------|---------------------------------|
G|-3---4---4---4---3-------3---4---|-4---4---3-------3---4---4---4---|
D|---------------------4-----------|-------------4-------------------|
A|---------------------------------|---------------------------------|
E|---------------------------------|---------------------------------|
 |
 |Guitar 2
 |
E|---------------------------------|---------------------------------|
B|---------------------------------|---------------------------------|
G|---------------------------------|---------------------------------|
D|---------------------------------|---------------------------------|
A|-1---2---2---2---1-------1---2---|-2---2---1-------1---2---2---2---|
E|---------------------2-----------|-------------2-------------------|

 |
 |Guitar 1
 |
E|---------------------------------|---------------------------------|
B|---------------------------------|-2---2---2---2---2---2---2---2---|
G|-4---3---------------------------|---------------------------------|
D|---------4---11--11--11--11--11--|-4---4---4---4---4---4---4---4---|
A|-------------9---9---9---9---9---|---------------------------------|
E|---------------------------------|---------------------------------|
 |
 |Guitar 2
 |
E|-------------------------2-------|---------------------------------|
B|-------------5-------------------|---------------------------------|
G|---------------------------------|---------------------------------|
D|---------------------------------|-8-------------------------------|
A|---------------------------------|---------------------------------|
E|---------------------------------|---------------------------------|

 |
 |Guitar 1
 |
E|---------------------------------|---------------------------------|
B|---------------------------------|---------------------------------|
G|-3---4---4---4---3-------3---4---|-4---4---3-------3---4---4---4---|
D|---------------------4-----------|-------------4-------------------|
A|---------------------------------|---------------------------------|
E|---------------------------------|---------------------------------|
 |
 |Guitar 2
 |
E|---------------------------------|---------------------------------|
B|---------------------------------|---------------------------------|
G|---------------------------------|---------------------------------|
D|---------------------------------|---------------------------------|
A|-1---2---2---2---1-------1---2---|-2---2---1-------1---2---2---2---|
E|---------------------2-----------|-------------2-------------------|

 |
 |Guitar 1
 |
E|---------------------------------|---------------------------------|
B|---------------------------------|-2---2---2---2---2---11--11--11--|
G|-4---3---------------------------|---------------------11--11--11--|
D|---------4---11--11--11--11--11--|-4---4---4---4---4---11--11--11--|
A|-------------9---9---9---9---9---|---------------------9---9---9---|
E|---------------------------------|---------------------------------|
 |
 |Guitar 2
 |
E|-------------------------2-------|---------------------------------|
B|-------------5-------------------|---------------------------------|
G|---------------------------------|---------------------------------|
D|---------------------------------|-8-------------------------------|
A|---------------------------------|---------------------------------|
E|---------------------------------|---------------------------------|

 |
 |Guitar 1
 |
E|---------------------------------|---------------------------------|
B|-11\-9-------9-------------------|-(9)-----------------------------|
G|-11\-9-------9-------------------|-(9)-----------------------------|
D|-11\-9-------9-------------------|-(9)-----------------------------|
A|-9-\-7-------7-------------------|-(7)-----------------------------|
E|---------------------------------|---------------------------------|
 |
 |Guitar 2
 |
E|---------------------------------|---------------------------------|
B|-7-\-5-------5-------------------|-(5)-----------------------------|
G|-6-\-4-------4-------------------|-(4)-----------------------------|
D|-8-\-6-------6-------------------|-(6)-----------------------------|
A|---------------------------------|---------------------------------|
E|---------------------------------|---------------------------------|
 |
 |Guitar 3
 |
E|---------------------------------|---------------------------------|
B|-------------------------0-------|-(0)-----------------------------|
G|-------------3-------------------|-----3---------------------------|
D|-2-------------------------------|-----------------2---------------|
A|---------------------------------|---------------------------------|
E|---------------------------------|---------------------------------|

 |
 |Guitar 1
 |
E|---------------------------------|---------------------------------|
B|-(9)-----------------------------|-(9)-----------------9---9---9---|
G|-(9)-----------------------------|-(9)-----------------9---9---9---|
D|-(9)-----------------------------|-(9)-----------------9---9---9---|
A|-(7)-----------------------------|-(7)-----------------7---7---7---|
E|---------------------------------|---------------------------------|
 |
 |Guitar 2
 |
E|---------------------------------|---------------------------------|
B|-(5)-----------------------------|-(5)-----------------5---5---5---|
G|-(4)-----------------------------|-(4)-----------------4---4---4---|
D|-(6)-----------------------------|-(6)-----------------6---6---6---|
A|---------------------------------|---------------------------------|
E|---------------------------------|---------------------------------|
 |
 |Guitar 3
 |
E|---------------------------------|---------------------------------|
B|-------------------------0-------|-(0)-----------------------------|
G|-------------3-------------------|-----3---------------------------|
D|-2-------------------------------|-----------------2---------------|
A|---------------------------------|---------------------------------|
E|---------------------------------|---------------------------------|

 |
 |Guitar 1
 |
E|---------------------------------|---------------------------------|
B|-9-/-11--------------------------|-(11)----------------------------|
G|-9-/-11--------------------------|-(11)----------------------------|
D|-9-/-11--------------------------|-(11)----------------------------|
A|-7-/-9---------------------------|-(9)-----------------------------|
E|---------------------------------|---------------------------------|
 |
 |Guitar 2
 |
E|---------------------------------|---------------------------------|
B|-5-/-7---------------------------|-(7)-----------------------------|
G|-4-/-6---------------------------|-(6)-----------------------------|
D|-6-/-8---------------------------|-(8)-----------------------------|
A|---------------------------------|---------------------------------|
E|---------------------------------|---------------------------------|
 |
 |Guitar 3
 |
E|---------------------------------|---------------------------------|
B|-------------------------0-------|-(0)-----------------------------|
G|-------------3-------------------|-----3---------------------------|
D|-4-------------------------------|-----------------4---------------|
A|---------------------------------|---------------------------------|
E|---------------------------------|---------------------------------|

 |
 |Guitar 1
 |
E|---------------------------------|---------------------------------|
B|-(11)----------------------------|-(11)----------------------------|
G|-(11)----------------------------|-(11)----------------------------|
D|-(11)----------------------------|-(11)----------------------------|
A|-(9)-----------------------------|-(9)-----------------------------|
E|---------------------------------|---------------------------------|
 |
 |Guitar 2
 |
E|---------------------------------|---------------------------------|
B|-(7)-----------------------------|-(7)-----------------------------|
G|-(6)-----------------------------|-(6)-----------------------------|
D|-(8)-----------------------------|-(8)-----------------------------|
A|---------------------------------|---------------------------------|
E|---------------------------------|---------------------------------|
 |
 |Guitar 3
 |
E|---------------------------------|---------------------------------|
B|---------------------------------|---------------------------------|
G|---------------------------------|---------------------------------|
D|-(4)-----------------------------|-(4)-----------------------------|
A|---------------------------------|---------------------------------|
E|---------------------------------|---------------------------------|


  1st VERSE
 |
 |Guitar 1
 |
E|---------------------------------|---------------------------------|
B|---------------------------------|---------------------------------|
G|-3---4---4---4---3-------3---4---|-4---4---3-------3---4---4---4---|
D|---------------------4-----------|-------------4-------------------|
A|---------------------------------|---------------------------------|
E|---------------------------------|---------------------------------|
 |
 |Guitar 2
 |
E|---------------------------------|---------------------------------|
B|---------------------------------|---------------------------------|
G|---------------------------------|---------------------------------|
D|---------------------------------|---------------------------------|
A|-1---2---2---2---1-------1---2---|-2---2---1-------1---2---2---2---|
E|---------------------2-----------|-------------2-------------------|

 |
 |Guitar 1
 |
E|---------------------------------|---------------------------------|
B|-------------------------11------|-(11)----------------------------|
G|-4---3-------------------11------|-(11)----------------------------|
D|---------4---4-----------11------|-(11)----------------------------|
A|-------------------------9-------|-(9)-----------------------------|
E|---------------------------------|---------------------------------|
 |
 |Guitar 2
 |
E|---------------------------------|---------------------------------|
B|-------------------------11------|-(11)----------------------------|
G|-------------------------11------|-(11)----------------------------|
D|-------------------------11------|-(11)----------------------------|
A|-2---1-------------------9-------|-(9)-----------------------------|
E|---------2---2-------------------|---------------------------------|

 |
 |Guitar 1
 |
E|---------------------------------|---------------------------------|
B|---------------------------------|---------------------------------|
G|-3---4---4---4---3-------3---4---|-4---4---3-------3---4---4---4---|
D|---------------------4-----------|-------------4-------------------|
A|---------------------------------|---------------------------------|
E|---------------------------------|---------------------------------|
 |
 |Guitar 2
 |
E|---------------------------------|---------------------------------|
B|---------------------------------|---------------------------------|
G|---------------------------------|---------------------------------|
D|---------------------------------|---------------------------------|
A|-1---2---2---2---1-------1---2---|-2---2---1-------1---2---2---2---|
E|---------------------2-----------|-------------2-------------------|

 |                                 |
 |Guitar 1                         |Both Guitars
 |                                 |
E|---------------------------------|---------------------------------|
B|-------------------------11------|-(11)----------------11--11--11--|
G|-4---3-------------------11------|-(11)----------------11--11--11--|
D|---------4---4-----------11------|-(11)----------------11--11--11--|
A|-------------------------9-------|-(9)-----------------9---9---9---|
E|---------------------------------|---------------------------------|
 |
 |Guitar 2
 |
E|---------------------------------|
B|-------------------------11------|
G|-------------------------11------|
D|-------------------------11------|
A|-2---1-------------------9-------|
E|---------2---2-------------------|

 |
 |Both Guitars
 |
E|---------------------------------|---------------------------------|
B|-11\-9---------------------------|-(9)-----------------------------|
G|-11\-9---------------------------|-(9)-----------------------------|
D|-11\-9---------------------------|-(9)-----------------------------|
A|-9-\-7---------------------------|-(7)-----------------------------|
E|---------------------------------|---------------------------------|

 |
 |Both Guitars
 |
E|-------------4-----------6-------|---------------------------------|
B|-5-----------5-----------7-------|---------------------------------|
G|-4-------------------------------|-----4---3-------4---3-----------|
D|---------------------------------|-------------4-----------4-------|
A|---------------------------------|---------------------------------|
E|---------------------------------|---------------------------------|

 |
 |Both Guitars
 |
E|---------------------------------|---------------------------------|
B|-9-/-11--------------------------|-(11)----------------------------|
G|-9-/-11--------------------------|-(11)----------------------------|
D|-9-/-11--------------------------|-(11)----------------------------|
A|-7-/-9---------------------------|-(9)-----------------------------|
E|---------------------------------|---------------------------------|

 |
 |Both Guitars
 |
E|---------------------------------|---------------------------------|
B|-(11)----------------------------|-(11)----------------------------|
G|-(11)----------------------------|-(11)----------------------------|
D|-(11)----------------------------|-(11)----------------------------|
A|-(9)-----------------------------|-(9)-----------------------------|
E|---------------------------------|---------------------------------|

 |
 |Guitar 1
 |
E|---------------------------------|---------------------------------|
B|---------------------------------|---------------------------------|
G|-3---4---4---4---3-------3---4---|-4---4---3-------3---4---4---4---|
D|---------------------4-----------|-------------4-------------------|
A|---------------------------------|---------------------------------|
E|---------------------------------|---------------------------------|
 |
 |Guitar 2
 |
E|---------------------------------|---------------------------------|
B|---------------------------------|---------------------------------|
G|---------------------------------|---------------------------------|
D|---------------------------------|---------------------------------|
A|-1---2---2---2---1-------1---2---|-2---2---1-------1---2---2---2---|
E|---------------------2-----------|-------------2-------------------|

 |
 |Guitar 1
 |
E|---------------------------------|---------------------------------|
B|-------------------------11------|-(11)----------------------------|
G|-4---3-------------------11------|-(11)----------------------------|
D|---------4---4-----------11------|-(11)----------------------------|
A|-------------------------9-------|-(9)-----------------------------|
E|---------------------------------|---------------------------------|
 |
 |Guitar 2
 |
E|---------------------------------|---------------------------------|
B|-------------------------11------|-(11)----------------------------|
G|-------------------------11------|-(11)----------------------------|
D|-------------------------11------|-(11)----------------------------|
A|-2---1-------------------9-------|-(9)-----------------------------|
E|---------2---2-------------------|---------------------------------|

 |
 |Guitar 1
 |
E|---------------------------------|---------------------------------|
B|---------------------------------|---------------------------------|
G|-3---4---4---4---3-------3---4---|-4---4---3-------3---4---4---4---|
D|---------------------4-----------|-------------4-------------------|
A|---------------------------------|---------------------------------|
E|---------------------------------|---------------------------------|
 |
 |Guitar 2
 |
E|---------------------------------|---------------------------------|
B|---------------------------------|---------------------------------|
G|---------------------------------|---------------------------------|
D|---------------------------------|---------------------------------|
A|-1---2---2---2---1-------1---2---|-2---2---1-------1---2---2---2---|
E|---------------------2-----------|-------------2-------------------|

 |                                 |
 |Guitar 1                         |Both Guitars
 |                                 |
E|---------------------------------|---------------------------------|
B|-------------------------11------|-(11)----------------11--11--11--|
G|-4---3-------------------11------|-(11)----------------11--11--11--|
D|---------4---4-----------11------|-(11)----------------11--11--11--|
A|-------------------------9-------|-(9)-----------------9---9---9---|
E|---------------------------------|---------------------------------|
 |
 |Guitar 2
 |
E|---------------------------------|
B|-------------------------11------|
G|-------------------------11------|
D|-------------------------11------|
A|-2---1-------------------9-------|
E|---------2---2-------------------|

 |
 |Both Guitars
 |
E|---------------------------------|---------------------------------|
B|-11\-9---------------------------|-(9)-----------------------------|
G|-11\-9---------------------------|-(9)-----------------------------|
D|-11\-9---------------------------|-(9)-----------------------------|
A|-9-\-7---------------------------|-(7)-----------------------------|
E|---------------------------------|---------------------------------|

 |
 |Both Guitars
 |
E|-------------4-----------6-------|-7-----------6-------------------|
B|-5-----------5-----------7-------|-9-----------7-----------5-------|
G|-4-------------------------------|-------------------------4-------|
D|---------------------------------|---------------------------------|
A|---------------------------------|---------------------------------|
E|---------------------------------|---------------------------------|

 |
 |Both Guitars
 |
E|---------------------------------|---------------------------------|
B|-9-/-11--------------------------|-(11)----------------------------|
G|-9-/-11--------------------------|-(11)----------------------------|
D|-9-/-11--------------------------|-(11)----------------------------|
A|-7-/-9---------------------------|-(9)-----------------------------|
E|---------------------------------|---------------------------------|

 |
 |Both Guitars
 |
E|---------------------------------|---------------------------------|
B|-(11)----------------------------|-(11)----------------------------|
G|-(11)----------------------------|-(11)----------------------------|
D|-(11)----------------------------|-(11)----------------------------|
A|-(9)-----------------------------|-(9)-----------------------------|
E|---------------------------------|---------------------------------|


  CHORUS
 |
 |Both Guitars
 |
E|---------------------------------|---------------------------------|
B|---------------------------------|---------------------------------|
G|-10----------12----------10------|-----12----------14--------------|
D|-10----------12----------10------|-----12----------14--------------|
A|-8-----------10----------8-------|-----10----------12--------------|
E|---------------------------------|---------------------------------|

 |
 |Both Guitars
 |
E|---------------------------------|---------------------------------|
B|---------------------------------|---------------------------------|
G|-8-----------10----------8-------|-----10----------12--------------|
D|-8-----------10----------8-------|-----10----------12--------------|
A|-6-----------8-----------6-------|-----8-----------10--------------|
E|---------------------------------|---------------------------------|

 |
 |Both Guitars
 |
E|---------------------------------|---------------------------------|
B|---------------------------------|---------------------------------|
G|-5-/-7-------7-----------7-------|-----7-----------7-\-5-----------|
D|-5-/-7-------7-----------7-------|-----7-----------7-\-5-----------|
A|-3-/-5---5---5---5---5---5---5---|-5---5---5---5---5-\-3-----------|
E|---------------------------------|---------------------------------|

 |
 |Both Guitars
 |
E|---------------------------------|---------------------------------|
B|---------------------------------|---------------------------------|
G|-5-/-7-------7-----------7-------|-----7-----------7-\-5-----------|
D|-5-/-7-------7-----------7-------|-----7-----------7-\-5-----------|
A|-3-/-5---5---5---5---5---5---5---|-5---5---5---5---5-\-3-----------|
E|---------------------------------|---------------------------------|

 |
 |Both Guitars
 |
E|---------------------------------|---------------------------------|
B|---------------------------------|---------------------------------|
G|-10----------12----------10------|-----12----------14--------------|
D|-10----------12----------10------|-----12----------14--------------|
A|-8-----------10----------8-------|-----10----------12--------------|
E|---------------------------------|---------------------------------|

 |
 |Both Guitars
 |
E|---------------------------------|---------------------------------|
B|---------------------------------|---------------------------------|
G|-8-----------10----------8-------|-----10----------12--------------|
D|-8-----------10----------8-------|-----10----------12--------------|
A|-6-----------8-----------6-------|-----8-----------10--------------|
E|---------------------------------|---------------------------------|

 |
 |Both Guitars
 |
E|---------------------------------|---------------------------------|
B|---------------------------------|---------------------------------|
G|-5-/-7-------7-----------7-------|-----7-----------7-\-5-----------|
D|-5-/-7-------7-----------7-------|-----7-----------7-\-5-----------|
A|-3-/-5---5---5---5---5---5---5---|-5---5---5---5---5-\-3-----------|
E|---------------------------------|---------------------------------|

 |
 |Both Guitars
 |
E|---------------------------------|---------------------------------|
B|---------------------------------|---------------------------------|
G|-5-/-7-------7-----------7-------|-----7-----------7-\-5-----------|
D|-5-/-7-------7-----------7-------|-----7-----------7-\-5-----------|
A|-3-/-5---5---5---5---5---5---5---|-5---5---5---5---5-\-3-----------|
E|---------------------------------|---------------------------------|

 |
 |Both Guitars
 |
E|---------------------------------|---------------------------------|
B|---------------------------------|---------------------------------|
G|-12----------14----------12------|-----14--------------------------|
D|-12----------14----------12------|-----14----------9---------------|
A|-10----------12----------10------|-----12----------9---------------|
E|---------------------------------|-----------------7---------------|

 |
 |Both Guitars
 |
E|---------------------------------|---------------------------------|
B|---------------------------------|---------------------------------|
G|-10----------12----------10------|-----12----------14--------------|
D|-10----------12----------10------|-----12----------14--------------|
A|-8-----------10----------8-------|-----10----------12--------------|
E|---------------------------------|---------------------------------|

 |
 |Both Guitars
 |
E|---------------------------------|---------------------------------|
B|---------------------------------|---------------------------------|
G|-7-/-9-------9-----------9-------|-----9-----------9-\-7-----------|
D|-7-/-9-------9-----------9-------|-----9-----------9-\-7-----------|
A|-5-/-7---7---7---7---7---7---7---|-7---7---7---7---7-\-5-----------|
E|---------------------------------|---------------------------------|

 |
 |Both Guitars
 |
E|---------------------------------|---------------------------------|
B|---------------------------------|---------------------------------|
G|-7---9-------9-----------9-------|-----9-----------9---7-----------|
D|-7---9-------9-----------9-------|-----9-----------9---7-----------|
A|-5-/-7---7---7---7---7---7---7---|-7---7---7---7---7-\-5-----------|
E|---------------------------------|---------------------------------|

 |
 |Both Guitars
 |
E|---------------------------------|---------------------------------|
B|---------------------------------|---------------------------------|
G|-12----------14----------12------|-----14--------------------------|
D|-12----------14----------12------|-----14----------9---------------|
A|-10----------12----------10------|-----12----------9---------------|
E|---------------------------------|-----------------7---------------|

 |
 |Both Guitars
 |
E|---------------------------------|---------------------------------|
B|---------------------------------|---------------------------------|
G|-10----------12----------10------|-----12----------14--------------|
D|-10----------12----------10------|-----12----------14--------------|
A|-8-----------10----------8-------|-----10----------12--------------|
E|---------------------------------|---------------------------------|

 |
 |Both Guitars
 |
E|---------------------------------|---------------------------------|
B|---------------------------------|---------------------------------|
G|-7-/-9-------9-----------9-------|-----9-----------9-\-7-----------|
D|-7-/-9-------9-----------9-------|-----9-----------9-\-7-----------|
A|-5-/-7---7---7---7---7---7---7---|-7---7---7---7---7-\-5-----------|
E|---------------------------------|---------------------------------|

 |
 |Both Guitars
 |
E|---------------------------------|---------------------------------|
B|---------------------------------|---------------------------------|
G|-7---9-------9-----------9-------|-----9-----------9---7-----------|
D|-7---9-------9-----------9-------|-----9-----------9---7-----------|
A|-5-/-7---7---7---7---7---7---7---|-7---7---7---7---7-\-5-----------|
E|---------------------------------|---------------------------------|


  INTERLUDE
 |
 |Guitar 1
 |
E|---------------------------------|---------------------------------|
B|---------------------------------|---------------------------------|
G|-------------3-----------5-------|-----3-----------6---5---3-------|
D|-6---4---4-------4---4-------3---|-3-------3---3---------------3---|
A|---------------------------------|---------------------------------|
E|---------------------------------|---------------------------------|
 |
 |Guitar 2
 |
E|---------------------------------|---------------------------------|
B|---------------------------------|---------------------------------|
G|---------------------------------|---------------------------------|
D|---------------------------------|---------------------------------|
A|-------------1-----------3-------|-----1-----------4---3---1-------|
E|-4---2---2-------2---2-------1---|-1-------1---1---------------1---|

 |
 |Guitar 1
 |
E|---------------------------------|---------------------------------|
B|---------------------------------|---------------------------------|
G|-------------3-----------5-------|-----3-----------6---5---3-------|
D|-6---3---3-------3---3-------3---|-3-------3---3-------------------|
A|---------------------------------|---------------------------------|
E|---------------------------------|---------------------------------|
 |
 |Guitar 2
 |
E|---------------------------------|---------------------------------|
B|---------------------------------|---------------------------------|
G|---------------------------------|---------------------------------|
D|---------------------------------|---------------------------------|
A|-------------1-----------3-------|-----1-----------4---3---1-------|
E|-4---1---1-------1---1-------1---|-1-------1---1-------------------|

 |
 |Guitar 1
 |
E|---------------------------------|---------------------------------|
B|---------------------------------|---------------------------------|
G|-------------3-----------5-------|-----3-----------6---5---3-------|
D|-6---4---4-------4---4-------3---|-3-------3---3---------------3---|
A|---------------------------------|---------------------------------|
E|---------------------------------|---------------------------------|
 |
 |Guitar 2
 |
E|---------------------------------|---------------------------------|
B|---------------------------------|---------------------------------|
G|---------------------------------|---------------------------------|
D|---------------------------------|---------------------------------|
A|-------------1-----------3-------|-----1-----------4---3---1-------|
E|-4---2---2-------2---2-------1---|-1-------1---1---------------1---|


 |
 |Guitar 1
 |
E|---------------------------------|---------------------------------|
B|---------------------------------|---------------------------------|
G|-------------3-----------5-------|-----3-----------6---5---3-------|
D|-6---3---3-------3---3-------3---|-4-------4---4---------------4---|
A|---------------------------------|---------------------------------|
E|---------------------------------|---------------------------------|
 |
 |Guitar 2
 |
E|---------------------------------|---------------------------------|
B|---------------------------------|---------------------------------|
G|---------------------------------|---------------------------------|
D|---------------------------------|---------------------------------|
A|-------------1-----------3-------|-----1-----------4---3---1-------|
E|-4---1---1-------1---1-------1---|-2-------2---2---------------2---|


  GUITAR SOLO
 |
 |Guitar 1
 |
E|---------------------------------|---------------------------------|
B|---------------------------------|---------------------------------|
G|---------------------------------|---------------------------------|
D|-----------------4---------------|-----------------4-----------4---|
A|-(4)-6---6---6-------6---6---6---|-4---6---6---6-------6-----------|
E|---------------------------------|---------------------------------|

 |
 |Guitar 1
 |
E|---------------------------------|---------------------------------|
B|---------------------------------|---------------------------------|
G|---------------------------------|---------------------------------|
D|-----------------4-----------4---|-----4-------4---6---4-----------|
A|-(4)-6---6---6-------6---6-------|-------------------------6---4---|
E|---------------------------------|---------------------------------|

 |
 |Guitar 1
 |
E|---------------------------------|---------------------------------|
B|---------------------------------|---------------------------------|
G|---------------------------------|---------------------------------|
D|-----------------4---------------|-----------------4---------------|
A|-(4)-6---6---6-------6---6---6---|-4---6---6---6-------6-------4---|
E|---------------------------------|---------------------------------|

 |
 |Guitar 1
 |
E|---------------------------------|---------------------------------|
B|---------------------------------|---------------------------------|
G|---------------------------------|---------------------------------|
D|-----------------4-----------4---|-----4-------4---6-p-4-------3---|
A|-(4)-6---6---6-------6---6-------|-------------------------6-------|
E|---------------------------------|---------------------------------|
                                   |
                                   |Guitar 2
                                   |
                                   |---------------------------------|
                                   |---------------------------------|
                                   |---------------------------------|
                                   |---------------------------------|
                                   |-----------------------------4---|
                                   |---------------------------------|

 |
 |Guitar 1
 |
E|---------------------------------|---------------------------------|
B|---------------------------------|---------------------------------|
G|-----------------3---------------|-----------------3---------------|
D|-3---4---4---4-------4---4---4---|-3---4---4---4-------4-------3---|
A|---------------------------------|---------------------------------|
E|---------------------------------|---------------------------------|
 |
 |Guitar 2
 |
E|---------------------------------|---------------------------------|
B|---------------------------------|---------------------------------|
G|---------------------------------|---------------------------------|
D|-----------------4---------------|-----------------4---------------|
A|-(4)-6---6---6-------6---6---6---|-4---6---6---6-------6-------4---|
E|---------------------------------|---------------------------------|

 |
 |Guitar 1
 |
E|---------------------------------|---------------------------------|
B|---------------------------------|---------------------------------|
G|-----------------3-----------3---|-----3-------3---4-p-3-----------|
D|-(3)-4---4---4-------4---4-------|-------------------------4---3---|
A|---------------------------------|---------------------------------|
E|---------------------------------|---------------------------------|
 |
 |Guitar 2
 |
E|---------------------------------|---------------------------------|
B|---------------------------------|---------------------------------|
G|---------------------------------|---------------------------------|
D|-----------------4-----------4---|-----4-------4---6---4-----------|
A|-(4)-6---6---6-------6---6-------|-------------------------6---4---|
E|---------------------------------|---------------------------------|

 |
 |Guitar 1
 |
E|---------------------------------|---------------------------------|
B|---------------------------------|---------------------------------|
G|-----------------3---------------|-----------------3---------------|
D|-(3)-4---4---4-------4---4---4---|-3---4---4---4-------4-------3---|
A|---------------------------------|---------------------------------|
E|---------------------------------|---------------------------------|
 |
 |Guitar 2
 |
E|---------------------------------|---------------------------------|
B|---------------------------------|---------------------------------|
G|---------------------------------|---------------------------------|
D|-----------------4---------------|-----------------4---------------|
A|-(4)-6---6---6-------6---6---6---|-4---6---6---6-------6-------4---|
E|---------------------------------|---------------------------------|

 |
 |Guitar 1
 |
E|---------------------------------|---------------------------------|
B|---------------------------------|---------------------------------|
G|-----------------3-----------3---|-----3-------3---4-p-3-----------|
D|-(3)-4---4---4-------4---4-------|-------------------------4-------|
A|---------------------------------|-----------------------------6---|
E|---------------------------------|---------------------------------|
 |
 |Guitar 2
 |
E|---------------------------------|---------------------------------|
B|---------------------------------|---------------------------------|
G|---------------------------------|---------------------------------|
D|-----------------4-----------4---|-----4-------4---6---4-----------|
A|-(4)-6---6---6-------6---6-------|-------------------------6---4---|
E|---------------------------------|---------------------------------|

 |
 |Guitar 1
 |
E|---------------------------------|---------------------------------|
B|---------------------------------|---------------------------------|
G|---------------------------------|---------------------------------|
D|-----3---3---3-------3---3---3---|-----3---3---3---4---3-----------|
A|-(6)-------------6---------------|-6---------------------------6---|
E|---------------------------------|---------------------------------|

 |
 |Guitar 1
 |
E|---------------------------------|---------------------------------|
B|---------------------------------|---------------------------------|
G|---------------------------------|---------------------------------|
D|-----3---3---3-------3---3---3---|-4---4---4---4---6---4---3-------|
A|-(6)-------------6---------------|-----------------------------6---|
E|---------------------------------|---------------------------------|

 |
 |Guitar 1
 |
E|---------------------------------|---------------------------------|
B|---------------------------------|---------------------------------|
G|---------------------------------|---------------------------------|
D|-----3---3---3-------3---3---3---|-----3---3---3---4---3-----------|
A|-(6)-------------6---------------|-6---------------------------6---|
E|---------------------------------|---------------------------------|

 |
 |Guitar 1
 |
E|---------------------------------|---------------------------------|
B|---------------------------------|---------------------------------|
G|---------------------------------|---------------------------------|
D|-----3---3---3-------3---3---3---|-4---4---4---4---6---4---3-------|
A|-(6)-------------6---------------|-----------------------------6---|
E|---------------------------------|---------------------------------|


  INTERLUDE
 |
 |Guitar 1
 |
E|---------------------------------|---------------------------------|
B|---------------------------------|---------------------------------|
G|-------------3-----------5-------|-----3-----------6---5---3-------|
D|-6---4---4-------4---4-------3---|-3-------3---3---------------3---|
A|---------------------------------|---------------------------------|
E|---------------------------------|---------------------------------|
 |
 |Guitar 2
 |
E|---------------------------------|---------------------------------|
B|---------------------------------|---------------------------------|
G|---------------------------------|---------------------------------|
D|---------------------------------|---------------------------------|
A|-------------1-----------3-------|-----1-----------4---3---1-------|
E|-4---2---2-------2---2-------1---|-1-------1---1---------------1---|

 |
 |Guitar 1
 |
E|---------------------------------|---------------------------------|
B|---------------------------------|---------------------------------|
G|-------------3-----------5-------|-----3-----------6---5---3-------|
D|-6---3---3-------3---3-------3---|-3-------3---3-------------------|
A|---------------------------------|---------------------------------|
E|---------------------------------|---------------------------------|
 |
 |Guitar 2
 |
E|---------------------------------|---------------------------------|
B|---------------------------------|---------------------------------|
G|---------------------------------|---------------------------------|
D|---------------------------------|---------------------------------|
A|-------------1-----------3-------|-----1-----------4---3---1-------|
E|-4---1---1-------1---1-------1---|-1-------1---1-------------------|

 |
 |Guitar 1
 |
E|---------------------------------|---------------------------------|
B|---------------------------------|---------------------------------|
G|-------------3-----------5-------|-----3-----------6---5---3-------|
D|-6---4---4-------4---4-------3---|-3-------3---3---------------3---|
A|---------------------------------|---------------------------------|
E|---------------------------------|---------------------------------|
 |
 |Guitar 2
 |
E|---------------------------------|---------------------------------|
B|---------------------------------|---------------------------------|
G|---------------------------------|---------------------------------|
D|---------------------------------|---------------------------------|
A|-------------1-----------3-------|-----1-----------4---3---1-------|
E|-4---2---2-------2---2-------1---|-1-------1---1---------------1---|

 |
 |Guitar 1
 |
E|---------------------------------|---------------------------------|
B|---------------------------------|---------------------------------|
G|-------------3-----------5-------|-----3-----------6---5---3-------|
D|-6---3---3-------3---3-------3---|-3-------3---3-------------------|
A|---------------------------------|---------------------------------|
E|---------------------------------|---------------------------------|
 |
 |Guitar 2
 |
E|---------------------------------|---------------------------------|
B|---------------------------------|---------------------------------|
G|---------------------------------|---------------------------------|
D|---------------------------------|---------------------------------|
A|-------------1-----------3-------|-----1-----------4---3---1-------|
E|-4---1---1-------1---1-------1---|-1-------1---1-------------------|


  2nd VERSE
 |
 |Guitar 1
 |
E|---------------------------------|---------------------------------|
B|---------------------------------|---------------------------------|
G|-3---4---4---4---3-------3---4---|-4---4---3-------3---4---4---4---|
D|---------------------4-----------|-------------4-------------------|
A|---------------------------------|---------------------------------|
E|---------------------------------|---------------------------------|
 |
 |Guitar 2
 |
E|---------------------------------|---------------------------------|
B|---------------------------------|---------------------------------|
G|---------------------------------|---------------------------------|
D|---------------------------------|---------------------------------|
A|-1---2---2---2---1-------1---2---|-2---2---1-------1---2---2---2---|
E|---------------------2-----------|-------------2-------------------|

 |
 |Guitar 1
 |
E|---------------------------------|---------------------------------|
B|-------------------------11------|-(11)----------------------------|
G|-4---3-------------------11------|-(11)----------------------------|
D|---------4---4-----------11------|-(11)----------------------------|
A|-------------------------9-------|-(9)-----------------------------|
E|---------------------------------|---------------------------------|
 |
 |Guitar 2
 |
E|---------------------------------|---------------------------------|
B|-------------------------11------|-(11)----------------------------|
G|-------------------------11------|-(11)----------------------------|
D|-------------------------11------|-(11)----------------------------|
A|-2---1-------------------9-------|-(9)-----------------------------|
E|---------2---2-------------------|---------------------------------|

 |
 |Guitar 1
 |
E|---------------------------------|---------------------------------|
B|---------------------------------|---------------------------------|
G|-3---4---4---4---3-------3---4---|-4---4---3-------3---4---4---4---|
D|---------------------4-----------|-------------4-------------------|
A|---------------------------------|---------------------------------|
E|---------------------------------|---------------------------------|
 |
 |Guitar 2
 |
E|---------------------------------|---------------------------------|
B|---------------------------------|---------------------------------|
G|---------------------------------|---------------------------------|
D|---------------------------------|---------------------------------|
A|-1---2---2---2---1-------1---2---|-2---2---1-------1---2---2---2---|
E|---------------------2-----------|-------------2-------------------|

 |                                 |
 |Guitar 1                         |Both Guitars
 |                                 |
E|---------------------------------|---------------------------------|
B|-------------------------11------|-(11)----------------11--11--11--|
G|-4---3-------------------11------|-(11)----------------11--11--11--|
D|---------4---4-----------11------|-(11)----------------11--11--11--|
A|-------------------------9-------|-(9)-----------------9---9---9---|
E|---------------------------------|---------------------------------|
 |
 |Guitar 2
 |
E|---------------------------------|
B|-------------------------11------|
G|-------------------------11------|
D|-------------------------11------|
A|-2---1-------------------9-------|
E|---------2---2-------------------|

 |
 |Both Guitars
 |
E|---------------------------------|---------------------------------|
B|-11\-9---------------------------|-(9)-----------------------------|
G|-11\-9---------------------------|-(9)-----------------------------|
D|-11\-9---------------------------|-(9)-----------------------------|
A|-9-\-7---------------------------|-(7)-----------------------------|
E|---------------------------------|---------------------------------|

 |
 |Both Guitars
 |
E|-------------4-----------6-------|---------------------------------|
B|-5-----------5-----------7-------|---------------------------------|
G|-4-------------------------------|-----4---3-------4---3-----------|
D|---------------------------------|-------------4-----------4-------|
A|---------------------------------|---------------------------------|
E|---------------------------------|---------------------------------|

 |
 |Both Guitars
 |
E|---------------------------------|---------------------------------|
B|-9-/-11--------------------------|-(11)----------------------------|
G|-9-/-11--------------------------|-(11)----------------------------|
D|-9-/-11--------------------------|-(11)----------------------------|
A|-7-/-9---------------------------|-(9)-----------------------------|
E|---------------------------------|---------------------------------|

 |
 |Both Guitars
 |
E|---------------------------------|---------------------------------|
B|-(11)----------------------------|-(11)----------------------------|
G|-(11)----------------------------|-(11)----------------------------|
D|-(11)----------------------------|-(11)----------------------------|
A|-(9)-----------------------------|-(9)-----------------------------|
E|---------------------------------|---------------------------------|

 |
 |Guitar 1
 |
E|---------------------------------|---------------------------------|
B|---------------------------------|---------------------------------|
G|-3---4---4---4---3-------3---4---|-4---4---3-------3---4---4---4---|
D|---------------------4-----------|-------------4-------------------|
A|---------------------------------|---------------------------------|
E|---------------------------------|---------------------------------|
 |
 |Guitar 2
 |
E|---------------------------------|---------------------------------|
B|---------------------------------|---------------------------------|
G|---------------------------------|---------------------------------|
D|---------------------------------|---------------------------------|
A|-1---2---2---2---1-------1---2---|-2---2---1-------1---2---2---2---|
E|---------------------2-----------|-------------2-------------------|

 |
 |Guitar 1
 |
E|---------------------------------|---------------------------------|
B|-------------------------11------|-(11)----------------------------|
G|-4---3-------------------11------|-(11)----------------------------|
D|---------4---4-----------11------|-(11)----------------------------|
A|-------------------------9-------|-(9)-----------------------------|
E|---------------------------------|---------------------------------|
 |
 |Guitar 2
 |
E|---------------------------------|---------------------------------|
B|-------------------------11------|-(11)----------------------------|
G|-------------------------11------|-(11)----------------------------|
D|-------------------------11------|-(11)----------------------------|
A|-2---1-------------------9-------|-(9)-----------------------------|
E|---------2---2-------------------|---------------------------------|

 |
 |Guitar 1
 |
E|---------------------------------|---------------------------------|
B|---------------------------------|---------------------------------|
G|-3---4---4---4---3-------3---4---|-4---4---3-------3---4---4---4---|
D|---------------------4-----------|-------------4-------------------|
A|---------------------------------|---------------------------------|
E|---------------------------------|---------------------------------|
 |
 |Guitar 2
 |
E|---------------------------------|---------------------------------|
B|---------------------------------|---------------------------------|
G|---------------------------------|---------------------------------|
D|---------------------------------|---------------------------------|
A|-1---2---2---2---1-------1---2---|-2---2---1-------1---2---2---2---|
E|---------------------2-----------|-------------2-------------------|

 |                                 |
 |Guitar 1                         |Both Guitars
 |                                 |
E|---------------------------------|---------------------------------|
B|-------------------------11------|-(11)----------------11--11--11--|
G|-4---3-------------------11------|-(11)----------------11--11--11--|
D|---------4---4-----------11------|-(11)----------------11--11--11--|
A|-------------------------9-------|-(9)-----------------9---9---9---|
E|---------------------------------|---------------------------------|
 |
 |Guitar 2
 |
E|---------------------------------|
B|-------------------------11------|
G|-------------------------11------|
D|-------------------------11------|
A|-2---1-------------------9-------|
E|---------2---2-------------------|

 |
 |Both Guitars
 |
E|---------------------------------|---------------------------------|
B|-11\-9---------------------------|-(9)-----------------------------|
G|-11\-9---------------------------|-(9)-----------------------------|
D|-11\-9---------------------------|-(9)-----------------------------|
A|-9-\-7---------------------------|-(7)-----------------------------|
E|---------------------------------|---------------------------------|

 |
 |Both Guitars
 |
E|-------------4-----------6-------|-7-----------6-------------------|
B|-5-----------5-----------7-------|-9-----------7-----------5-------|
G|-4-------------------------------|-------------------------4-------|
D|---------------------------------|---------------------------------|
A|---------------------------------|---------------------------------|
E|---------------------------------|---------------------------------|

 |
 |Both Guitars
 |
E|---------------------------------|---------------------------------|
B|-9-/-11--------------------------|-(11)----------------------------|
G|-9-/-11--------------------------|-(11)----------------------------|
D|-9-/-11--------------------------|-(11)----------------------------|
A|-7-/-9---------------------------|-(9)-----------------------------|
E|---------------------------------|---------------------------------|

 |
 |Both Guitars
 |
E|---------------------------------|---------------------------------|
B|-(11)----------------------------|-(11)----------------------------|
G|-(11)----------------------------|-(11)----------------------------|
D|-(11)----------------------------|-(11)----------------------------|
A|-(9)-----------------------------|-(9)-----------------------------|
E|---------------------------------|---------------------------------|


  CHORUS
 |
 |Both Guitars
 |
E|---------------------------------|---------------------------------|
B|---------------------------------|---------------------------------|
G|-10----------12----------10------|-----12----------14--------------|
D|-10----------12----------10------|-----12----------14--------------|
A|-8-----------10----------8-------|-----10----------12--------------|
E|---------------------------------|---------------------------------|

 |
 |Both Guitars
 |
E|---------------------------------|---------------------------------|
B|---------------------------------|---------------------------------|
G|-8-----------10----------8-------|-----10----------12--------------|
D|-8-----------10----------8-------|-----10----------12--------------|
A|-6-----------8-----------6-------|-----8-----------10--------------|
E|---------------------------------|---------------------------------|

 |
 |Both Guitars
 |
E|---------------------------------|---------------------------------|
B|---------------------------------|---------------------------------|
G|-5-/-7-------7-----------7-------|-----7-----------7-\-5-----------|
D|-5-/-7-------7-----------7-------|-----7-----------7-\-5-----------|
A|-3-/-5---5---5---5---5---5---5---|-5---5---5---5---5-\-3-----------|
E|---------------------------------|---------------------------------|

 |
 |Both Guitars
 |
E|---------------------------------|---------------------------------|
B|---------------------------------|---------------------------------|
G|-5-/-7-------7-----------7-------|-----7-----------7-\-5-----------|
D|-5-/-7-------7-----------7-------|-----7-----------7-\-5-----------|
A|-3-/-5---5---5---5---5---5---5---|-5---5---5---5---5-\-3-----------|
E|---------------------------------|---------------------------------|

 |
 |Both Guitars
 |
E|---------------------------------|---------------------------------|
B|---------------------------------|---------------------------------|
G|-10----------12----------10------|-----12----------14--------------|
D|-10----------12----------10------|-----12----------14--------------|
A|-8-----------10----------8-------|-----10----------12--------------|
E|---------------------------------|---------------------------------|

 |
 |Both Guitars
 |
E|---------------------------------|---------------------------------|
B|---------------------------------|---------------------------------|
G|-8-----------10----------8-------|-----10----------12--------------|
D|-8-----------10----------8-------|-----10----------12--------------|
A|-6-----------8-----------6-------|-----8-----------10--------------|
E|---------------------------------|---------------------------------|

 |
 |Both Guitars
 |
E|---------------------------------|---------------------------------|
B|---------------------------------|---------------------------------|
G|-5-/-7-------7-----------7-------|-----7-----------7-\-5-----------|
D|-5-/-7-------7-----------7-------|-----7-----------7-\-5-----------|
A|-3-/-5---5---5---5---5---5---5---|-5---5---5---5---5-\-3-----------|
E|---------------------------------|---------------------------------|

 |
 |Both Guitars
 |
E|---------------------------------|---------------------------------|
B|---------------------------------|---------------------------------|
G|-5-/-7-------7-----------7-------|-----7-----------7-\-5-----------|
D|-5-/-7-------7-----------7-------|-----7-----------7-\-5-----------|
A|-3-/-5---5---5---5---5---5---5---|-5---5---5---5---5-\-3-----------|
E|---------------------------------|---------------------------------|

 |
 |Both Guitars
 |
E|---------------------------------|---------------------------------|
B|---------------------------------|---------------------------------|
G|-12----------14----------12------|-----14--------------------------|
D|-12----------14----------12------|-----14----------9---------------|
A|-10----------12----------10------|-----12----------9---------------|
E|---------------------------------|-----------------7---------------|

 |
 |Both Guitars
 |
E|---------------------------------|---------------------------------|
B|---------------------------------|---------------------------------|
G|-10----------12----------10------|-----12----------14--------------|
D|-10----------12----------10------|-----12----------14--------------|
A|-8-----------10----------8-------|-----10----------12--------------|
E|---------------------------------|---------------------------------|

 |
 |Both Guitars
 |
E|---------------------------------|---------------------------------|
B|---------------------------------|---------------------------------|
G|-7-/-9-------9-----------9-------|-----9-----------9-\-7-----------|
D|-7-/-9-------9-----------9-------|-----9-----------9-\-7-----------|
A|-5-/-7---7---7---7---7---7---7---|-7---7---7---7---7-\-5-----------|
E|---------------------------------|---------------------------------|

 |
 |Both Guitars
 |
E|---------------------------------|---------------------------------|
B|---------------------------------|---------------------------------|
G|-7---9-------9-----------9-------|-----9-----------9---7-----------|
D|-7---9-------9-----------9-------|-----9-----------9---7-----------|
A|-5-/-7---7---7---7---7---7---7---|-7---7---7---7---7-\-5-----------|
E|---------------------------------|---------------------------------|

 |
 |Both Guitars
 |
E|---------------------------------|---------------------------------|
B|---------------------------------|---------------------------------|
G|-12----------14----------12------|-----14--------------------------|
D|-12----------14----------12------|-----14----------9---------------|
A|-10----------12----------10------|-----12----------9---------------|
E|---------------------------------|-----------------7---------------|

 |
 |Both Guitars
 |
E|---------------------------------|---------------------------------|
B|---------------------------------|---------------------------------|
G|-10----------12----------10------|-----12----------14--------------|
D|-10----------12----------10------|-----12----------14--------------|
A|-8-----------10----------8-------|-----10----------12--------------|
E|---------------------------------|---------------------------------|

 |
 |Both Guitars
 |
E|---------------------------------|---------------------------------|
B|---------------------------------|---------------------------------|
G|-7-/-9-------9-----------9-------|-----9-----------9-\-7-----------|
D|-7-/-9-------9-----------9-------|-----9-----------9-\-7-----------|
A|-5-/-7---7---7---7---7---7---7---|-7---7---7---7---7-\-5-----------|
E|---------------------------------|---------------------------------|

 |
 |Both Guitars
 |
E|---------------------------------|---------------------------------|
B|---------------------------------|---------------------------------|
G|-7---9-------9-----------9-------|-----9-----------9---7-----------|
D|-7---9-------9-----------9-------|-----9-----------9---7-----------|
A|-5-/-7---7---7---7---7---7---7---|-7---7---7---7---7-\-5-----------|
E|---------------------------------|---------------------------------|


  ENDING
 |
 |Guitar 1
 |
E|---------------------------------|---------------------------------|
B|---------------------------------|---------------------------------|
G|-3---4---4---4---3-------3---4---|-4---4---3-------3---4---4---4---|
D|---------------------4-----------|-------------4-------------------|
A|---------------------------------|---------------------------------|
E|---------------------------------|---------------------------------|
 |
 |Guitar 2
 |
E|---------------------------------|---------------------------------|
B|---------------------------------|---------------------------------|
G|---------------------------------|---------------------------------|
D|---------------------------------|---------------------------------|
A|-1---2---2---2---1-------1---2---|-2---2---1-------1---2---2---2---|
E|---------------------2-----------|-------------2-------------------|

 |
 |Guitar 1
 |
E|---------------------------------|
B|---------------------------------|
G|-4---3---------------------------|
D|---------2---4-------------------|
A|---------------------------------|
E|---------------------------------|
 |
 |Guitar 2
 |
E|---------------------------------|
B|---------------------------------|
G|---------------------------------|
D|---------------------------------|
A|-2---1---------------------------|
E|---------0---2-------------------|

2.HOLY SMOKE

Intro
---------------------------------------------------|
---------------------------------------------------|
---------------------------------------------------|
----6-7-6-9-6-7-6-9-6-7-9--------------------------|
--7-------------------------6-7-6-9-6-7-6-9-6-7-9--|
--------------------------7------------------------|

---------------------------|
---------------------------|
---------------------------|
----4-5-4-7-4--------------|
--5-------------4-5-4-7-4--|
--------------5------------|

-----------------------------------|
-----------------------------------|
-----------------------------------|
----6-7-6-9-6-7-6-9-6-7-6-9-7-6----|
--7-----------------------------7--|
-----------------------------------|

-----------------------------------|
-----------------------------------|
-----------------------------------|
----6-7-6-9-6-7-6-9-6-7-6-9-7-6----|
--7-----------------------------7--|
-----------------------------------|

-----------------------------------|
-----------------------------------|
-----------------------------------|
-----------------------------------|
----6-7-6-9-6-7-6-9-6-7-6-9-7-6----|
--7-----------------------------7--|

---------------------------|
---------------------------|
---------------------------|
----4-5-4-7-4--------------|
--5-------------4-5-4-7-4--|
--------------5------------|

-----------------------------------|
-----------------------------------|
-----------------------------------|
----6-7-6-9-6-7-6-9-6-7-6-9-7-6----|
--7-----------------------------7--|
-----------------------------------|

Verse
-----------------|
-----------------|
--9---7----------|
--9---7---5---7--|
--7---5---5---7--|
----------3---5--|

Chorus
-----------------|
-----------------|
--9-------7------|
--9---5---7---7--|
--7---5---5---7--|
------3-------5--|

Riff A
---------------|-------------------|
---------------|-------------------|
---------------|-------------------|
--2-2-0---0----|--2-2-0---0-5-4-2--|
--------2---2--|--------2----------|
---------------|-------------------|

Verse
-----------------|
-----------------|
--9---7----------|
--9---7---5---7--|
--7---5---5---7--|
----------3---5--|

Chorus
-----------------|
-----------------|
--9-------7------|
--9---5---7---7--|
--7---5---5---7--|
------3-------5--|

Riff A
---------------|-------------------|
---------------|-------------------|
---------------|-------------------|
--2-2-0---0----|--2-2-0---0-5-4-2--|
--------2---2--|--------2----------|
---------------|-------------------|

Riff B
---------------------------------------------------|
---------------------------------------------------|
---------------------------------------------------|
----6-7-6-9-6-7-6-9-6-7-9--------------------------|
--7-------------------------6-7-6-9-6-7-6-9-6-7-9--|
--------------------------7------------------------|

---------------------------|
---------------------------|
---------------------------|
----4-5-4-7-4--------------|
--5-------------4-5-4-7-4--|
--------------5------------|

-----------------------------------|
-----------------------------------|
-----------------------------------|
----6-7-6-9-6-7-6-9-6-7-6-9-7-6----|
--7-----------------------------7--|
-----------------------------------|

-----------------------------------|
-----------------------------------|
-----------------------------------|
----6-7-6-9-6-7-6-9-6-7-6-9-7-6----|
--7-----------------------------7--|
-----------------------------------|

-----------------------------------|
-----------------------------------|
-----------------------------------|
-----------------------------------|
----6-7-6-9-6-7-6-9-6-7-6-9-7-6----|
--7-----------------------------7--|

---------------------------|
---------------------------|
---------------------------|
----4-5-4-7-4--------------|
--5-------------4-5-4-7-4--|
--------------5------------|

-----------------------------------|
-----------------------------------|
-----------------------------------|
----6-7-6-9-6-7-6-9-6-7-6-9-7-6----|
--7-----------------------------7--|
-----------------------------------|

Solo
I only know parts of the solo so if anyone knows the rest please tell me.
The first part comes 2mins 36 into the song.
-----------14----------14----------14----------14----------19-17--|
--14----------17-14-------17-14-------17-14-------17-14-----------|
--14----------------16----------16----------16----------16--------|
-----16-14--------------------------------------------------------|
------------------------------------------------------------------|
------------------------------------------------------------------|

The second part comes 2mins 54 into the song.
------------------------------------------------------------|
--19-14-17-19-14-17-19-14-17-19-14-17-19-14-17-19-14-17-14--|
------------------------------------------------------------|
------------------------------------------------------------|
------------------------------------------------------------|
------------------------------------------------------------|

Verse
-----------------|
-----------------|
--9---7----------|
--9---7---5---7--|
--7---5---5---7--|
----------3---5--|

Chorus
-----------------|
-----------------|
--9-------7------|
--9---5---7---7--|
--7---5---5---7--|
------3-------5--|

Riff A
---------------|-------------------|
---------------|-------------------|
---------------|-------------------|
--2-2-0---0----|--2-2-0---0-5-4-2--|
--------2---2--|--------2----------|
---------------|-------------------|

3.NO PRAYER FOR THE DYING

Riff 1:
E-------------------|-------------------|
B-------------------|-------------------|
G-------------------|-------------------|
D------2-------5----|-------------------|
A----2---2---5---5--|--5---5---3---3----|
E--0-------3--------|----5---5---3---3--|

Riff 2:
E-------------------|-------------------|
B-------------------|-------------------|
G-------------------|-------------------|
D----------2-2------|----------5-5------|
A------2-2-----2-2--|------5-5-----5-5--|
E--0-0--------------|--3-3--------------|

E-------------------|-------------------|
B-------------------|-------------------|
G-------------------|-------------------|
D-------------------|-------------------|
A--5-5-----5-5------|--3-3-----3-3------|
E------5-5-----5-5--|------3-3-----3-3--|

Solo while riff 1 and riff 2:
E------------------------|-----------------------|
B--12-10----10-----------|-----------------------|
G--------12----12-11-----|-----------------12-9--|
D--------------------12--|-----12----10-12-------|
A------------------------|--12----12-------------|
E------------------------|-----------------------|

Verse:
...times when I've wondered and...
E--0------------|--2---3p2----|
B--0------------|--3-------3--|
G--0------------|--2----------|
D--2------------|--0----------|
A--2------------|-------------|
E--0------------|-------------|

...times when I've cried     When my...
E--2------------|--0---------------2--|
B--3------------|--1---------------3--|
G--4------------|--0---------------2--|
D--4------------|--2---------------0--|
A--2------------|--3------------------|
E---------------|---------------------|

...prayers were answered at...
E--0---------|--2---3p2--------|
B--0---------|--3-------3------|
G--0---------|--2--------------|
D--2---------|--0--------------|
A--2---------|-----------------|
E--0---------|-----------------|

...times when I've lied
E--2------------|--0----------------|
B--3------------|--1----------------|
G--4------------|--0----------------|
D--4------------|--2----------------|
A--2------------|--3----------------|
E---------------|-------------------|

End of verse.

Riff 3:
E-----------------|-----------------|
B-----------------|-----------------|
G--9-9---7--------|--4-4---5--------|
D--9-9---7--------|--4-4---5--------|
A--7-7---5--------|--2-2---3--------|
E-----------------|-----------------|

Solo while riff 3:
E-------------------------------|
B------------10-----------------|
G----9-11-12----12-11-12-11-----|
D--9------------------------12--|
A-------------------------------|
E-------------------------------|

E------------------------------|
B-----------10-----------------|
G-----11-12----12-11-9------9--|
D--12------------------12------|
A------------------------------|
E------------------------------|

On the fourth time of solo while riff 3:
E-------------------------------|
B------------10-----------------|
G----9-11-12----12-11-12-11-----|
D--9------------------------12--|
A-------------------------------|
E-------------------------------|

E--------10----------------|
B--12-13----13-12----------|
G-----------------12---11--|
D--------------------------|
A--------------------------|
E--------------------------|

End of solo while riff 3.

Riff 4:
E--------------------|--------------------|
B--------------------|--------------------|
G--------------------|--------------------|
D--7-9-9--7-9--------|--7-9-9--7-9--------|
A--5-7-7--5-7--------|--5-7-7--5-7--------|
E--------------------|--------------------|

E--------------------|--------------------|
B--------------------|--------------------|
G--5--------7--------|--------------------|
D--5--------7--------|--7-9-9--7-9--------|
A--3--------5--------|--5-7-7--5-7--------|
E--------------------|--------------------|

Solo-riff 1:
E---------------------------------|
B---------------------------------|
G---------------------------------|
D----7-9---7-9---7-9---7-9--7-10--|
A--7-----7-----7-----7-----7------|
E---------------------------------|

E---------------------------------|
B---------------------------------|
G---------------------------------|
D----7-9---7-9---7-9---7-9--7-10--|
A--7-----7-----7-----7-----7------|
E---------------------------------|

E---------------------------------|
B---------------------------------|
G---------------------------------|
D----2-4---2-4---2-4---2-4---2-5--|
A--2-----2-----2-----2-----2------|
E---------------------------------|

E---------------------------|
B---------------------------|
G---------------------------|
D----3-5---3-5---5-7---5-7--|
A--3-----3-----5-----5------|
E---------------------------|

Solo-riff 2:
E--------------|--------------|
B--------------|--------------|
G--------------|--------------|
D--------------|--------------|
A--4-4-4-2--4--|--4-4-4-2--4--|
E--2-2-2-0--2--|--2-2-2-0--2--|

E--------------|-----------------|
B--------------|-----------------|
G--------------|-----------------|
D--------------|--5-4-2---0-2-4--|
A--4-4-4-2--4--|-----------------|
E--2-2-2-0--2--|-----------------|

E--------------|--------------|
B--------------|--------------|
G--------------|--------------|
D--------------|--------------|
A--4-4-4-2--4--|--4-4-4-2--4--|
E--2-2-2-0--2--|--2-2-2-0--2--|

E--------------|-------------------------|
B--------------|-------------------------|
G--------------|-------------------------|
D--------------|--5-4-2---0-2-4---5-4-2--|
A--4-4-4-2--4--|-------------------------|
E--2-2-2-0--2--|-------------------------|

Riff 5:
God give me the answer to my life
E------------------|-------------------------|
B------------------|-------------------------|
G--9------------7--|------4----------5---7---|
D--9------------7--|------4----------5---7---|
A--7------------5--|------2----------3---5---|
E------------------|-------------------------|

End of riff 5.

Second guitar on the two last times of riff 5:
E---------------|----------------|
B---------------|--12------------|
G--9-----11-----|---------7---9--|
D---------------|----------------|
A---------------|----------------|
E---------------|----------------|

E---------------|---------10---12--|
B---------------|--12--------------|
G--9-----11-----|------------------|
D---------------|------------------|
A---------------|------------------|
E---------------|------------------|

4.PUBLIC ENEMA NUMBER ONE

Don't Know

5.FATES WARNING

Don't Know

6.THE ASSASSIN

Intro :

   Riff1:
E-|-----1--0------1--0------1--0-------1--0-------1--0------------------------|
B-|---3---------3---------3----------3----------3-----------------------------|
G-|-2---------2---------2----------2----------2-------------------------------|
D-|---------------------------------------------------------------------------|
A-|---------------------------------------------------------------------------|
E-|---------------------------------------------------------------------------|

   Riff2 :
          After a few times enters this riff with riff1 .
E-|---------------------------------------------------------------------------|
B-|----9---9----12---12----10---18----9---9-----------------------------------|
G-|----7-x-7----10-x-10----8--x-8-----7-x-7-----------------------------------|
D-|-xx-------xx---------xx---------xx-----------------------------------------|
A-|---------------------------------------------------------------------------|
E-|---------------------------------------------------------------------------|

   P.S : Forgot this riff - Its *** close if not 100% correct.
E-|---------------------------------------------------------------------------|
B-|-12---13---15---13---15---12s10---12---13----12----13----------------------|
G-|---------------------------------------------------------------------------|
D-|---------------------------------------------------------------------------|
A-|---------------------------------------------------------------------------|
E-|---------------------------------------------------------------------------|

E-|---------------------------------------------------------------------------|
B-|-12---13---15---13---15---12s10--12----------------------------------------|
G-|------------------------------------12-11-11-------------------------------|
D-|---------------------------------------------------------------------------|
A-|---------------------------------------------------------------------------|
E-|---------------------------------------------------------------------------|


   Verse :
E-|---------------------------------------------------------------------------|
B-|---------------------------------------------------------------------------|
G-|---------------------------9----------10----------7----------9-------------|
D-|-------------------------9----------10----------7----------9---------------|
A-|-----------------------7-----------8----------5----------7-----------------|
E-|---------------------------------------------------------------------------|
   Now the contracts out...

E-|---------------------------------------------------------------------------|
B-|---------------------------------------------------------------------------|
G-|----------------------------5----------6----------3----------5-------------|
D-|--------------------------5----------6----------3----------5---------------|
A-|------------------------3----------4----------1----------3-----------------|
E-|---------------------------------------------------------------------------|
   I watch your every move...


   Riff3 :
          The part before the chours
E-|---------------------------------------------------------------------------|
B-|---------------------------------------------------------------------------|
G-|-9h10-9h10-9h10----9-------------------------------------------------------|
D-|----------------12---10-12-9-----------------------------------------------|
A-|---------------------------------------------------------------------------|
E-|---------------------------------------------------------------------------|


   Chours :
E-|---------------------------------------------------------------------------|
B-|---------------------------------------------------------------------------|
G-|------9-9---10---7-----7---7---7-------------------------------------------|
D-|------9-9---10---7-----7---7---7-------------------------------------------|
A-|------7-7---8----5--xx-5-x-5-x-5-------------------------------------------|
E-|---------------------------------------------------------------------------|

E-|----------------------------------|----------------------------------------|
B-|----------------------------------|----------------------------------------|
G-|-----5-5--6--3-----3---3---3------|--5--------------------------3----------|
D-|-----5-5--6--3-----3---3---3------|--5--------------------------3----------|
A-|-----3-3--4--1--xx-1-x-1-x-1------|--3--------------------------1----------|
E-|----------------------------------|----------------------------------------|


   Riff4:
         The part before the solo .
E-|--------------------------------|------------------------------------------|
B-|--------------------------------|------------------------------------------|
G-|--9h10-9h10-9h10----9-----------|--9h10-9h10-9h10----9-------10------------|
D-|-----------------12---10-12-9---|-----------------12---10-12---------------|
A-|--------------------------------|------------------------------------------|
E-|--------------------------------|------------------------------------------|
   Assassin                         Assassin

E-|--------------------------------|------------------------------------------|
B-|--------------------------------|------------------------------------------|
G-|-9h10-9h10-9h10----9------------|--9h10-9h10-9h10----9---------------------|
D-|----------------12---10-12-9----|-----------------12---10-12-9----9--------|
A-|--------------------------------|------------------------------12---10-12-9|
E-|--------------------------------|------------------------------------------|
   Assassin                         Assassin


   Rythem for solo :
   Riff5           : Play this part between 2:05 - 2:25 in the song .
E-|-----------------------------------|---------------------------------------|
B-|-----------------------------------|---------------------------------------|
G-|-----------------------------------|---------------------------------------|
D-|----5-5---5-5---5-5---5-6----------|----9-9----9-9---9-9---9-10------------|
A-|--3-----3-----3-----3--------------|--7------7-----7-----7-----------------|
E-|-----------------------------------|---------------------------------------|


   Riff6:
         Now listen to the song to know when to play riff's 6 and 7.
E-|---------------------------------------------------------------------------|
B-|---------------------------------------------------------------------------|
G-|---------------------------------------------------------------------------|
D-|-3-3-3-3-3-3-3-3-3-3-3-3-3-3-3----3--2--0--3-------------------------------|
A-|---------------------------------------------------------------------------|
E-|---------------------------------------------------------------------------|

   Riff7:                                   In the last time play this
E-|-------------------|-------------------|-----------------------------------|
B-|-------------------|-------------------|-----------------------------------|
G-|-----------7---5---|-------------------|--5h4-0--5h4-0---------------------|
D-|-----------7---5---|---5h4-0--5h4-0----|-----------------------------------|
A-|-----------5---3---|-------------------|-----------------------------------|
E-|-------------------|-------------------|-----------------------------------|

7.RUN SILENT RUN DEEP

Riff 1:
E--------------------|--------------------------|
B--------------------|--------------------------|
G------9---10-7---9--|----9---7---9-------------|
D----9---9------7----|--7---7---7---7---9-9-----|
A--7-----------------|--------------7---7-7-----|
E--------------------|--------------------------|

E--------------------|--------------------------|
B--------------------|--------------------------|
G------9---10-7---9--|----9---7---9-5---7-7-----|
D----9---9------7----|--7---7---7---5---7-7-----|
A--7-----------------|--------------5---5-5-----|
E--------------------|--------------------------|

Verse 1:
           The convoy lights are dead ahead
E------------------------------|-------------------------------|
B------------------------------|-------------------------------|
G------------------------------|-------------------------------|
D--12--11--9--9--9---10--7--9--|-------------------------------|
A--10--9---7--7--7---8---5--7--|-------------------------------|
E------------------------------|--0--0-0-0--0-0-0--0-0-0--0-0--|

The Merchantmen lay in their bed, The thumb of diesels hammers down,
E-----------------------|------------------------------------------------------|
B-----------------------|------------------------------------------------------|
G-----------------------|------------------------------------------------------|
D--9--9--9---10--12--9--|--7--7--7---------------------------------------------|
A--7--7--7---8---10--7--|--5--5--5---5--5-5-5--5-5-5--5-5-5--5-5-5--5-5-5--5-5-|
E-----------------------|------------------------------------------------------|

In the oily sea-the killing ground
E-----------------------------------------------------------|
B-----------------------------------------------------------|
G-----------------------------------------------------------|
D--4--4--4-----------------------------------------5--------|
A--2--2--2--2--2-2-2--2-2-2--2-2-2--2-2-2------5-7---7-5----|
E------------------------------------------5-7-----------7--|

His knuckles white his eyes alight,
E----------------------|-------------------------------|
B----------------------|-------------------------------|
G----------------------|-------------------------------|
D--9--9--9---10--7--9--|-------------------------------|
A--7--7--7---8---5--7--|-------------------------------|
E----------------------|--0--0-0-0--0-0-0--0-0-0--0-0--|

He slams the hatch on the deadly night, A cunning fox in the chickens lair,
E-----------------------|------------------------------------------------------|
B-----------------------|------------------------------------------------------|
G-----------------------|------------------------------------------------------|
D--9--9--9---10--12--9--|--7--7--7---------------------------------------------|
A--7--7--7---8---10--7--|--5--5--5---5--5-5-5--5-5-5--5-5-5--5-5-5--5-5-5--5-5-|
E-----------------------|------------------------------------------------------|

A hound of hell and the devil don't care
E-------------------------------------------------------|
B-------------------------------------------------------|
G-------------------------------------------------------|
D--6--6--6----------------------------------------------|
A--4--4--4---4--4-4-4--4-4-4--4-4-4--4-4-4--4-4-4--4-4--|
E-------------------------------------------------------|

Chorus:
   Running silent, running deep, we are your final prayer,
E-----------------------------------------------------------|
B-----------------------------------------------------------|
G--9---------------7----------------4--------------5---7----|
D--9---------------7----------------4--------------5---7----|
A--7---------------5----------------2--------------3---5----|
E-----------------------------------------------------------|

   Warriors in secret sleep, a merchantman's nightmare,
E-----------------------------------------------------------|
B-----------------------------------------------------------|
G--9---------------7----------------4-----------------------|
D--9---------------7----------------4--------------5---7----|
A--7---------------5----------------2--------------5---7----|
E--------------------------------------------------3---5----|

   A silent death lies waiting, for all of you below,
E-----------------------------------------------------------|
B-----------------------------------------------------------|
G--9---------------7----------------4--------------5---7----|
D--9---------------7----------------4--------------5---7----|
A--7---------------5----------------2--------------3---5----|
E-----------------------------------------------------------|

   Running silent, running deep, sink into your silent sleep
E-----------------------------------------------------------|
B-----------------------------------------------------------|
G--9---------------7----------------4-----------------------|
D--9---------------7----------------4--------------5---7----|
A--7---------------5----------------2--------------5---7----|
E--------------------------------------------------3---5----|

Verse:
2.Chill the heart of fighting men,
3.The lifeboats shattered the hull is torn,
E----------------------|-------------------------------|
B----------------------|-------------------------------|
G----------------------|-------------------------------|
D--9--9--9---10--7--9--|-------------------------------|
A--7--7--7---8---5--7--|-------------------------------|
E----------------------|--0--0-0-0--0-0-0--0-0-0--0-0--|

In open ocean wondering when? The lethal silver fish will fly
The tar black smell of burning oil, On the way down to Davy Jones
E-----------------------|------------------------------------------------------|
B-----------------------|------------------------------------------------------|
G-----------------------|------------------------------------------------------|
D--9--9--9---10--12--9--|--7--7--7---------------------------------------------|
A--7--7--7---8---10--7--|--5--5--5---5--5-5-5--5-5-5--5-5-5--5-5-5--5-5-5--5-5-|
E-----------------------|------------------------------------------------------|

The boat will shiver-men will die
Every man for himself-you're on your own
E-----------------------------------------------------------|
B-----------------------------------------------------------|
G-----------------------------------------------------------|
D--4--4--4-----------------------------------------5--------|
A--2--2--2--2--2-2-2--2-2-2--2-2-2--2-2-2------5-7---7-5----|
E------------------------------------------5-7-----------7--|

A cast of millions-a part to play
The wolf eyes watch the crosswire
E----------------------|-------------------------------|
B----------------------|-------------------------------|
G----------------------|-------------------------------|
D--9--9--9---10--7--9--|-------------------------------|
A--7--7--7---8---5--7--|-------------------------------|
E----------------------|--0--0-0-0--0-0-0--0-0-0--0-0--|

Killer? Victim? Or fool for a day Obeying an order-men have to die
"Stern tubes ready", "Aim and fire!" They can pin some medal on your chest,
E-----------------------|------------------------------------------------------|
B-----------------------|------------------------------------------------------|
G-----------------------|------------------------------------------------------|
D--9--9--9---10--12--9--|--7--7--7---------------------------------------------|
A--7--7--7---8---10--7--|--5--5--5---5--5-5-5--5-5-5--5-5-5--5-5-5--5-5-5--5-5-|
E-----------------------|------------------------------------------------------|

Us or them-a well rehearsed lie
But in two more weeks-dead like the rest
E-------------------------------------------------------|

B-------------------------------------------------------|
G-------------------------------------------------------|
D--6--6--6----------------------------------------------|
A--4--4--4---4--4-4-4--4-4-4--4-4-4--4-4-4--4-4-4--4-4--|
E-------------------------------------------------------|

Riff 2:
E------------------------------------|----------------------------------|
B------10--12-----10--12--8--10-8-7--|------10--12-----8--10--7--8-7----|
G--12--------------------------------|--12---------------------------9--|
D------------------------------------|----------------------------------|
A------------------------------------|----------------------------------|
E------------------------------------|----------------------------------|

Solo-riff 1:
E-----------------------------------------------------------------|
B-----------------------------------------------------------------|
G-----------------------------------------------------------------|
D----------------------------------------------------------4-2----|
A--------------------------------------------------------------4--|
E--0---2-2-2-2-2---0---3-3-3-3-3---0---2-2-2-2-2---0---0-0--------|

Solo-riff 2:
E--------------------------------|
B--------------------------------|
G--2--------3-----------------2--|
D--2--------3--------5--------2--|
A--0--------1--------5--------0--|
E--------------------3-----------|

Solo-riff 3:
E--------------------------------|
B--------------------------------|
G--5--------9--------5--------7--|
D--5--------9--------5--------7--|
A--3--------7--------3--------5--|
E--------------------------------|

Riff 3:
   Running silent, running deep, we are your final prayer,
E--0---------------2----------------2--------------0---2----|
B--0---------------3----------------3--------------1---3----|
G--0---------------2----------------4--------------0---2----|
D--2---------------0----------------4--------------2---0----|
A--2--------------------------------2--------------3--------|
E--0--------------------------------------------------------|

   Warriors in secret sleep, a merchantman's nightmare.
E--0---------------2----------------2--------------3---0-------0----|
B--0---------------3----------------3--------------3---2-------0----|
G--0---------------2----------------4--------------0---2-------0----|
D--2---------------0----------------4--------------0---2-------2----|
A--2--------------------------------2--------------2---0-------2----|
E--0-----------------------------------------------3-----------0----|

8.HOOKS IN YOU

Riff 1:
E-------------------------------------|
B-------------------------------------|
G-------------------------------------|
D------9-----9-----7-----7-------7-6--|
A------7-----7-----5-----4------------|
E--0-0---0-0---0-0---0-0-------0------|

E---------------------------------|
B---------------------------------|
G---------------------------------|
D------9-----9---------------7-6--|
A------7-----7-------5---7-5------|
E--0-0---0-0---0-5-7---7----------|

Chorus:
Hooks in you, hooks in me, hooks in the ceiling for the well hung feeling
E---------------------------------|---------------------------------|
B--5-5-5-4-----5-5-5-4-----5-5-4--|--5-5-5-4-----5-5-5-4-----5-5-4--|
G--4-4-4-4-----4-4-4-4-----4-4-4--|--4-4-4-4-----4-4-4-4-----4-4-4--|
D--4-4-4-4-----4-4-4-4-----4-4-4--|--4-4-4-4-----4-4-4-4-----4-4-4--|
A--2-2-2-2-----2-2-2-2-----2-2-2--|--0-0-0-0-----0-0-0-0-----0-0-0--|
E---------------------------------|---------------------------------|

No big deal, no big sin, strung up on on love I got the hooks screwed in
E---------------------------------|---------------------------------|
B--5-5-5-4-----5-5-5-4-----5-5-4--|--5-5-5-4-----5-5-5-4-----5-5-4--|
G--4-4-4-4-----4-4-4-4-----4-4-4--|--4-4-4-4-----4-4-4-4-----4-4-4--|
D--4-4-4-4-----4-4-4-4-----4-4-4--|--4-4-4-4-----4-4-4-4-----4-4-4--|
A--2-2-2-2-----2-2-2-2-----2-2-2--|--0-0-0-0-----0-0-0-0-----0-0-0--|
E---------------------------------|---------------------------------|

Hooks in you, hooks in me, hooks in the ceiling for the well hung feeling
E---------------------------------|---------------------------------|
B--5-5-5-4-----5-5-5-4-----5-5-4--|--5-5-5-4-----5-5-5-4-----5-5-4--|
G--4-4-4-4-----4-4-4-4-----4-4-4--|--4-4-4-4-----4-4-4-4-----4-4-4--|
D--4-4-4-4-----4-4-4-4-----4-4-4--|--4-4-4-4-----4-4-4-4-----4-4-4--|
A--2-2-2-2-----2-2-2-2-----2-2-2--|--0-0-0-0-----0-0-0-0-----0-0-0--|
E---------------------------------|---------------------------------|

No big deal, no big sin, strung up on on love I got the hooks screwed in
E---------------------------------|---------------------------------|
B--5-5-5-4-----5-5-5-4-----5-5-4--|--2---------------------------2--|
G--4-4-4-4-----4-4-4-4-----4-4-4--|--2---------------4-2-2-4-2-2-2--|
D--4-4-4-4-----4-4-4-4-----4-4-4--|--2---------------4-2-2-4-2-2-2--|
A--2-2-2-2-----2-2-2-2-----2-2-2--|--0---------------------------0--|
E---------------------------------|---------------------------------|

Riff 3:
   Hooks in you     I got those hooks in you Hooks in you      in you
E-----------------------------------------------------------------------|
B-----------------------------------------------------------------------|
G--9----------------5------------------------2--------------------------|
D--9----------------5------------------------2-----------------3--------|
A--7----------------3------------------------0-----------------3--------|
E--------------------------------------------------------------1--------|

   Hooks in you     I got those hooks in you
E--------------------------------------------|
B--------------------------------------------|
G--9----------------5------------------------|
D--9----------------5------------------------|
A--7----------------3------------------------|
E--------------------------------------------|

   Hooks in you     in you
E----------------------------------------------------|
B----------------------------------------------------|
G--2-------------------------------------------------|
D--2----------------3--------------------------------|
A--0----------------3--------------------------------|
E-------------------1-1-1-1-1-1-1-1-1-1-1-1-1-1-1-1--|

Solo-riff:
E-----------------------------------|-----------------------------------|
B-----------------------------------|-----------------------------------|
G-----------------------------------|-----------------------------------|
D--9--------------------------------|--5--------------------------------|
A--7-7-7-7-7-7-7-7-7-7-7-7-7-7-7-7--|--3-3-3-3-3-3-3-3-3-3-3-3-3-3-3-3--|
E-----------------------------------|-----------------------------------|

E-----------------------------------|--------------------------------|
B-----------------------------------|--------------------------------|
G-----------------------------------|--------------------------------|
D--2--------------------------------|--------------------------------|
A--0-0-0-0-0-0-0-0-0-0-0-0-0-0-0-0--|--3-----3-----3-----3-----3--3--|
E-----------------------------------|--1-1-1-1-1-1-1-1-1-1-1-1-1--1--|

E-----------------------------------|-----------------------------------|
B-----------------------------------|-----------------------------------|
G-----------------------------------|-----------------------------------|
D--9--------------------------------|--5--------------------------------|
A--7-7-7-7-7-7-7-7-7-7-7-7-7-7-7-7--|--3-3-3-3-3-3-3-3-3-3-3-3-3-3-3-3--|
E-----------------------------------|-----------------------------------|

E-----------------------------------|--------------------------------|
B-----------------------------------|--------------------------------|
G-----------------------------------|--------------------------------|
D--2--------------------------------|--------------------------------|
A--0-0-0-0-0-0-0-0-0-0-0-0-0-0-0-0--|--3-----3-----3-----3-----3--3--|
E-----------------------------------|--1-1-1-1-1-1-1-1-1-1-1-1-1--1--|

E-----------------------------------|-----------------------------------|
B-----------------------------------|-----------------------------------|
G-----------------------------------|-----------------------------------|
D--6--------------------------------|--2--------------------------------|
A--4-4-4-4-4-4-4-4-4-4-4-4-4-4-4-4--|--0-0-0-0-0-0-0-0-0-0-0-0-0-0-0-0--|
E-----------------------------------|-----------------------------------|

E-----------------------------------|--------------------------------|
B-----------------------------------|--------------------------------|
G-----------------------------------|--------------------------------|
D-----------------------------------|--2-----2-----2-----2-----2--2--|
A--4--------------------------------|--0-0-0-0-0-0-0-0-0-0-0-0-0--0--|
E--2-2-2-2-2-2-2-2-2-2-2-2-2-2-2-2--|--------------------------------|

Riff 4:
   Hooks in you                        I got those hooks in you
E-----------------------------------|-----------------------------------|
B-----------------------------------|-----------------------------------|
G-----------------------------------|-----------------------------------|
D--9--------------------------------|--5--------------------------------|
A--7-7-7-7-7-7-7-7-7-7-7-7-7-7-7-7--|--3-3-3-3-3-3-3-3-3-3-3-3-3-3-3-3--|
E-----------------------------------|-----------------------------------|

   Hooks in you                        in you
E-----------------------------------|-----------------------------------|
B-----------------------------------|-----------------------------------|
G-----------------------------------|-----------------------------------|
D--2--------------------------------|-----------------------------------|
A--0-0-0-0-0-0-0-0-0-0-0-0-0-0-0-0--|--3--------------------------------|
E-----------------------------------|--1-1-1-1-1-1-1-1-1-1-1-1-1-1-1-1--|

   Hooks in you                     I got those hooks in you
E--------------------------------|--------------------------------|
B--------------------------------|--------------------------------|
G--------------------------------|--------------------------------|
D--9-----9-----9-----9-----9--9--|--5-----5-----5-----5-----5--5--|
A--7-7-7-7-7-7-7-7-7-7-7-7-7--7--|--3-3-3-3-3-3-3-3-3-3-3-3-3--3--|
E--------------------------------|--------------------------------|

   Hooks in you                     in you
E--------------------------------|--------------------------------|
B--------------------------------|--------------------------------|
G--------------------------------|--------------------------------|
D--2-----2-----2-----2-----2--2--|--------------------------------|
A--0-0-0-0-0-0-0-0-0-0-0-0-0--0--|--3-----3-----3-----3-----3--3--|
E--------------------------------|--1-1-1-1-1-1-1-1-1-1-1-1-1--1--|

E-----------------------------------|
B-----------------------------------|
G-----------------------------------|
D--7-6---7-6---7-6---7-6---7-6---9--|
A------7-----7-----7-----7----7--7--|
E-----------------------------------|

9.BRING YOUR DAUGHTER TO THE SLAUGHTER

Intro:

E]--2--3----------3--0---------------------------|
B]--3--3---3-----3--3--0-------------------------|
G]--2--0--2--2--2-0--x---------------------------|
D]--0--0--0--2---0-0--2--------------------------|
A]-----x-0--0----x--2--(x)-----------------------|
E]----3---------3--0--(x)------------------------|
(Pickscrapewithslowgliss)
E]----------------------------------------------|
B]----------------------------------------------|
G]----------------------------------------------|
D]----------------------------------------------|
A]----<----2------------------------------------|
E]----<---0----------0^-------------------------|
(bendbehindnut)

Verse:
letringletring
E]--------------------------------------------0-----|
B]--------3-----------------------------------------|
G]-----0--------------------------------------------|x4
D]--2---------------------------------------2-------|
A]---------------------------------------0----------|
E]--------------------------------------------------|

Chorus:
E]---------------------------------------------------|
B]---------------------------------------------------|
G]----7/--9--9----9-----7---9-9---9----5-------------|
D]----7/--9--9----9--x---7---9-9--9--x--5------------|
A]----5/--7--7----7--x---5---7-7--7--x--3------------|
E]---------------------------------------------------|


E]--------------------------------------------------------|
B]--------------------------------------------------------|
G]---------5--------2---2---------2----2--2-4-4-2-4-------|
D]--5--5--5--5-------2---2---------2----0--0-0-0-0-0--2---|
A]--3--3--3--3-3-\\-2--0---0-----3---4---3-------------0--|
E]--------------------------------------------------------|
pm--------------------------------------------------------|

E]--------------------------------------------------------------|
B]--------------------------------------------------------------|
G]----------------------------------------------------7---------|
D]--2--4---2--------------------------------------------7-------|
A]--0--0---0-------2-------5--2--4--2-----2--2---5--2-4---2--5--|
E]------------3^--0----0--------------3--0--0------------3------|

E]-----------------------------------------------------------------|
B]-----------------------------------------------------------------|
G]--9--9----9----x----7----9--9----9----x---5----------------2-----|
D]--9--9----9----x----7----9--9----9----x---5--5-5-5-5--------2----|
A]--7--7----7----x----5----7--7----7----x---3--3-3-3-3--3-\\-2--0--|
E]-----------------------------------------------------------------|

pm...........]


E]--------------------------------------------------------------|
B]--------------------------------------------------------------|
G]-----------2---------2-----2--4--2--4--2--4-------------------|
D]-----------2---------0-----0--0--0--0--0--0-2--2-4-2-2--------|
A]--0--3--4------3--4-------------------------0---0-0-0-0---2---|
E]-------------------------------------------------3^--0--------|


E]-----------------------------------------------------------|
B]-----------------------------------------------------------|
G]-----------------------------------------------------------|
D]-----------------------------------------------------------|
A]--2--5-2--4--2------2-----2--5-2--4-----2------------------|
E]--0------------3^--0-----0---------3^--0-------0^----------|

(bendbehindnut)
E]-----------------3--3-------------------------2--2--------|
B]------------------3---3------------------------3--3-------|
G]------------------0--0-------------------------2--2-------|
D]-------------2----0--0-------------------------0-0--------|
A]--2--5--2--4---2------------------------------------------|
E]--0---------------3--3------------------------------------|

Solo....
E]--------------------3----------------------------------------|
B]------------------3--3------3-----------3--------------------|
G]------------------2-0------2------2----2-----7^^----^^--^^---|
D]------------------0-0------0------2----0---------------------|
A]-----(12)-------------x------0------0------------------------|
E]-----(12)-------------3--------------------------------------|


E]---------------------------------------------------------------|
B]---------------------------------------------------------------|
G]----7-p5-h-7p-5-h4---------------------------------------------|
D]-----------------------7p-5h-7p-5------5----7-v-------7-/-14---|
A]--------------------R-------------7----------------------------|
E]-------------------R-------------------------------------------|

E]----------------------------12--12----12-12----1212-------------|
B]------------12---12----x-------12--12---12-12---12-12-----------|
G]---12-----x--12--12----x---14^^--------14------14^^-----14^^----|
D]---12-----x--12---12----x---------------------------------------|
A]----------------------------------------------------------------|
E]----------------------------------------------------------------|


E]--12-12----------12-12---12------|
B]--12-12----------12--12----------|
G]----------14^^-------------------|
D]---------------------------------|
A]---------------------------------|
E]---------------------------------|

E]-------1215p12-12---12---12-1215-----------12-1512-----------------|
B]--12h13-----------13---13-------1312-1213-13--------13p12h13h15----|
G]-------------------------------------------------------------------|
D]-------------------------------------------------------------------|
A]-------------------------------------------------------------------|
E]-------------------------------------------------------------------|

E]12-1415-1715p14-12-----------------------------------------------|
B]----------------15-1412------------------------------------------|
G]-----------------------15p14-12-12-----0---14^^------------------|
D]---------------------------------14---0--------------------------|
A]-----------------------------------------------------------------|
E]-----------------------------------------------------------------|
E]-----------------------------------------------------------------|
B]---12------12----------12-15-12---12----12--13p12---12---12h15---|
G]-----14^^-----14----14----------14---14---------14---14----------|
D]-----------------------------------------------------------------|
A]-----------------------------------------------------------------|
E]-----------------------------------------------------------------|

E]------------------------------------------|
B]--12---12----12--13-12--------------------|
G]----14----14-----------14-12h14p12--------|
D]------------------------------------------|
A]------------------------------------------|
E]------------------------------------------|

E]--------------------------------------------------------------------|
B]--------------------------------------------------------------------|
G]----12--16p12--14p12----12-12-12-16p12-14p12---12-12-12h16p14p12----|
D]--14---------------14------------------14---------------------------|
A]--------------------------------------------------------------------|
E]--------------------------------------------------------------------|

E]---------------------------------------1212-15p12--------------|
B]------------------------------12-12-13-----------1313-1213-----|
G]---12--12-16p14p12--15----12v----------------------------------|
D]-14------------------14----------------------------------------|
A]---------------------------------------------------------------|
E]---------------------------------------------------------------|

E]-12-15p12-------12-15p12----------14-17--------14h17p14-----15^^--12-------|
B]---------1312-13--------13-12-13/-------14h15-15-------14-15-------15h14---|
G]---------------------------------------------------------------------------|
D]---------------------------------------------------------------------------|
A]---------------------------------------------------------------------------|
E]---------------------------------------------------------------------------|

E]-------------------------------------------------------------------------|
B]-12--12------------------------------------------------------------------|
G]--------15-14-12-14^--14-\\-7p0--5p0---4p0-------------------------------|
D]--------------------------------------7p0--5p0---4p0----------------2----|
A]----------------------------------------------------7p0--5p0-4p0----2----|
E]----------------------------------------------------------------3^-0-----|
Bridge:
E]-----------------------------------------------------------|
B]-----------------------------------------------------------|
G]-5-5--5--5--5--5--5--5---7--7---7---7--7--7--7--7----------|
D]-3-3--3--3--3--3--3--3---5--5---5---5--5--5--5--5----------|
A]-----------------------------------------------------------|
E]-----------------------------------------------------------|
pm........................................................

E]----------------------------------------------|
B]----------------------------------------------|
G]----9--9--9--9---9-9---9--9-------------------|
D]----7--7--7--7---7-7---7--7-------------------|x3
A]----------------------------------------------|
E]----------------------------------------------|
............................................
E]--------------------------------------------------------------------|
B]--------------------------------------------------------------------|
G]--------------------------------------------------------------------|
D]--------------------------2--2-2--2--2-2--2-2--2-2-2-2-2--2-2-2-----|
A]--5---5--5---5--5---5--5---5--0-0-0--0-0--0-0--0--0-0-0-00--0-0-0---|
E]---3--3--3---3--3---3--3---3----------------------------------------|
.....................................................................
E]--------------------------------------------------------------------------|
B]--------------------------------------------------------------------------|
G]--------------------------------------------------------------------------|
D]-5--5-5--5-5--5-5--5-7--7-7--7-7-7--7-7--9-9-9-9-9-9-9-9-9-9-9-9-9-9-9-9--|
A]-3--3-3--3-3--3-3--3-5--5-5--5-5--5-5-5--7-7-7-7-7-7-7-7-7-77-7-7-7-7-7---|
E]--------------------------------------------------------------------------|
pm........................................................................
E]--------------------------------------------------|
B]----8-7--8--10--8--7--8----8--7--8--10-8--7--8----|
G]-9--------------------9---------------------------|
D]--------------------------------------------------|x6
A]--------------------------------------------------|
E]--------------------------------------------------|

E]---------------------------------------12---12----12-----------------|
B]----8--7--8--10--8--7-8-----8--7-8--10-8--7-8--15^^---15^^---15^^----|
G]--9--------------------9---------------------------------------------|
D]---------------------------------------------------------------------|
A]---------------------------------------------------------------------|
E]---------------------------------------------------------------------|

E]--12-----12------12------12-------12----12--------------------|
B]--15^^----15^^-----15^^------15^^-------15^---15^^----8-------|
G]------------------------------------------10^^----------------|
D]--------------------------------------------------------------|
A]--------------------------------------------------------------|
E]--------------------------------------------------------------|

E]----------------10--------------------------------12----------|
B]-10--------------13^^-----------10----------5----------15^^---|
G]-12^^--------------------------12^^---------7^^---------------|
D]--------------------------------------------------------------|
A]--------------------------------------------------------------|
E]--------------------------------------------------------------|

E]--------------------------------------------------------------|
B]--------------------------------------------------------------|
G]-----14^^-----4p12----12----12--12-----12----12-14p12----12v--|
D]--14-------------14----14--------14----14-------14------------|
A]--------------------------------------------------------------|
E]--------------------------------------------------------------|

E]------12------------12------------------------------------|
B]----------15^^v---------15p14p12---12---12----------------|
G]-12-14^^----------14^^---------15---15---15p14-12--12-----|
D]------------------------------------------14--------------|
A]----------------------------------------------------------|
E]----------------------------------------------------------|

E]--------------------------------------------|
B]--------------------------------------------|
G]----12---14v---------------14^^-\\----------|
D]-14-----------------------------------------|
A]--------------------------------------------|
E]--------------------------------------------|


E]------------------------------------------------------|
B]----8----------------------15^^----------8-\\---------|
G]----7-----------------------------------7-\\----------|
D]------------------------------------------------------|
A]----7--------x--------------------------7-\\----------|
E]------------x-----------------------------------------|


10.MOTHER RUSSIA

Intro:
E|---------------------------|---------------------------|
B|---------------------------|---------------------------|
G|---------------------------|---------------------------|
D|--------8--5--7~-----------|-10-9-10~------------------|
A|-5-5-5---------------------|---------------------------|
E|---------------------------|---------------------------|

E|---------------------------|---------------------------|
B|---------------------------|---------------------------|
G|---------------------------|-10-9-10--9~---------------|
D|--------8--5--7~-----------|---------------------------|
A|-5-5-5---------------------|---------------------------|
E|---------------------------|---------------------------|

E|---------------------------|---------------------------|
B|---------------------------|---------------------------|
G|---------------------------|-10-9-10~------------------|
D|--------8--5--7~-----------|---------------------------|
A|-5-5-5---------------------|---------------------------|
E|---------------------------|---------------------------|

E|---------------------------|---------------------------|
B|---------------------------|---------------------------|
G|---------------------------|-10-9-10--9~---------------|
D|--------8--5--7~-----------|---------------------------|
A|-5-5-5---------------------|---------------------------|
E|---------------------------|---------------------------|

E|---------------------------|
B|---------------------------|
G|---------------------------|
D|-8-7-8~--------------------|
A|---------------------------|
E|---------------------------|


Bridge (Clean Sound)

E|-----------------|-----------------|
B|-----------------|-----------------|
G|---2---2---3---0-|---2---2---0---0-|
D|-0---0---0---0---|-0---3---0---2---|
A|-----------------|-----------------|
E|-----------------|-----------------|

E|-----------------|-----------------|
B|-----------------|-----------------|
G|---0---2---3---0-|---2---2---0---0-|
D|-0---0---0---0---|-0---3---2---2---|
A|-----------------|-----------------|
E|-----------------|-----------------|

E|-----------------|-----------------|
B|-----------------|-----------------|
G|---0---2---3---0-|---2---2---0---0-|
D|-0---0---0---0---|-0---3---0---2---|
A|-----------------|-----------------|
E|-----------------|-----------------|

E|-----------------|-----------------|
B|-----------------|-----------------|
G|-----------0-----|---0-------------|
D|---3---3-------3-|-------2-0-------|
A|-3---3---3---3---|-3---3-----------|
E|-----------------|-----------------|


Riff 1

E|---------------------------|---------------------------|
B|---------------------------|---------------------------|
G|------------------5--------|------------------5--------|
D|----7-7--5-7-8--8---7-5----|----7-7--5-7-8--8---7~-----|
A|-5----------------------8--|-5-------------------------|
E|---------------------------|---------------------------|

E|---------------------------|---------------------------|
B|---------------------------|---------------------------|
G|------------------5--------|---------------------------|
D|----7-7--5-7-8--8---7-5----|----5-5--2-3-5-5-3-2-0-----|
A|-5----------------------8--|-3-------------------------|
E|---------------------------|---------------------------|


Verse 1

   D5   E5 F5 D5 G5 G5 F5 F5   D5   E5 F5 D5 G5 G5 F5
E|---------------------------|---------------------------|
B|---------------------------|---------------------------|
G|-7----9--10-7--12-12-10-10-|-7----9--10-7--12-12-10----|
D|-7----9--10-7--12-12-10-10-|-7----9--10-7--12-12-10----|
A|-5----7--8--5--10-10-8--8--|-5----7--8--5--10-10-8-----|
E|---------------------------|---------------------------|

   D5   E5 F5 D5 G5 G5 F5 D5   C5   D5 E5 C5 G5 G5 D5
E|---------------------------|---------------------------|
B|---------------------------|---------------------------|
G|-7----9--10-7--12-12-10-7--|-5----7--9--5--12-12-7-----|
D|-7----9--10-7--12-12-10-7--|-5----7--9--5--12-12-7-----|
A|-5----7--8--5--10-10-8--5--|-3----5--7--3--10-10-5-----|
E|---------------------------|---------------------------|

   F5   G5 A5 F5 Bb5   A5 F5   F5   G5 A5 F5 Bb5   A5
E|---------------------------|---------------------------|
B|---------------------------|---------------------------|
G|---------------3--3--2-----|---------------3--3--2-----|
D|-3----5--7--3--3--3--2--3--|-3----5--7--3--3--3--2-----|
A|-3----5--7--3--1--1--0--3--|-3----5--7--3--1--1--0-----|
E|-1----3--5--1-----------1--|-1----3--5--1--------------|

   D5   E5 F5 D5 G5 G5 F5 D5   C5   D5 E5 C5 G5 G5 D5
E|---------------------------|---------------------------|
B|---------------------------|---------------------------|
G|-7----9--10-7--12-12-10-7--|-5----7--9--5--12-12-7-----|
D|-7----9--10-7--12-12-10-7--|-5----7--9--5--12-12-7-----|
A|-5----7--8--5--10-10-8--5--|-3----5--7--3--10-10-5-----|
E|---------------------------|---------------------------|


Riff 2

E|---------------------------------|---------------------------------|
B|---------------------------------|---------------------------------|
G|-----4-4-5-5-----4-4-------------|-----4-4-5-5-----4-4-------------|
D|-------------7-7-----5-5-7-7-4-4-|-------------7-7-----5-5-4~------|
A|-7-7-----------------------------|-7-7-----------------------------|
E|---------------------------------|---------------------------------|

E|---------------------------------|---------------------------------|
B|---------------------------------|---------------------------------|
G|-----4-4-5-5-----4-4-------------|---------------------------------|
D|-------------7-7-----5-5-7-7-4-4-|-----5-5-7-7-5-5-7-7-4-4---------|
A|-7-7-----------------------------|-5-5---------------------7-------|
E|---------------------------------|---------------------------------|


Riff 3

E|---------------------------------|---------------------------------|
B|---------------------------------|---------------------------------|
G|---------------------------------|---------------------------------|
D|-----5-5-6-6-3-3-5-5-----3-3-----|-----5-5-6-6-3-3-5-5-------------|
A|-3-3-----------------6-6-----5-5-|-3-3-----------------6-6-5~------|
E|---------------------------------|---------------------------------|

E|---------------------------------|---------------------------------|
B|---------------------------------|---------------------------------|
G|---------------------------------|---------------------------------|
D|-----5-5-6-6-3-3-5-5-----3-3-----|-----1-1-3-3-1-1-3-3-0-0-3-------|
A|-3-3-----------------6-6-----5-5-|-1-1-----------------------------|
E|---------------------------------|---------------------------------|

E|---------------------------------|---------------------------------|
B|---------------------------------|---------------------------------|
G|---------------------------------|---------------------------------|
D|-----5-5-6-6-3-3-5-5-----3-3-----|-----5-5-6-6-3-3-5-5-------------|
A|-3-3-----------------6-6-----5-5-|-3-3-----------------6-6-5~------|
E|---------------------------------|---------------------------------|

E|---------------------------------|---------------------------------|
B|---------------------------------|---------------------------------|
G|---------------------------------|---------------------------------|
D|-----5-5-6-6-3-3-5-5-----3-3-----|-----1-1-3-3-1-1-3-3-0-0-(riff-4)|
A|-3-3-----------------6-6-----5-5-|-1-1-----------------------------|
E|---------------------------------|---------------------------------|


Riff 4

E|---------------------------------|---------------------------------|
B|---------------------------------|---------------------------------|
G|---------------------------------|---------------------------------|
D|-------2---4/5--4-----7-7-5-4----|-------2---4/5--4-----7-7-5-4----|
A|-2--5--------------5----------7--|-2--5--------------5----------7--|
E|---------------------------------|---------------------------------|

E|---------------------------------|---------------------------------|
B|---------------------------------|---------------------------------|
G|------------------------------4--|-2-------------------------------|
D|-----------4/5--4-----7-7-5-4----|---5-4-2---4/5--4--5--7-7-5-4----|
A|-2--5--3-----------5-------------|------------------------------7--|
E|---------------------------------|---------------------------------|


1st Solo (Rhythm Guitar)

   F#5                                                              A5
E|-----------------------------------------------------------------------|
B|-----------------------------------------------------------------------|
G|-----------------------------------------------------------------------|
D|-4---4-----4----4--4---4-----4----4--4---4-----4----4--4--4-4-4-4-7----|
A|-4---4-----4----4--4---4-----4----4--4---4-----4----4--4--4-4-4-4-7----|
E|-2---2-----2----2--2---2-----2----2--2---2-----2----2--2--2-2-2-2-5----|


2nd Solo (Rhythm Guitar)

   C5                                                               Eb5
E|-----------------------------------------------------------------------|
B|-----------------------------------------------------------------------|
G|-5---5-----5----5--5---5-----5----5--5---5-----5----5--5--5-5-5-5-8----|
D|-5---5-----5----5--5---5-----5----5--5---5-----5----5--5--5-5-5-5-8----|
A|-3---3-----3----3--3---3-----3----3--3---3-----3----3--3--3-3-3-3-6----|
E|-----------------------------------------------------------------------|


3rd Solo (Rhythm Guitar)

   E5    E5    E5    E5    F#5 G5    F#5   F#5   F#5   F#5   G5  A5
E|---------------------------------|---------------------------------|
B|---------------------------------|---------------------------------|
G|---------------------------------|---------------------------------|
D|-2-----2-----2-----2-----4---5---|-4-----4-----4-----4-----5---7---|
A|-2-----2-----2-----2-----4---5---|-4-----4-----4-----4-----5---7---|
E|-0-0-0-0-0-0-0-0-0-0-0-0-2---3---|-2-2-2-2-2-2-2-2-2-2-2-2-3---5---|

   G5    G5    G5    G5    A5  B5
E|---------------------------------|---------------------------------|
B|---------------------------------|---------------------------------|
G|---------------------------------|---8-7-5-7-5---------------------|
D|-5-----5-----5-----5-----7---9---|-5-----------8-7-8-7-5---5-------|
A|-5-----5-----5-----5-----7---9---|-----------------------8---8-5---|
E|-3-3-3-3-3-3-3-3-3-3-3-3-5---7---|-------------------------------8-|

   E5    E5    E5    E5    F#5 G5    F#5   F#5   F#5   F#5   G5  A5
E|---------------------------------|---------------------------------|
B|---------------------------------|---------------------------------|
G|---------------------------------|---------------------------------|
D|-2-----2-----2-----2-----4---5---|-4-----4-----4-----4-----5---7---|
A|-2-----2-----2-----2-----4---5---|-4-----4-----4-----4-----5---7---|
E|-0-0-0-0-0-0-0-0-0-0-0-0-2---3---|-2-2-2-2-2-2-2-2-2-2-2-2-3---5---|

   G5    G5    G5    G5    A5  B5
E|---------------------------------|---------------------------------|
B|---------------------------------|---------------------------------|
G|---------------------------------|---8-7-5-7-5---------------------|
D|-5-----5-----5-----5-----7---9---|-5-----------8-7-8-7-5---5-------|
A|-5-----5-----5-----5-----7---9---|-----------------------8---8-5---|
E|-3-3-3-3-3-3-3-3-3-3-3-3-5---7---|-------------------------------8-|

   E5    E5    E5    E5    F#5 G5    F#5   F#5   F#5   F#5   G5  A5
E|---------------------------------|---------------------------------|
B|---------------------------------|---------------------------------|
G|---------------------------------|---------------------------------|
D|-2-----2-----2-----2-----4---5---|-4-----4-----4-----4-----5---7---|
A|-2-----2-----2-----2-----4---5---|-4-----4-----4-----4-----5---7---|
E|-0-0-0-0-0-0-0-0-0-0-0-0-2---3---|-2-2-2-2-2-2-2-2-2-2-2-2-3---5---|

   G5    G5    G5    G5    A5  B5
E|---------------------------------|---------------------------------------|
B|---------------------------------|---------------------------------------|
G|---------------------------------|---10-9-7-9-7--------------------------|
D|-5-----5-----5-----5-----7---9---|-7------------10-9-10-9-7----7---------|
A|-5-----5-----5-----5-----7---9---|--------------------------10---10-7----|
E|-3-3-3-3-3-3-3-3-3-3-3-3-5---7---|------------------------------------10-|


Verse 2

   D5   E5 F5 D5 G5 G5 D5      D5   E5 F5 D5 G5 E5 E5
E|---------------------------|---------------------------|
B|---------------------------|---------------------------|
G|-7----9--10-7--12-12-7-----|-7----9--10-7--12-9--9-----|
D|-7----9--10-7--12-12-7-----|-7----9--10-7--12-9--9-----|
A|-5----7--8--5--10-10-5-----|-5----7--8--5--10-7--7-----|
E|---------------------------|---------------------------|

   E5   F5 G5    E5   F5 G5       E5   F5 G5    F5 D5
E|---------------------------|---------------------------|
B|---------------------------|---------------------------|
G|-9----10-12----9--9-10-12--|----9--9-10-12----10-7-----|
D|-9----10-12----9--9-10-12--|----9--9-10-12----10-7-----|
A|-7----8--10----7--7-8--10--|----7--7-8--10----8--5-----|
E|---------------------------|---------------------------|

   D5   E5 F5 D5 G5 G5 D5      D5   E5 F5 D5 G5 E5 E5
E|---------------------------|---------------------------|
B|---------------------------|---------------------------|
G|-7----9--10-7--12-12-7-----|-7----9--10-7--12-9--9-----|
D|-7----9--10-7--12-12-7-----|-7----9--10-7--12-9--9-----|
A|-5----7--8--5--10-10-5-----|-5----7--8--5--10-7--7-----|
E|---------------------------|---------------------------|

   E5   F5 G5    E5   F5 G5       E5         F5    D5
E|---------------------------|---------------------------|
B|---------------------------|---------------------------|
G|-9--9-10-12----9--9-10-12--|----9----------10----7-----|
D|-9--9-10-12----9--9-10-12--|----9----------10----7-----|
A|-7--7-8--10----7--7-8--10--|----7----------8-----5-----|
E|---------------------------|---------------------------|


SONG STRUCTURE

INTRO
BRIDGE (2x)
RIFF 1 (2x)
VERSE 1
RIFF 1 (2x)
RIFF 2 (2x)
RIFF 3
RIFF 4 (2x)
1st SOLO - Rhythm Guitar (4x)
2nd SOLO - Rhythm Guitar (4x)
3rd SOLO - Rhythm Guitar
VERSE 2
BRIDGE (2x)

1st Solo

E|--------------------------------------------------------|
B|--------------------------------------------------------|
G|-------------6--7-6-4---4---4-6-6~----------------------|
D|-----2---4------------7---6-----------------------------|
A|-4------------------------------------------------------|
E|--------------------------------------------------------|

E|---------------5----------------------------------------|
B|---------5-7-9---9-7-5-----------/7--6-----/10--9-------|
G|---4-6-7---------------7-6~-------------7----------10---|
D|-7------------------------------------------------------|
A|--------------------------------------------------------|
E|--------------------------------------------------------|

E|--------------------------------------------------------|
B|--------------------------------------------------------|
G|-6--7--6h7p6--------------------------------------------|
D|-------------9--6h7p6h7p6h7-----------------------------|
A|----------------------------9-7h9p7h9-5h7p5h7-4~--------|
E|--------------------------------------------------------|

E|---------------0-9-10-9-7-9-5-0-5-4-2-4-----------------|
B|--------5+----------------------------------------------|
G|-6+-----------------------------------------------------|
D|--------------------------------------------------------|
A|--------------------------------------------------------|
E|--------------------------------------------------------|

E|-12h14p12h14p12----------------------------------------------|
B|----------------13h14p13h14p13-------------------------------|
G|-------------------------------13h14p13h14p13-10h11p10h11p10-|
D|-------------------------------------------------------------|
A|-------------------------------------------------------------|
E|-------------------------------------------------------------|

E|-14h17p14---------------16h19p16----------------------16-17-19-21-22b(24)-|
B|----------14h15p14---------------16h17p16----16-17-19---------------------|
G|-------------------16---------------------18------------------------------|
D|--------------------------------------------------------------------------|
A|--------------------------------------------------------------------------|
E|--------------------------------------------------------------------------|


2nd Solo

E|-11p8---8---8-11b(13)-----11-10-8-----------------------|
B|------8---8-----------------------8-11-11b(13)----------|
G|--------------------------------------------------------|
D|--------------------------------------------------------|
A|--------------------------------------------------------|
E|--------------------------------------------------------|

E|-8-----------------------8------------------------------|
B|---8----8-----------------------------------------------|
G|-----11---10-8----10-8-9---10-8-------------------------|
D|---------------10---------------10----------------------|
A|-----------------------------------10-9-8-6-8-6~--------|
E|--------------------------------------------------------|

E|--------------------------------------------------------------------|
B|---------------------------------------------------------4--6b(8)---|
G|-A.H.---------------------------------------------------------------|
D|-8b(10)--8--6h8p6-5--6--5h6p5-3--5--3--------------3--5-------------|
A|----------------------------------------6--6--3--6------------------|
E|--------------------------------------------------------------------|

E|-8-10-11-11b(13)-10-8-10-11/13-13b(15)-13-11-10-11-10-8-10-8----8--8\-|
B|-------------------------------------------------------------11-------|
G|----------------------------------------------------------------------|
D|----------------------------------------------------------------------|
A|----------------------------------------------------------------------|
E|----------------------------------------------------------------------|

E|-----A.H.----------A.H.---------------------------------|
B|-8---11---11---8---8---1---4---3---4---3----------------|
G|-------------------------------------------3------------|
D|--------------------------------------------------------|
A|--------------------------------------------------------|
E|--------------------------------------------------------|

E|-------------8---8----8--|
B|-----------8---8---11----|
G|-10b(12)-----------------|
D|-------------------------|
A|-------------------------|
E|-------------------------|

E|------------------------------------11----11-13b(15)----|
B|-11-10-8----8--------------------11----11---------------|
G|---------11---11-10-8----8-10/12------------------------|
D|----------------------10--------------------------------|
A|--------------------------------------------------------|
E|--------------------------------------------------------|


3rd Solo

E|--------------------------------------------------------|
B|-20+-----20+-----15+-----15+-----15+-----15+------------|
G|-19+-----19+-----14+-----14+-----14+-----14+------------|
D|--------------------------------------------------------|
A|--------------------------------------------------------|
E|--------------------------------------------------------|

E|----------14-17-15-14----14-----------------------------|
B|----12-15-------------17----15-17-17b(19)---------------|
G|--------------------------------------------------------|
D|-14-----------------------------------------------------|
A|--------------------------------------------------------|
E|--------------------------------------------------------|

E|---------------------------------------------------------|
B|---------17-20---------17-20---------17-20---------17-20-|
G|-19b(21)-------19b(21)-------19b(21)-------19b(21)-------|
D|---------------------------------------------------------|
A|---------------------------------------------------------|
E|---------------------------------------------------------|

E|---------------------------------------------|-Drums-&-Rhythm-Guitar-|
B|---------17-20---------17-20---------17-20\--|-----------------------|
G|-19b(21)-------19b(21)-------19b(21)---------|-----------------------|
D|---------------------------------------------|-----------------------|
A|---------------------------------------------|-----------------------|
E|---------------------------------------------|-----------------------|

E|---------12-12---------12-12---------12-12---------12-12-|
B|-15b(17)-------15b(17)-------15b(17)-------15b(17)-------|
G|---------------------------------------------------------|
D|---------------------------------------------------------|
A|---------------------------------------------------------|
E|---------------------------------------------------------|

E|--------------------------------------------------------|
B|-15-12--------------------------------------------------|
G|-------14-12--------------------------------------------|
D|-------------14----12-----------------------------------|
A|-------------------------14----12-----------------------|
E|-------------------------------------15----12-----------|

E|----------------------------------14\--|-Drums-&-Rhythm-Guitar-|
B|-------------------------14----13------|-----------------------|
G|----------------14----13----12---------|-----------------------|
D|-------------13----12------------------|-----------------------|
A|----14-13-12---------------------------|-----------------------|
E|-12------------------------------------|-----------------------|

E|-19-15----15-17-19-17-15----15-------15-17-15-14-|
B|-------17----------------19----17-19-------------|
G|-------------------------------------------------|
D|-------------------------------------------------|
A|-------------------------------------------------|
E|-------------------------------------------------|

E|-17-14----14-------14-15-17-15-14----14----------|
B|-------15----15-17----------------17----15-------|
G|-------------------------------------------16----|
D|-------------------------------------------------|
A|-------------------------------------------------|
E|-------------------------------------------------|

E|-15-12----12-13-15-13-12----12-------------|-Drums-&-Rhythm-Guitar-|
B|-------13----------------15----13-15b(17)--|-----------------------|
G|-------------------------------------------|-----------------------|
D|-------------------------------------------|-----------------------|
A|-------------------------------------------|-----------------------|
E|-------------------------------------------|-----------------------|
comments
print report bad tab
1 comment total.
0 reply
Vidzge wrote on October 16 2006, 02:41 pm

You are so such an king, man!
That's realy many tabs!

I want to post or [tab]
guest
You may want to rate the tab now too:
select rating
Please do not post tabs as comments. Select "correction" instead!