Oops, an error
Loading. Please wait.

Piece Of Mind Tab

22,592 views 15 this week
2 commentsread comments
1 2 3 4 5
accurate
x 5
Autoscroll
+/-
esc
set tempo
stop
Contributor
Hey! There's an official Ultimate Guitar app which is ideal
for learning songs when you're away from computer. Get the app
WARNING: You are trying to view
                                    content from Ultimate-Guitar.com
                                    in an unauthorized application,
                                    which is prohibited.

                                    Please use an official Ultimate
                                    Guitar Tabs application for iPhone,
                                    iPad or Android to access legitimate
                                    chords, guitar, bass, and drum tabs
                                    from Ultimate-Guitar.com database.

                                    Type "ultimate guitar tabs" in Apple
                                    App Store's or Android Market's
                                    search to find the application.
Band- Iron Maiden
Album- Piece Of Mind

1.WHERE THE EAGLES DARE

Main-riff:
E--------------|--------------|
B--------------|--------------|
G--------9--9--|--------7--7--|
D--------9--9--|--------7--7--|
A--------7--7--|--------5--5--|
E--0-0-0-------|--0-0-0-------|

E--------------|---------------|
B--------------|---------------|
G--------5--5--|---------------|
D--------5--5--|--5-5-5--------|
A--------3--3--|--3-3-3-3-2-0--|
E--0-0-0-------|---------------|

End of main-riff.

Riff 2:
E---------------------|---------------------|
B---------------------|---------------------|
G---------------------|---------------------|
D--4--------4---------|--5--------5---------|
A--2--2-2-2-2--2-2-2--|--3--3-3-3-3--3-3-3--|
E---------------------|---------------------|

E---------------------|--------------------|
B---------------------|--------------------|
G---------------------|--------------------|
D--4--------4---------|--5--5--5--7--7--7--|
A--2--2-2-2-2--2-2-2--|--3--3--3--5--5--5--|
E---------------------|--------------------|

Verse:
It's snowning outside the rumbling...
E--------------|--------------|
B--------------|--------------|
G--------9--9--|--------7--7--|
D--------9--9--|--------7--7--|
A--------7--7--|--------5--5--|
E--0-0-0-------|--0-0-0-------|

..sound of engines roar in the...
E--------------|---------------|
B--------------|---------------|
G--------5--5--|---------------|
D--------5--5--|--5-5-5--------|
A--------3--3--|--3-3-3-3-2-0--|
E--0-0-0-------|---------------|

...night
E-----------------------|-----------------------|
B-----------------------|-----------------------|
G-----------------------|-----------------------|
D-----------------------|--------------5--4-----|
A--2-2-2-2-2-2-5--7--7--|--2-2-2-2-2-2-3--2--5--|
E--0-0-0-0-0-0-3--5--5--|--0-0-0-0-0-0-------3--|

End of verse.

Chorus:
..goes on         but still they must..
E--------------------------------------|
B--------------------------------------|
G--------------------------------------|
D--5--------5--------5--------5--4--5--|
A--3--3-3-3-3--3-3-3-3--3-3-3-3--2--3--|
E--------------------------------------|

..fly                    No one should...
E--------------------------------------|
B--------------------------------------|
G--------------------------------------|
D--7--------7--------7--------4--5--7--|
A--5--5-5-5-5--5-5-5-5--5-5-5-2--3--5--|
E--------------------------------------|

..go                       where eagles..
E--------------------------------------|
B--------------------------------------|
G--------------------------------------|
D--5--------5--------5--------5--4--5--|
A--3--3-3-3-3--3-3-3-3--3-3-3-3--2--3--|
E--------------------------------------|

..dare
E------------------------------|
B------------------------------|
G------------------------------|
D--7--------7--------4---5--7--|
A--5--5-5-5-5--5-5-5-2---3--5--|
E------------------------------|

End of chorus.

Riff 3:
E---------------------------------------|
B---------------------------------------|
G--9-9-9-9-----------9-9-9-7-7-7-7-7-7--|
D--9-9-9-9-----------9-9-9-7-7-7-7-7-7--|
A--7-7-7-7-----------7-7-7-5-5-5-5-5-5--|
E-----------0-0-0-0-0-------------------|

E---------------------------------------|
B---------------------------------------|
G--9-9-9-9-----------9-9-9-7-7-7-9-9-9--|
D--9-9-9-9-----------9-9-9-7-7-7-9-9-9--|
A--7-7-7-7-----------7-7-7-5-5-5-7-7-7--|
E-----------0-0-0-0-0-------------------|

E----------------------------------------|
B----------------------------------------|
G--7-7-7-7------------7-7-7-4-4-4-7-7-7--|
D--7-7-7-7------------7-7-7-4-4-4-7-7-7--|
A--5-5-5-5------------5-5-5-2-2-2-5-5-5--|
E-----------0-0-0-0-0--------------------|

E---------------------------------------|
B---------------------------------------|
G--9-9-9-9-----------9-9-9-7-7-7-7-7-7--|
D--9-9-9-9-----------9-9-9-7-7-7-7-7-7--|
A--7-7-7-7-----------7-7-7-5-5-5-5-5-5--|
E-----------0-0-0-0-0-------------------|

End of riff 3.

Solo-riff:
E----------------------|----------------------|
B----------------------|----------------------|
G----------------------|----------------------|
D--2-------------------|--5-------------------|
A--2-------------------|--5-------------------|
E--0-------------------|--3-------------------|

Riff 4:
E-------------------------------------------|
B-------------------------------------------|
G-------------------------------------------|
D-------------------------------------------|
A-------------------------------------------|
E--0--0-3-0-0-0--0-3-0-0-0--0-3-0-0-5--0-3--|

Riff 5:
E------------------------------------------------|
B------------------------------------------------|
G------------------------------------------------|
D-----------------------------------------2------|
A-----------------------------------0-2-4---4-2--|
E--2--2-5-2-2-2--2-5-2-2-2--2-5-2-2--------------|

2.REVELATIONS

  G     A     G     A          C
||----------------------------------------------------------------|
||--------------------------------1-let ring----------------------|
||---------2-----------2----------0----2-p-0--let ring------------|
||---------2-----------2----------2------------2--let ring--------|
||---------0-----------0----------3------------3--let ring--------|
||---3-----------3------------------------------------------------|

     C     D      repeat 3x             G   A   G
|-------------------------||----------------------------|
|-------------------------||----------------------------|
|----5-----7--------------||----------------2-----------|
|----5-----7--------------||----------------2-----------|
|----3-----5--------------||----------------0-----------|
|-------------------------||------------3-------3-------|

RIFF A:
Oh! God of earth and alter...
   A            F             G              A            G
|--------------(1)---(1)------3-----3-----------------------------|
|--------------(1)---(1)------3-----3-----------------------------|
|--2----2-------2-----2-------4-----4--------2----2---2-----------|
|--2----2-------3-----3-------5-----5--------2----2---2-----------|
|--0----0-------3-----3-------5-----5--------0----0---0-----------|
|---------------1-----1-------3-----3---------------------3~------|
                                    |
At the end of the verse stay on the G chord before going into harmony.

BASSLINE:
The bass mirrors the guitar riff except when the vocals enter
he plays:
|-----------------------------------------------------------------|
|-----------------------------------------------------------------|
|-----------3-------------3-------------3-------------------------|
|--5--5---5------1--1---1------3--3---3------5--5---5--3----------|


HARMONY:
Gtr III: (Bruce) (RHYTHM 1)
   Am                         F(maj7)
|-------------------------------------------------------|
|--------1------------1-------------1------------1------|
|-----------2------------2-------------2------------2---|
|-----2------------2-------------3------------3---------|
|--0------------0-------------3------------3------------|
|-------------------------------------------------------|

   C                           Gadd4/B
|-------------------------------------------------------|
|--------1------------1--------------1------------1-----|
|-----------0------------0--------------0------------0--|
|-----2------------2--------------0------------0--------|
|--3------------3--------------2------------2-----------|
|-------------------------------------------------------|

Gtr I: (Dave)

|-------------------------------------------------------------|
|---------------------------------------------6-5h6p5---------|
|-9--7--9~----10--9--7~----9--7--5---4----------------7-5-7p5-|
|---------------------------------------7--5------------------|
|-------------------------------------------------------------|
|-------------------------------------------------------------|

Gtr II: (Adrian)
|-----------------------------------------------------|
|--10--8--10~----10--8--6~---8--6--5------------------|
|--------------------------------------7--5--4--------|
|-----------------------------------------------------|
|-----------------------------------------------------|
|-----------------------------------------------------|
                          repeat 2x
|-----------------------------------|
|--10--8h10p8---6--5--6p5-----------|
|-----------------------------------|
|-----------------------------------|
|-----------------------------------|
|-----------------------------------|

Then
|-----------------------------------------------------------------|
|--13--12--13~----13--12--10~----------13-------------------------|
|----------------------------------12------12~---10--9--7---------|
|-----------------------------------------------------------------|
|-----------------------------------------------------------------|
|-----------------------------------------------------------------|

|-----------------------------------|
|--10--8h10p8----6--5--6p5----------|
|-----------------------------------|
|-----------------------------------|
|-----------------------------------|
|-----------------------------------|

RIFF B(i):
Play with upstrokes
      |            |
   A  G  A      A  G  A          G    D      F      G
|--------------------------------3-----------1------3-------------|
|--------------------------------3-----------1------3-------------|
|--2--0--2------2--0--2----------4----7------2------4-------------|
|--2--0--2------2--0--2----------5----7------3------5-------------|
|--0-----0------0-----0----------5----5------3------5-------------|
|--------------------------------3-----------1------3-------------|

RIFF B:
Play with upstrokes
      |                      |                       |
   A  G  A                A  G  A                 A  G
|-----------------------------------------------------------------|
|-----------------------------------------------------------------|
|--2--0--2----------------2--0--2-----------------2--0------------|
|--2--0--2--2--2--2--2----2--0--2--2--2--2--2-----2--0------------|
|--0-----0--0--0--0--0----0-----0--0--0--0--0-----0---------------|
|-----------------------------------------------------------------|

   G           D            F          G
|--3------------------------1----------3------|
|--3------------------------1----------3------|
|--4-----------7---7--7-----2----------4------|
|--5---5--5----7---7--7-----3---3--3---5------|
|--5---5--5----5---5--5-----3---3--3---5------|
|--3---3--3-----------------1---1--1---3------|

VERSES:

PLAY RHYTHM 1 (Both Guitars). Dave sticks fairly close to the
picking pattern but Adrian varies it sligthly. Dave's guitar has a
phaser on it and Adrians is chorused.
At the end of the verses in place of the Gsus4 chord of RHYTHM 1
slide up and down the bottom E string to cover up turning on the
distortion.

SAMPLE BASSLINE:

|-----------------------------------------------------------------|
|--7--------------------------------------------------------------|
|-------5--7--8------5--7--3-----------3--5--3--2-----------------|
|--------------------------------------------------(3)--(0)-------|


|-----------------------------------5--7--5--4--------------------|
|--7--------------5--7--5-----------------------5-----------------|
|-----5--7--8--------------------------------------7--------------|
|-----------------------------------------------------------------|

Finish verse with;
|--5--7--5--4-------------|
|-------------------------|
|-------------------------|
|-------------------------|

CHORUS:

   A          G      A           C   D          F      G
|-----------------------------------------------1------3----------|
|-----------------------------------------------1------3----------|
|--2----2--2---------2----2--2-------7----------2------4----------|
|--2----2--2---------2----2--2-------7----------3------5----------|
|--0----0--0---------0----0--0---3---5----------3------5----------|
|-------------3~--------------------------------1------3----------|

BASSLINE:
|-----------------------------------------------------------------|
|-----------------------------------------------------------------|
|--------------------------------3---5--5-5-3---------------------|
|--5----5--5--3------5----5--5----------------5-3--1---3----------|

After second chorus RIFF B(i), RIFF B

RHYTHM FOR SOLO'S: (Solo's at end of post)
   A  Gsus4/D A            A (G) A
|-------------------------------------------------------|
|-------------------------------------------------------|
|--5--5--5--5--5--5--5-----5--5--5--5--5--5--5----5--5--|
|--7--5--7--7--7--7--7-----7--5--7--7--7--7--7----7--5--|
|--7--5--7--7--7--7--7-----7--5--7--7--7--7--7----7--5--|
|-(5)---------------------------------------------------|

   D        C        B         A
|-----------------------------------|
|-----------------------------------|
|-----------------------------------|
|--7--------5--------4---------2----|
|--5--0--0--3--0--0--2---------0----|
|-----------------------------------|

AFTER SOLO:
Dave plays:
   A    G    C    D     F     G     C     A
|-------3---------------1-----3---------------|
|-------3---------------1-----3---------------|
|--2----4----5----7-----2-----4-----5-----2---|
|--2----5----5----7-----3-----5-----5-----2---|
|--0----5----3----5-----3-----5-----3-----0---|
|-------3---------------1-----3---------------|

Adrian Plays:
|-------------------------------------------------------|
|-------------------------------------------------------|
|-------------------------------------------------------|
|---------7--5~---------------------2--0----------------|
|--5-h-7---------7--5--------3-h-5--------3---0---------|
|-------------------------------------------------------|

|-------------------------------------------------------|
|-------------------------------------------------------|
|-------------------------------------------------------|
|----------------------------------------2--------------|
|---------3--2~---------------------3----0--------------|
|--1-h-3---------3--1--------1-h-3----------------------|


THEN DAVE HARMONISES WITH:
|-------------------------------------------------------|
|-------------------------------------------------------|
|--2-h-4--5--4~--2--------------------------------------|
|-------------------2--------2-h-3--5--3--2-------------|
|--------------------------------------------3----------|
|-------------------------------------------------------|

|-------------------------------------------------------|
|-------------------------------------------------------|
|-------------------------------------------------------|
|---------2---------------------------------------------|
|--3-h-5-----5--3--0----------2-h-3--5--3~--------------|
|-------------------------------------------------------|


Then RIFF B, RIFF A, RHYTHM 1.

ENDING:
Play through RHYTHM 1 and play
   Am
|--------------0------------------------------|
|-----------1---------------------------------|
|--------2------------------------------------|
|-----2---------------------------------------|
|--0------------------------------------------|
|---------------------------------------------|

BASS PLAYS:
|--------2------------------------------------|
|-----2-----2---------------------------------|
|--0-----------0------------------------------|
|---------------------------------------------|

SOLO 1: (Dave)

|-------------------------s/7--7h8p7------------------------------|
|-------------------------------------8h10p8----------------------|
|--7b(9)r7-p5--7~-s\--------------------------7h9p7--7b(9)r7p5-7~-|
|-----------------------------------------------------------------|
|-----------------------------------------------------------------|
|-----------------------------------------------------------------|


|-----s/12--15-hold--15p13p12---------------------------|
|------------------------------15b(17)r15-p13-----------|
|----------------------------------------------14~------|
|-------------------------------------------------------|
|-------------------------------------------------------|
|-------------------------------------------------------|


|--15--15p13p12--15p13p12--15p13p12--15--15p13p12-----------------|
|--------------------------------------------------13-------------|
|------------------------------------------------------14~-s\-----|
|-----------------------------------------------------------------|
|-----------------------------------------------------------------|
|-----------------------------------------------------------------|


|-----------------------20--20--20-----------20-------------------|
|----------17--20b(22)--------------20b(22)------20b(22)~---------|
|----s/19---------------------------------------------------------|
|-----------------------------------------------------------------|
|-----------------------------------------------------------------|
|-----------------------------------------------------------------|


|----------20b(22)--20b(22)r20-p17-----------20--20p19p17---------|
|--20--17---------------------------20b(22)-----------------------|
|-----------------------------------------------------------------|
|-----------------------------------------------------------------|
|-----------------------------------------------------------------|
|-----------------------------------------------------------------|


|--20p19p17--20p19p17--20p19p17-----------------------------------|
|--------------------------------20p17--20p19p17--20p19p17--------|
|-----------------------------------------------------------------|
|-----------------------------------------------------------------|
|-----------------------------------------------------------------|
|-----------------------------------------------------------------|


|-------------------------------------------------------|
|--20p19p17--20b(22)--20p18p17--20p18p17----------------|
|-----------------------------------------19b(21)-------|
|-------------------------------------------------------|
|-------------------------------------------------------|
|-------------------------------------------------------|


|---------------------------------------------|
|---------------------------------------------|
|--17--19--17--19b(20)--19--17----------------|
|--17--19--17--19b(20)--19--17--19~-----------|
|---------------------------------------------|
|---------------------------------------------|

SOLO 2: (Adrian)

|-------------------------------------------------------|
|-------------------------PH----------------------------|
|-------------------------7b(9)----7--5-----------------|
|--5h7p5h7p5h7p5h7p5h7p5-----------------7~-------------|
|-------------------------------------------------------|
|-------------------------------------------------------|


|-------------------------------------------------------|
|-------------------------------------------------------|
|--5b(7)------------------------------------------------|
|---------7--5------------------------------------------|
|---------------7-s\-5-p3--------------s/5--7~~---------|
|--------------------------5~---------------------------|


|-----------------------------------------------------------------|
|-----------------------------------------------------------------|
|------------0h5b(7)~----5b(7)--7--7p5-------s/9--s/12--s/14------|
|-----0h5h7-----------------------------7~------------------------|
|--7--------------------------------------------------------------|
|-----------------------------------------------------------------|


|-----------15----------------------------------------------------|
|--15b(17)------15b(17)r15-p13------------13-s\-------------------|
|-------------------------------14~----14-------------------------|
|-----------------------------------------------------------------|
|-----------------------------------------------------------------|
|-----------------------------------------------------------------|


|----------------------------17-----------------17----------------|
|--s/-17--20--20p17--20b(22)-----20p17--20b(22)-----20b(22)~------|
|-----------------------------------------------------------------|
|-----------------------------------------------------------------|
|-----------------------------------------------------------------|
|-----------------------------------------------------------------|


|----------------------17-----------17-----------17---------------|
|-----20--20--20b(22)------20b(22)------20b(22)------20b(22)------|
|-----------------------------------------------------------------|
|-----------------------------------------------------------------|
|-----------------------------------------------------------------|
|-----------------------------------------------------------------|


|--17~--h20p17h19p17------17h20p17h19p17------17h20p17h19p17------|
|---------------------20------------------20----------------------|
|-----------------------------------------------------------------|
|-----------------------------------------------------------------|
|-----------------------------------------------------------------|
|-----------------------------------------------------------------|


|-----17h20p17--20b(22)--20b(22)--20b(22)--20b(22)~~--------------|
|--20-------------------------------------------------------------|
|-----------------------------------------------------------------|
|-----------------------------------------------------------------|
|-----------------------------------------------------------------|
|-----------------------------------------------------------------|

3.FLIGHT OF ICARUS

 A    E    F#m
|--5----0----2-------------------------|
|--5----0----2-------------------------|
|--6----1----2-------------------------|
|--7----2----4----4-4--4----4-4--------|
|--7----2----4----4-4--4----4-4--etc---|
|--5----0----2----2-2--2----2-2--------|

     LET RING        [2nd Verse-hold chord position]
|--2----------------|-2-------------------------------------------|
|--2----------------|----2-----5----------------------------------|
|--2----------------|-------2-------------------------------------|
|--4----------------|---------------------------------------------|
|--4----------------|---------------------------------------------|
|--2----------------|---------------------------------------------|
   As the sun...

                       A    E
|----------------------5----0-------------------------------------|
|----------------------5----0-------------------------------------|
|----------------------6----1-------------------------------------|
|----------------------7----2-------------------------------------|
|----------------------7----2-LET RING----------------------------|
|----------------------5----0-------------------------------------|
   Stands on the Hill

   A    F#m
|--5----2---------------------------------------------------------|
|--5----2---------------------------------------------------------|
|--6----2---------------------------------------------------------|
|--7----4---------------------------------------------------------|
|--7----4---------------------------------------------------------|
|--5----2---------------------------------------------------------|
        A bird song shatters the still


BRIDGE:
   F#(m)            Ab+5 (E/Ab)     A             B    C#
|-----------------------------------------------------------------|
|-----------------------------------------------------------------|
|-----------------------------------------------------------------|
|-(4)-------------------------------2-------------4----6----------|
|--4----------------7---------------0-------------2----4----------|
|--2----------------4---------------------------------------------|
   His eyes seem so glazed, see the madman in his gaze

CHORUS:
I'll try and show the idea of the chorus, listen for the
strumming and chord slides. At the end go back to strumming
the F# power chord as in the intro.

   F#m          E            D C# D                        E
|--2------------0-------------------------------------------------|
|--2------------0-------------------------------------------------|
|--2------------1-------------------------------------------------|
|--4------------2------------7\6/7--6/7\6/7-etc-------6/7--9------|
|--4------------2------------5\4/5--4/5\4/5-----------4/5--7------|
|--2------------0-------------------------------------------------|
   Fly, on your way, like an eagle,            fly as high as the
   Sun, on your way, like an eagle,            fly as high as the

RHYTHM FOR SOLO'S:
   F#m                 A    E    F#m
|----------------------5----0----2--------------------------------|
|----------------------5----0----2--------------------------------|
|----------------------6----1----2--------------------------------|
|--4---4-4-4-----------7----2----4---4-4-4------------------------|
|--4---4-4-4-etc-------7----2----4---4-4-4-etc--------------------|
|--2---2-2-2-----------5----0----2---2-2-2------------------------|

   A    E                       A    E    F#m
|--5----0-----------------------5----0----2-----------------------|
|--5----0-----------------------5----0----2-----------------------|
|--6----1----1------------------6----1----2-----------------------|
|--7----2----2---2-2-2----------7----2----4---4-4-4---------------|
|--7----2----2---2-2-2-etc------7----2----4---4-4-4-etc-----------|
|--5----0----0---0-0-0----------5----0----2---2-2-2---------------|

For Solo 2 use BRIDGE

ENDING:
Play through BRIDGE several times then on the last one
stop at the B power chord(let it ring) and then strum
F#m fast and end with A E F#m as in the intro.


4.DIE WITH YOUR BOOTS ON

Intro

Guitar 1

|---------------------------------------------------------------------------|
|--------------------8------------------------------------------------------|
|-9~-7-9-7-9--9~-7-9---9----------------------------------------------------|
|----------------------------X8---------------------------------------------|
|---------------------------------------------------------------------------|
|---------------------------------------------------------------------------|

Guitar 2

|---------------------------------------------------------------------------|
|---------------------------------------------------------------------------|
|---------------------------------------------------------------------------|
|-----------------------5----X8---------------------------------------------|
|---7~-5-7-5-7--7~--5-7---7-------------------------------------------------|
|---------------------------------------------------------------------------|

Verse   (..another prophet of disaster...)

|---------------------------------------------------------------------------|
|---------------------------------------------------------------------------|
|---------------------------------------------------------------------------|
|-------------5-------------------------------------------------------------|
|-2-----5-----3----5--------------------------------------------------------|
|-0-----3----------3--------------------------------------------------------|

let ring all

verse (no point asking....)

|------------------------------------------------------------------------------------|
|------------------------------------------------------------------------------------|
|------------------------------------------------------------------------------------|
|--2--3---333---------5-5-------------2-3---333--------------------------------------|
|--0--1---111--3-333--3-3--3-2-0------0-1---111-------3-333--3/5-xx-3/5--------------|
|----------------1-111----------------3---------------1-111--1/3-xx-1/3--------------|

Pre chorus (Cos if your gonna die...)

|---------------------------------------------------------------------------|
|---------------------------------------------------------------------------|
|---------------------------------------------------------------------------|
|--3-3-3-3--2h3333-x-2h3333---5-55-3/5-55--7-7-7-7-7------------------------|
|--1-1-1-1--0h1111-x-0h1111---3-33-1/3-33--5-5-5-5-5------------------------|
|---------------------------------------------------------------------------|

Chorus

|---------------------------------------------------------------------------|
|---------------------------------------------------------------------------|
|---4-----------------------------------------------------------------------|
|---2-4---7--------5----5-7----------X4-------------------------------------|
|-----2---5-7------3-5--3-5-------------------------------------------------|
|-----------5---------3--------5-3-0----------------------------------------|


For solo use an A B C D (la si do re) chord progresion

Post solo stuff

Guitar 1

|---------------------------------------------------------------------------|
|---------------------------------------------------------------------------|
|---------------------------------------------------------------------------|
|---------------------------------------------------------------------------|
|---5b7~-3------------3-----5b7~-3-------------3----5b7~-3-----------3------|
|----------5~-3-5~--5---5----------5~-3~-5~--5---5---------5~-3-5~-5---6-5~-|

Guitar 2

|---------------------------------------------------------------------------|
|--10-8-----------------10-8----------------10-8----------------------------|
|-------9~--7-9~-9-10-9------9~-7-9~-9-10-9------9~-7-9--9--12-10-9~--------|
|---------------------------------------------------------------------------|
|---------------------------------------------------------------------------|
|---------------------------------------------------------------------------|

For the incoming verse Guitar 1 keeps playing the same thing.

5.THE TROOPER

INTRO AND OUTRO:
|---------------------------------------------------------|
|---------------------------------------------------------|
|---------------------------------------------------------|
|------------------------------------------------5--------|
|--(7)--7--7-5-----5--5--5-3-----3--3--3-1-----5---5--7---|
|--------------7-------------5-------------3--------------|

The above riff is played four times. The last note in the measure
is the first note of the next one. That's why the first note above
is in brackets. Adrian Smith used to play this note as a pinch
harmonic.

On repeat 3 and 4 Dave harmonises with:
|---------------------------------------------------------|
|---------------------------------------------------------|
|---------------------------------------------------------|
|--(5)--5--5-4-----4--4--4-2-0---2--2--2-0-----4-5-4--5---|
|--------------7---------------------------3--------------|
|---------------------------------------------------------|

MAIN RIFF:

Guitar I (Dave)
|------------------7----------------------------------------|
|--8--7h8p7h8p7h8-----8--7h8p7h8p7h8--8-----------8---------|
|----------------------------------------9--9~--7---7--9~---|
|-----------------------------------------------------------|
|-----------------------------------------------------------|
|-----------------------------------------------------------|

Guitar II (Adrian)
|-----------------------------------------------------------|
|-----------------------------------------------------------|
|--------------------7--------------------------------------|
|--9--7h9p7h9p7h9-----9--7h9p7h9p7h9--9---------------------|
|---------------------------------------10-10~--9-10-9-10~--|
|-----------------------------------------------------------|

Janick Gers plays the above part on the 2nd, 3rd and 4th strings
between frets 2-5. Try both and see what you think.

BASSLINE:

The bass is mainly just E and C as follows, except for before the
second verse he goes to D for one cycle.
This is the bassline for most of the song.
I'll just show the basic notes. Listen for the strum pattern.
|---------------------------------|----------|-----------|
|----------5--------------5-------|---5------|---5-------|
|--7-----5---5---7------5---5---3-|-5---5--5-|-5---5--7--|
|---------------------------------|----------|-----------|
                                       ^
                               Before 2nd Verse only

VERSE:

The following riff goes with all the verses. Listen for the
16th note strumming and the rests at the start of the first verse.
The G chord denoted below is an inversion of a G5 (power chord).
It should be played with an upstroke i.e. the G note first while
the D power chords should be played with down strokes.
For the C5 I've shown the open E note on the sixth string in
brackets. This is sometimes played whether by accident or design.
It gives the 1st inversion of a C major triad.

    E5      D  G  D   E5          D  G  D   C5          D  G  D
|-----------------------------------------------------------------|
|-----------------------------------------------------------------|
|-----------------------------------------------------------------|
|---9-------7--5--7---9---9-------7--5--7---5---5-------7--5--7---|
|---7-------5--5--5---7---7-------5--5--5---3---3-------5--5--5---|
|---0---------------------0--------------------(0)----------------|

CHORUS:

The chorus is really just D to E (implied minor) but between the
singing Dave strums a pattern on the second fret. This is done
with the pad of the first finger and lifted up where necessary.
Once again, listen for the strumming.

    Oh, Oh,...          Oh
|-----------------------------------------------------------------|
|---7-------------------------------------------------------------|
|---7-------------------9-----------------------------------------|
|---7-------------------9-----------------------------------------|
|---5-------------------7-----------------------------------------|
|-----------------------0-----------------------------------------|

Guitar II (Dave)
|---2-------------------------------------------------------------|
|---3-------------------------------------------------------------|
|---2-------------------9-----------------------------------------|
|---0-------------------9---2----2-0-2----2-0-2----2-0-2----------|
|---0-------------------7---2----2-0-2----2-0-2----2-0-2----------|
|---------------------------0----0---0----0---0----0---0-etc------|


RHYTHM FOR SOLO'S:

Each rhythm is repeated four times. The chords given are the ones
implied by the solo and the rest of the song.

G-------------------------------------------------------------------|tr II E(m)-D-B(m)-C-D (Solo 1)   Gtr I A(m)-G-Em-F-G (Solo 2)
|--------------------------------|--------(3)---0-----(1)----3------|
|--------(7)---------(5)----(7)--|---------3----0------1-----3------|
|---9-----7-----4-----5------7---|---2-----4----0------2-----4------|
|---9-----7-----4-----5------7---|---2-----5----2------3-----5------|
|---7-----5-----2-----3------5---|---0-----5----2------3-----5------|
|--(0)---------------------------|--------------0-----(1)-----------|


Solo 1: Adrian Smith
   E5                             D5
|------------12--------12--------------------------|
|--15b(17)---15b(17)---15b(17)--r15--12---15~~~----|
|--------------------------------------------------|
|--------------------------------------------------|
|--------------------------------------------------|
|--------------------------------------------------|

           B5                                   C5        D5
|------15b(17)~-----15--12-----------------------------------|
|--12--------------------------------------------------------|
|---------------------------15--14--12-----------------------|
|---------------------------------------14b(16)-r14--12------|
|--------------------------------------------------------14--|
|------------------------------------------------------------|

        E5                                              D5
|----------------------------------------------------------------|
|--------------12-h15-----------12-h15----------12-h15-----------|
|--14---b(16)----------14b(16)----------14b(16)---------14b(16)--|
|----------------------------------------------------------------|
|----------------------------------------------------------------|
|----------------------------------------------------------------|


|-----------------------------------------------------------------|
|--12-h15----------12-h15----------12-h15----------12-h15---------|
|----------14b(16)---------14b(16)---------14b(16)--------14b(16)-|
|-----------------------------------------------------------------|
|-----------------------------------------------------------------|
|-----------------------------------------------------------------|

   B5
|---------------------------------------------------------|
|--12-h15----------12-h15----------12-h15---------12-h15--|
|----------14b(16)---------14b(16)--------14b(16)---------|
|---------------------------------------------------------|
|---------------------------------------------------------|
|---------------------------------------------------------|

                     C5          D5      E5
|-----------------------------------------15--19p15-h17p15------|
|-------------------------------------/17-------------------17--|
|--14----15--14--12--14--14--12~\-------------------------------|
|---------------------------------------------------------------|
|---------------------------------------------------------------|
|---------------------------------------------------------------|

                                    D5
|---15--19p15-h17p15-----15--19p15-h17p15----15--19p15-h17p15--|
|---------------------17------------------17-------------------|
|--------------------------------------------------------------|
|--------------------------------------------------------------|
|--------------------------------------------------------------|
|--------------------------------------------------------------|

                              B5
|-----15--19p15-h17p15----15--19p15-h17p15------15--19p15-h17p15--|
|--17------------------17-------------------17--------------------|
|-----------------------------------------------------------------|
|-----------------------------------------------------------------|
|-----------------------------------------------------------------|
|-----------------------------------------------------------------|
                                               D5
                     C5   *With harmony(see end )
|-------20b(22)--20b(22)--20b(22)--20b(22)r20--20b(22)r20--|
|---14-----------------------------------------------------|
|----------------------------------------------------------|
|----------------------------------------------------------|
|----------------------------------------------------------|
|----------------------------------------------------------|
                                                  D5
                     E5                         Harmony ends *
|--20b(22)r20--20b(22)-----19--20--17--19-----17----------------|
|------------------------------------------20-----19h20--17~~\--|
|---------------------------------------------------------------|
|---------------------------------------------------------------|
|---------------------------------------------------------------|
|---------------------------------------------------------------|

   B5                                  C5                  D5
|----------12----------12-----------------------------------------|
|------12------15b(17)-----15--12---------------------------------|
|--/14-----------------------------14b(16)r14--12--14--12---------|
|-----------------------------------------------------------------|
|----------------------------------------------------------14~~---|
|-----------------------------------------------------------------|


Solo 2: Dave Murray
  (D5)   A5                                  G5
|--------5h8p5h8p5h8p5h8p5----------------------------------|
|--5h8----------------------8p5h8p5h8p5h8p5-----------------|
|--------------------------------------------7b(9)-(9)r(8)--|
|-----------------------------------------------------------|
|-----------------------------------------------------------|
|-----------------------------------------------------------|

            E5                      F5   G5
|----------------------------------------------------|
|-----------------------------------------------5h7--|
|--7--6--5-----6--5----------------------------------|
|-----------7--------7-------------------------------|
|-----------------------6--5-------------------------|
|-----------------------------8--5~~-----------------|

   A5                                G5
|--------------5h7p5h7p5h7----------------5h7p5h7p5/7--8p7h8p7--|
|--5h7p5h7p5-----------------5h7p5h7p6h8------------------------|
|---------------------------------------------------------------|
|---------------------------------------------------------------|
|---------------------------------------------------------------|
|---------------------------------------------------------------|

             E5                                  F5
|----7---10b(12)--10b(12)--10b(12)--(12)r10--8--10~~--8\--|
|--10-----------------------------------------------------|
|---------------------------------------------------------|
|---------------------------------------------------------|
|---------------------------------------------------------|
|---------------------------------------------------------|

   G5                          A5
|-----12-----------12--15--12--15--12--12-----------12------|
|-/15-----15b(17)--------------------------15b(17)------15--|
|-----------------------------------------------------------|
|-----------------------------------------------------------|
|-----------------------------------------------------------|
|-----------------------------------------------------------|

                                  G5
|---------------------------------10h12p10------------------------|
|--13--12--13--12--12---------/10-----------10--13b(15)-HOLD BEND-|
|-----------------------------------------------------------------|
|-----------------------------------------------------------------|
|-----------------------------------------------------------------|
|-----------------------------------------------------------------|

                E5             F5      G5
|-----------------------------------------|
|--(15)\5/---NH---T-bar-------------------|
|------------12--\-(9)-/-----17b(19)~~~\--|
|-----------------------------------------|
|-----------------------------------------|
|-----------------------------------------|

                  A5                                    G5
|--------------------------------------------------20b(22)-(22)r20-|
|-----------------------------20b(22)--(22)r20--17-----------------|
|--/17--19b(21)--(21)r19--17---------------------------------------|
|------------------------------------------------------------------|
|------------------------------------------------------------------|
|------------------------------------------------------------------|

          E5
|--17-------------------20b(22)--20--19--17-----------------------|
|-----20b(22)-------17----------------------20b(22)---------------|
|---------------------------------------------------20b(23)-r(21)-|
|-----------------------------------------------------------------|
|-----------------------------------------------------------------|
|-----------------------------------------------------------------|

   F5             D5 G5 D5
|--------------------------|
|--17\15-------------------|
|---------17--17--14--14\--|
|--------------------------|
|--------------------------|
|--------------------------|

Harmony for Solo 1:

|--14b(15)--14b(15)r14--14b(15)r14--14b(15)r14--14b(15)--|
|--------------------------------------------------------|
|--------------------------------------------------------|
|--------------------------------------------------------|
|--------------------------------------------------------|
|--------------------------------------------------------|


|--12--14-----12----------------------|
|----------15----13--15--12h13--------|
|-------------------------------14~~--|
|-------------------------------------|
|-------------------------------------|
|-------------------------------------|

6.STILL LIFE

 A(m)
|-----------------------------------------------------------------|
|-----------------------------------------------------------------|
|----------14------14--------------14------14---------------------|
|------14------14------14------14------14------14---etc-----------|
|--12----------------------12-------------------------------------|
|-----------------------------------------------------------------|

   F
|-----------------------------------------------------------------|
|-----------------------------------------------------------------|
|---------10------10-------------10------10-----------------------|
|-----10------10------10-----10------10------10---etc-------------|
|--8----------------------8---------------------------------------|
|-----------------------------------------------------------------|

   G
|-----------------------------------------------------------------|
|-----------------------------------------------------------------|
|----------12-------12--------------12------12--------------------|
|------12------12-------12------12------12------12---etc----------|
|--10-----------------------10------------------------------------|
|-----------------------------------------------------------------|


Gtr I (Dave): with Phaser and Delay
   A(m)                                             F
|-------------------------------------------------------------------|
|-------------------------------------------------------------------|
|--7-s/-9-hold------9b(10)r9-hold---7h9p7--7s5--4s/5s4-hold---------|
|-------------------------------------------------------------------|
|-------------------------------------------------------------------|
|-------------------------------------------------------------------|

                                        A(m)
|-------------------------------------------------------------------|
|-------------------------------------------------------------------|
|----5p4--(s)2-hold--------------4h5--7s/9-hold--9b(10)r9-hold------|
|-------------------------------------------------------------------|
|-------------------------------------------------------------------|
|-------------------------------------------------------------------|

                                  G
|-----------------------------------------------------------------|
|---------------------12--13--15-15b(17)---r15-----15p13h15~------|
|--7s/9--10--12-s/14----------------------------------------------|
|-----------------------------------------------------------------|
|-----------------------------------------------------------------|
|-----------------------------------------------------------------|

                   A(m)                                    F
|-------------------------------------------------------------------|
|--13h15p13--12s10-s/12-s10----8h10p8---5h8p5-----------------------|
|------------------------------------------------7b(9)r7p5-7--------|
|-------------------------------------------------------------------|
|-------------------------------------------------------------------|
|-------------------------------------------------------------------|

                          A(m)
|-----------------------------------------------------------------|
|-(8)---------------------15b(17)-r15-b(17)~----15b(16.5)-r15-----|
|--7b(9)r7p5------------------------------------------------------|
|-------------7~--------------------------------------------------|
|-----------------------------------------------------------------|
|-----------------------------------------------------------------|

                    G                                   A(m)
|-------------------------------------------------------15b(17)~--|
|--15--13--15b(17)--15~------------13h15p13--12-------------------|
|-----------------------------------------------------------------|
|-----------------------------------------------------------------|
|-----------------------------------------------------------------|
|-----------------------------------------------------------------|


"Quiet" bit with "Take a Look..."
I'll try and show the basic idea. Finger the open Am and try to
follow the melody by lifting your finger on 2nd string. Then pick
the Fmaj7 chord anyway you want.
  Am
|-------------------------------------------------|
|----------------0--------1--------0--------------|
|-------2-----------2--------2--------2-----2-----|
|----2-----2-----------------------------------2--|
|-0-----------0--------0--------0--------0--------|
|-------------------------------------------------|

   Fmaj7                                     G    A   A     G
|--------0-------0--------------------------------------------------|
|----------1-------1------1------------------8-s/-10--10-s-8--------|
|-------------2------2-------2-----2---------7-s/-9---9--s-7--------|
|----3-----------------3--------3-----------------------------------|
|--3----------------------------------------------------------------|
|-------------------------------------------------------------------|

Oh! They drain my strength away...:
   C/G
|-----------------------------------------------------------------|
|-----------------------------------------------------------------|
|--5--------------------------------------------------------------|
|--5--------------------------------------------------------------|
|--3--------------------------------------------------------------|
|--3--------------------------------------------------------------|


Main Verse Riff:
Similar idea to the previous part except you follow the melody
on the 3rd string. When muting the strings and strumming between
the parts shown lift your 3rd or 4th finger off the 3rd string,
i.e. don't hold the melody notes down,just keep the A power chord
fingered. Play the extended notes with upstrokes to emphasise the
melody.
   A(m)
|-----------------------------------------------------------------|
|-----------------------------------------------------------------|
|--2---------4-(2)---5-(2)---4-(2)---2-----2----------------------|
|--2---------2-------2-------2-------2-----2----------------------|
|--0--x-x-x--0--x-x--0--x-x--0--x-x--0--x--0----------------------|
|-----------------------------------------------------------------|

   F                                    G    A         G
|--1----------------------------------------------------------------|
|--1---------------------Gtr II plays---8-s/-10--10-s-8-------------|
|--2------------------------------------7-s/-9---9--s-7-------------|
|--3----------------------------------------------------------------|
|--3----------------------------------------------------------------|
|-------------------------------------------------------------------|

|-------------------------------------------------------------------|
|-------------------------------------------------------------------|
|---------------------------------------7--/--9---9----7------------|
|---------------------------------------5--/--7---7----5------------|
|------------------------Gtr I plays----5--/--7---7----5------------|
|-------------------------------------------------------------------|

Sometimes Gtr II plays:

|----------------------------------------1--------------------------|
|---------5-------6-----8-----10---------1------8-s/-10--10-s-8-----|
|--2------4--xxx--5-xxx-7-xxx-9----------2------7-s/-9---9--s-7-----|
|--2-------------------------------------3--------------------------|
|--0--xxx--------------------------------3--------------------------|
|-------------------------------------------------------------------|

C/G
Oh! They drain my strength away...


CHORUS:
Both Guitars.
   A  (G) A    F    C
|-----------------------------------------------------------------|
|-----------------------------------------------------------------|
|--2--p0--2----5--------------------------------------------------|
|--2--p0--2----3----5-----------------5---4-----------------------|
|--0------0----3----3--------0----3-----------5----3----(0)-------|
|-----------------------------------------------------------------|
   Night     - mare-res

   A  (G) A    F    C
|-----------------------------------------------------------------|
|-----------------------------------------------------------------|
|--2--p0--2----5--------------------------------------------------|
|--2--p0--2----3----5------------------5----4~--------------------|
|--0------0----3----3--------0----3-------------------------------|
|-----------------------------------------------------------------|
   Spirits     call me
               -ing

|-----------------------------------------------------------------|
|-----------------------------------------------------------------|
|--2--p0--2----5--------------------------------------------------|
|--2--p0--2----3----5------------------5----4---------------------|
|--0------0----3----3--------0----3--------------5----3----0------|
|-----------------------------------------------------------------|
   Night       mare-ares

|-----------------------------------------------------------------|
|-----------------------------------------------------------------|
|--2--p0--2----5--------------------------------------------------|
|--2--p0--2----3----5---------------------5-----4~----------------|
|--0------0----3----3---------0-----3-----------------------------|
|-----------------------------------------------------------------|
   They won't leave be
               -me


BREAK:
Gtr I:
   D  C  D    E  F
|-----------------------------------------------------------------|
|---------------------------------3--5--3h5p3---------------------|
|-------------4--5-----------------------------5--4---------------|
|--7--5--7----2--3------------------------------------------------|
|--5--3--5----2--3------------------------------------------------|
|-----------------------------------------------------------------|

Play with upstroke
      |       |
   A  G  A    G  A
|-----------------------------------------------------------------|
|-----------------------------------------------------------------|
|--2--0--2----0--2------------------------------------------------|
|--2--0--2----0--2--------------5----4----------------------------|
|--0-----0-------0----0----3--------------5----3----0-------------|
|-----------------------------------------------------------------|

Gtr II:
   D  C  D    E  F          A   G   A   G   A
|-----------------------------------------------------------------|
|---------------------------10--8---10--8---10--------------------|
|---------------------------9---7---9---7---9---------------------|
|--7--5--7----9--10---------7---5---7---5---7----------5--4-------|
|--5--3--5----7--9-------------------------------0--3-------5-3-0-|
|-----------------------------------------------------------------|

THE HARMONY:
I'll just show the notes, move between notes with hammers
and pulls wherever it feels natural.
The approximate bassline is shown aswell.

Gtr I: (Dave)
   A
|--------------------------------------------------|
|--------------5--6--5-------------------5---------|
|--5--4--5--7-----------7----5--4--5--7------------|
|--------------------------------------------------|
|--------------------------------------------------|
|--------------------------------------------------|

   F                                                 G   A  A  G
|-----------------------------------------------------------------|
|--12--13---10--12---8--10---6--8---5--6------5-------------------|
|------------------------------------------7------5--7---5--4-----|
|--------------------------------------------------------------5--|
|-----------------------------------------------------------------|
|-----------------------------------------------------------------|

Gtr II:
   A
|---------------------------------------------|
|---------------------------------------------|
|-----------4--5--7--5--4-----------4--5------|
|--7--5--7-----------------7--5--7------------|
|---------------------------------------------|
|---------------------------------------------|

   F                                      G  A  A  G
|-------------------------------------------------------|
|--5--6-----5-------------------------------------------|
|--------7-----5--7--4--5-----4-------------------------|
|--------------------------7-----5--7-----5-------------|
|--------------------------------------8-----8--7--3----|
|-------------------------------------------------------|

RHYTHM FOR SOLO'S: Listen for strumming and muting.
Solo 1:
   D       E       F       A       G       F
|--------------------------------------------------|
|--------------------------------------------------|
|--------------------------------------------------|
|--7-------9-7-----10-7----14------12------10------|
|--5--xxx--7-5xxx--8--5xx--12--xx--10--xx--8-------|
|--------------------------------------------------|

Solo 2:
   E       F#        Ab        B        A       G
|--------------------------------------------------|
|--------------------------------------------------|
|------------------------------11-------9-------7--|
|--9-------11-9------13-9------9--------7-------5--|
|--7--xxx--9--7-xxx--11-7-xxx--9--xxx---7--xxx--5--|
|--------------------------------------------------|

ENDING:
Play with upstrokes
       |       |
   A   G  A    G  A
|-----------------------------------------------------------------|
|-----------------------------------------------------------------|
|--2---0--2----0--2-----------------------------------------------|
|--2---0--2----0--2-----------------------------------------------|
|--0------0----x--0-----------------------------------------------|
|--------------3--------------------------------------------------|
   Now we rest in peace.

SOLO'S:
Transcribing solo's is not my strong point but you should the
main ideas from the following. These are the album solo's.
Some of fast licks, especially Dave's are more approximations
than anything else.

Solo 1: (Adrian)D minor

|---------5-----------------------------------|
|-------------5b(7)-r5------------------------|
|--7~--------------------7p5--7---------------|
|--------------------------------5--3---------|
|--------------------------------------5~-----|
|---------------------------------------------|


|-------10---------10--13p10-----15p10-----13p10-----15p10--------|
|--s/10----13----10----------10--------10--------10--------10-----|
|-----------------------------------------------------------------|
|-----------------------------------------------------------------|
|-----------------------------------------------------------------|
|-----------------------------------------------------------------|


|--13p10-----15p10-----13p10-----15p10-----13p10------------------|
|--------10--------10--------10--------10--------10----13--13~----|
|-----------------------------------------------------------------|
|-----------------------------------------------------------------|
|-----------------------------------------------------------------|
|-----------------------------------------------------------------|


|------18b(20)--(20)--(20)--(20)--(20)--(20)r(19)--|
|--15----------------------------------------------|
|--------------------------------------------------|
|--------------------------------------------------|
|--------------------------------------------------|
|--------------------------------------------------|


|--18p17p15------15-----------------------------------------------|
|------------18------18p17p15------15-----------------------------|
|------------------------------17------17p15--17b(19)r17-p15------|
|-----------------------------------------------------------------|
|-----------------------------------------------------------------|
|-----------------------------------------------------------------|

     Bend, Tap, release tap, release bend and pull off.
|-----------------------------------------------------------------|
|-----------------------------------------------------------------|
|--12b(14)-T-15-p(14)r12-p10----12b(14)-T-17-p(14)r12-p10---------|
|-----------------------------------------------------------------|
|-----------------------------------------------------------------|
|-----------------------------------------------------------------|


|-----------------------------------------------------------------|
|--17b(18)-(18)--18p17p15-----15----------------------------------|
|--------------------------17-----17p15p14------14----------------|
|-------------------------------------------17------17p15p14------|
|-----------------------------------------------------------------|
|-----------------------------------------------------------------|


|-----------------------------------------------------------------|
|-----------------------------------------------------------------|
|-----------------------------------------------------------------|
|------14--15p14p12----12h14p12--14~------------------------------|
|--17-------------------------------------------------------------|
|-----------------------------------------------------------------|

Solo 2: (Dave)E minor

|---------------------------------------------|
|---------------------------------------------|
|--2b(4)--2b(4)--2b(4)r2-p0-------------------|
|----------------------------2~---------------|
|---------------------------------------------|
|---------------------------------------------|


|-----------------------------------------------------------------|
|-----------------------------------------------------------------|
|--0h2p0h2p0h2p0h2p0h3p0h3p0h3p0h3p0h4p0h4p0h5p0h5p0--7~~---------|
|-----------------------------------------------------------------|
|-----------------------------------------------------------------|
|-----------------------------------------------------------------|


|-----------------------------------------------------------------|
|--12h15p12h15p12h15p12------12h15p12--12h15p12h15p12h15p12-------|
|------------------------14---------------------------------------|
|-----------------------------------------------------------------|
|-----------------------------------------------------------------|
|-----------------------------------------------------------------|


|-----------------------------------------------------------------|
|------12---------------------14b(15)--slowly release or----------|
|--14------12h14p12h14p12-----14b(16)--drop with T-bar------------|
|-----------------------------------------------------------------|
|-----------------------------------------------------------------|
|-----------------------------------------------------------------|


|------15b(17)-------12--15p12p0--15p12p0--15p12p0--15p12p0-------|
|--12-------------12----------------------------------------------|
|-----------------------------------------------------------------|
|-----------------------------------------------------------------|
|-----------------------------------------------------------------|
|-----------------------------------------------------------------|


|--15p12h15p12h15--15p12p0--------------------|
|---------------------------15b(17)-----------|
|---------------------------------------------|
|---------------------------------------------|
|---------------------------------------------|
|---------------------------------------------|


|------------14h15p14-----14--15p14h15p14h15p14---------|
|--15-s/-17------------17------------------------17p15--|
|-------------------------------------------------------|
|-------------------------------------------------------|
|-------------------------------------------------------|
|-------------------------------------------------------|


|------------------------------------17b(19)--17b(19)--17b(19)r17-|
|--17b(19)-r17-p15--17~----------15-------------------------------|
|-----------------------------------------------------------------|
|-----------------------------------------------------------------|
|-----------------------------------------------------------------|
|-----------------------------------------------------------------|


|--14h15p14h15p14h15--------------------15b(17)----|
|---------------------17p15h17~-----12-------------|
|--------------------------------------------------|
|--------------------------------------------------|
|--------------------------------------------------|
|--------------------------------------------------|

   Trill and drop with T-bar
|--12h15p12h15p12h15-etc--------------------------12----------------|
|-------------------------------------------------12----------------|
|-------------------------------------------------------------------|
|-------------------------------------------------------------------|
|-------------------------------------------------------------------|
|-------------------------------------------------------------------|

7.QUEST FOR FIRE

Don't Know

8.SUN AND STEEL

Opening-riff:
E---------------|------------|
B---------------|------------|
G---------------|------------|
D---------------|------------|
A--4-7-4-2------|--(2)-------|
E--2-5-2-0------|--(0)-------|

E-------------------------------------------------|
B-------------------------------------------------|
G-------------------------------------------------|
D-------------------------------------------------|
A--4-7-4-2-7---4---4------------------------------|
E--2-5-2-0-5---2---2--2-2-2--2-2-2--2-2-2--2-2-2--|

E--------------------------------------|
B--------------------------------------|
G--------------------------------------|
D--------------------------------------|
A--7---4---4------------------------2--|
E--5---2---2--2-2-2---2-2-2--2-2-2--0--|

E------------------------------------------|
B------------------------------------------|
G------------------------------------------|
D------------------------------------------|
A--7---4---4-------------------------------|
E--5---2---2--2-2-2---2-2-2--2-2-2--2-2-2--|

E-------------------------------------|
B-------------------------------------|
G-------------------------------------|
D-------------------------------------|
A--7---4---4-----------------4--7--4--|
E--5---2---2--2-2-2---2-2-2--2--5--2--|

Verse:
     You killed your first man at 13
E-------------------------------------------|
B-------------------------------------------|
G-------------------------------------------|
D-------------------------------------------|
A--2--2-------------------------------------|
E--0--0--0-0-0--0-0-0--0-0-0--0-0-0--0-0-0--|

     Killer instict, animal supreme
E---------------------------------------------|
B---------------------------------------------|
G---------------------------------------------|
D---------------------------------------------|
A--2--2------------------------------4-7-4-2--|
E--0--0--0-0-0--0-0-0--0-0-0--0-0-0--2-5-2-0--|

Riff 2:
E------------------------------------------|
B------------------------------------------|
G------------------------------------------|
D------------------------------------------|
A--7---4---4-------------------------------|
E--5---2---2--2-2-2---2-2-2--2-2-2--2-2-2--|

E-------------------------------------|
B-------------------------------------|
G-------------------------------------|
D-------------------------------------|
A--7---4---4-----------------4--7--4--|
E--5---2---2--2-2-2---2-2-2--2--5--2--|

Chorus:
Sunlight, falling on your steel. Death in life is...
E--0-------------------|--3----------------------|
B--2-------------------|--3----------------------|
G--2-------------------|--0----------------------|
D--2-------------------|--0----------------------|
A--0-------------------|--2----------------------|
E----------------------|--3----------------------|

..your ideal, life is like a wheel
E--2----------------------|--0------------------|
B--3----------------------|--1------------------|
G--2----------------------|--0------------------|
D--0----------------------|--2------------------|
A-------------------------|--3------------------|
E-------------------------|---------------------|

E--3-----2--------|
B----3------3-----|
G------0-------2--|
D-----------------|
A-----------------|
E-----------------|

End of chorus.

Riff 3:
E--------------|------------------|
B--------------|------------------|
G--------------|------------------|
D--9---7-9-10--|--9-7------4-5----|
A--------------|------10-------5--|
E--------------|------------------|

E---------------------------|
B---------------------------|
G----------------7----------|
D--7-9-10---9-10-----4-5----|
A------------------------4--|
E---------------------------|

E------------------------------|
B------------------------------|
G----------------7---------11--|
D--7-9-10---9-10-----10-12-----|
A------------------------------|
E------------------------------|

E--------------------------------|
B------------------10---8-10-12--|
G--9-11-12---11-12---------------|
D--------------------------------|
A--------------------------------|
E--------------------------------|

End of riff 3.

Solo-riff:
E--------------------------------------------|
B--------------------------------------------|
G--------------------------------------------|
D--------------------------------------------|
A--4--------------------------------------2--|
E--2--2-2-2--2-2-2--2-2-2---2-2-2--2-2-2--0--|

Riff 4:
E----------------------------------|
B----------------------------------|
G----------------------------------|
D----------------------------------|
A----------------------------------|
E---2-2-2-3-3-3-4-4-4-5-5-5--6--7--|

E--------------------------|
B--------------------------|
G--------------------------|
D--------------------------|
A--------------------------|
E--3---4---5---6--7--8--9--|

End of riff 4.

9.TO TAME A LAND

This is the intro riff (play twice):

E---2-2-3p2p0-|-2-2-3p2p0-|-2h3h5/75p3-2h3-|-2h3-2h3-2-0-|---------------|
B-------------|-----------|-----------------|-------------|--------------|
G-------------|-----------|-----------------|-------------|--------------|
D-------------|-----------|-----------------|-------------|--------------|
A-------------|-----------|-----------------|-------------|--------------|
E-------------|-----------|-----------------|-------------|--------------|

E-------------|-----------|-----2h3-2p0---0-|-2h3p2-0---0-|-------------|
B---3-3-5p3---|-3-3-5p3---|-3h5---------3---|---------3---|-------------|
G-----------6-|---------6-|-----------------|-------------|-------------|
D-------------|-----------|-----------------|-------------|-------------|
A-------------|-----------|-----------------|-------------|-------------|
E-------------|-----------|-----------------|-------------|-------------|

E---2-2-3p2p0-|-2-2-3p2p0-|-2h3h5/75p3-2h3-|-2h3-2h3-2-0-|---------------|
B-------------|-----------|-----------------|-------------|--------------|
G-------------|-----------|-----------------|-------------|--------------|
D-------------|-----------|-----------------|-------------|--------------|
A-------------|-----------|-----------------|-------------|--------------|
E-------------|-----------|-----------------|-------------|--------------|

E-------------|-----------|-----3h4p3-------|-3h4p3-----0-|-------------|
B---4-4-6p4---|-4-4-6p4---|-4h6-------6-4h6-|-------6-4---|-------------|
G-----------7-|---------7-|-----------------|-------------|-------------|
D-------------|-----------|-----------------|-------------|-------------|
A-------------|-----------|-----------------|-------------|-------------|
E-------------|-----------|-----------------|-------------|-------------|

These are the chords played under the above riff:

E---2--|-----|--2--|-----|----------------------------------------------|
B---3--|--3--|--3--|--4--|----------------------------------------------|
G---4--|--4--|--4--|--5--|----------------------------------------------|
D---4--|--5--|--4--|--6--|----------------------------------------------|
A------|--5--|-----|--6--|----------------------------------------------|
E------|-----|-----|-----|----------------------------------------------|

Then the heavy part starts (play twice):


E---------------------------------------------------|-------------------|
B---------------------------------------------------|-------------------|
G---------------------------------------------------|-------------------|
D------2--2--2--2--2--2--2-----2--2--2--2--2--2--2--|-------------------|
A---2--2--2--2--3--2--0--2--2--2--2--2--3--2--0--2--|-------------------|
E---0-----------------------0-----------------------|-------------------|

E---------------------------------------------------|-------------------|
B---------------------------------------------------|-------------------|
G---------------------------------------------------|-------------------|
D---------------------------------------------------|-------------------|
A---5--5--5--5--5--5--5--5--2--2--2--2--2--2--2--2--|-------------------|
E---3--3--3--3--3--3--5--3--0--0--0--0--0--0--0--0--|-------------------|

E---------------------------------------------------|-------------------|
B---------------------------------------------------|-------------------|
G---------------------------------------------------|-------------------|
D------2--2--2--2--2--2--2-----2--2--2--2--2--2--2--|-------------------|
A---2--2--2--2--3--2--0--2--2--2--2--2--3--2--0--2--|-------------------|
E---0-----------------------0-----------------------|-------------------|

E---------------------------------------------------|-------------------|
B---------------------------------------------------|-------------------|
G---------------------------------------------------|-------------------|
D---------------------------------------------------|-------------------|
A---6--6--6--6--6--6--6--6--3--3--3--3--3--3--3--3--|-------------------|
E---4--4--4--4--4--4--6--4--1--1--1--1--1--1--1--1--|-------------------|

Then the verse riff starts (play twice):


E---------------------------------------------------|-------------------|
B---------------------------------------------------|-------------------|
G---------------------------------------------------|-------------------|
D---------------2-----------------------2-----------|-------------------|
A---------------2-----------------------2-----------|-------------------|
E---0--0--0--0--0-----0--0--0--0--0--0--0-----0--0--|-------------------|

E---------------------------------------------------|-------------------|
B---------------------------------------------------|-------------------|
G---5--5--5--5--5-----5--5--2--2--2--2--2-----2--2--|-------------------|
D---5--5--5--5--5-----5--5--2--2--2--2--2-----2--2--|-------------------|
A---3--3--3--3--3-----3--3--0--0--0--0--0-----0--0--|-------------------|
E---------------------------------------------------|-------------------|

E---------------------------------------------------|-------------------|
B---------------------------------------------------|-------------------|
G---------------------------------------------------|-------------------|
D---------------2-----------------------2-----------|-------------------|
A---------------2-----------------------2-----------|-------------------|
E---0--0--0--0--0-----0--0--0--0--0--0--0-----0--0--|-------------------|

E---------------------------------------------------|-------------------|
B---------------------------------------------------|-------------------|
G---7--7--7--7--7-----7--7--4--4--4--4--4-----4--4--|-------------------|
D---7--7--7--7--7-----7--7--4--4--4--4--4-----4--4--|-------------------|
A---5--5--5--5--5-----5--5--2--2--2--2--2-----2--2--|-------------------|
E---------------------------------------------------|-------------------|


Then one guitar plays the riff at the beginning of the heavy part twice,
while the second guitar plays this (twice):


E-----7-7-7-8-7-5-7---7-7-7-8-7-5-7-|-3-3-3h5p3-----|-------------------|
B---5---------------5---------------|-----------5-3-|-------------------|
G-----------------------------------|---------------|-------------------|
D-----------------------------------|---------------|-------------------|
A-----------------------------------|---------------|-------------------|
E-----------------------------------|---------------|-------------------|

E-----7-7-7-8-7-5-7---7-7-7-8-7-5-7-|-4-4-4h6p4------|------------------|
B---5---------------5---------------|-----------6~~~-|------------------|
G-----------------------------------|----------------|------------------|
D-----------------------------------|----------------|------------------|
A-----------------------------------|----------------|------------------|
E-----------------------------------|----------------|------------------|


Then play the verse riff again twice. Now the rhythm guitar plays this:

E---||---------------------------------------------------|--------------|
B---||---------------------------------------------------|--------------|
G---||*--------------9-----------------------9-----------|--------------|
D---||*--------------9-----------------------9-----------|--------------|
A---||---7--7--7--7--7-----7--7--7--7--7--7--7-----7--7--|--------------|
E---||---------------------------------------------------|--------------|

E---------------------------------------------------|-------------------|
B---------------------------------------------------|-------------------|
G---------------5-----------------------2-----------|-------------------|
D---------------5-----------------------2-----------|-------------------|
A---3--3--3--3--3-----3--3--0--0--0--0--0-----0--0--|-------------------|
E---------------------------------------------------|-------------------|

E---------------------------------------------------|-------------------|
B---------------------------------------------------|-------------------|
G---------------9-----------------------9-----------|-------------------|
D---------------9-----------------------9-----------|-------------------|
A---7--7--7--7--7-----7--7--7--7--7--7--7-----7--7--|-------------------|
E---------------------------------------------------|-------------------|

E----------------------------------------------------||-----------------|
B----------------------------------------------------||-----------------|
G---------------7-----------------------4-----------*||-----------------|
D---------------7-----------------------4-----------*||-----------------|
A---5--5--5--5--5-----5--5--2--2--2--2--2-----2--2---||-----------------|
E----------------------------------------------------||-----------------|

E---||---------------------------------------------------|--------------|
B---||---------------------------------------------------|--------------|
G---||*--------------7-----------------------7-----------|--------------|
D---||*--------------7-----------------------7-----------|--------------|
A---||---5--5--5--5--5-----5--5--5--5--5--5--5-----5--5--|--------------|
E---||---------------------------------------------------|--------------|

E----------------------------------------------------||-----------------|
B----------------------------------------------------||-----------------|
G---------------3-----------------------------------*||-----------------|
D---------------3-----------------------5-----------*||-----------------|
A---1--1--1--1--1-----1--1--------------5------------||-----------------|
E---------------------------3--3--3--3--3-----3--3---||-----------------|

The lead guitar plays this overtop of the above part:

                                                     8x

E---||---------------0h1p0-----------------0-----0---||-----------------|
B---||---0--0--0--1---------3--0--0--0--1-----3------||-----------------|
G---||*---------------------------------------------*||-----------------|
D---||*---------------------------------------------*||-----------------|
A---||-----------------------------------------------||-----------------|
E---||-----------------------------------------------||-----------------|

                                                     4x
E---||-----------------------------------------------||-----------------|
B---||------------1--3h4p3--1-----------1--3--1--3---||-----------------|
G---||*--2--2--2---------------2--2--2--------------*||-----------------|
D---||*---------------------------------------------*||-----------------|
A---||-----------------------------------------------||-----------------|
E---||-----------------------------------------------||-----------------|

Then there is a really cool bass riff (I won't include it here because
this is not a bass tab) with both guitars playing some power chords.
Both guitars play this twice.

E------|-----|-----|-----|----------------------------------------------|
B------|-----|-----|-----|----------------------------------------------|
G---7--|--7--|-----|-----|----------------------------------------------|
D---7--|--7--|--7--|--7--|----------------------------------------------|
A---5--|--5--|--7--|--7--|----------------------------------------------|
E------|-----|--5--|--5--|----------------------------------------------|

After both guitars play that twice, one guitar plays it once more while
the other guitar plays this:

E---||---------------------------------------------------|--------------|
B---||---------------------------------------------------|--------------|
G---||*--2--------2--------2-----4--------4--------4-----|--------------|
D---||*--0--0--0--0--0--0--0--0--0--0--0--0--0--0--0--0--|--------------|
A---||---------------------------------------------------|--------------|
E---||---------------------------------------------------|--------------|

E---------------------------------------------------||------------------|
B---------------------------------------------------||------------------|
G---5--------5--------5-----4-----4-----4h5--4-----*||------------------|
D---0--0--0--0--0--0--0--0--0--0--0--0--0----0--0--*||------------------|
A---------------------------------------------------||------------------|
E---------------------------------------------------||------------------|

E---||---------------------------------------------------|--------------|
B---||---------------------------------------------------|--------------|
G---||*--------------------------------------------------|--------------|
D---||*--2--------2--------2-----4--------4--------4-----|--------------|
A---||---0--0--0--0--0--0--0--0--0--0--0--0--0--0--0--0--|--------------|
E---||---------------------------------------------------|--------------|

E---------------------------------------------------||------------------|
B---------------------------------------------------||------------------|
G--------------------------------------------------*||------------------|
D---5--------5--------5-----4-----4-----4h5--4-----*||------------------|
A---0--0--0--0--0--0--0--0--0--0--0--0--0----0--0---||------------------|
E---------------------------------------------------||------------------|


Then both guitars play this:

                            4x

E---||------|---------------||------------------------------------------|
B---||------|---------------||------------------------------------------|
G---||*--7--|--------------*||------------------------------------------|
D---||*--7--|--8--5--5--5--*||------------------------------------------|
A---||---5--|--8--5--5--5---||------------------------------------------|
E---||------|--6--3--3--3---||------------------------------------------|

Then the rhythm guitar plays this:


E---||----------|---------|---------|----------||-||----------|---------|
B---||----------|---------|---------|----------||-||----------|---------|
G---||*-9-------|-9-------|-9-------|---------*||-||*-4-------|---------|
D---||*-9-------|-9-------|-9-------|---------*||-||*-4-------|---------|
A---||--7-------|-7-------|-7-------|----------||-||--2-------|---------|
E---||----------|---------|---------|----------||-||----------|---------|

E-----------|---------|----------||-||------------------|---------------|
B-----------|---------|----------||-||------------------|---------------|
G---4-------|-4-------|---------*||-||*-9---9-9-9---9-9-|---------------|
D---4-------|-4-------|---------*||-||*-9---9-9-9---9-9-|---------------|
A---2-------|-2-------|----------||-||--7---7-7-7---7-7-|---------------|
E-----------|---------|----------||-||------------------|---------------|

E------------------------||-||------------------|-----------------------|
B------------------------||-||------------------|-----------------------|
G---9---9-9-9-9-9-9-9-9-*||-||*-4---4-4-4---4-4-|-----------------------|
D---9---9-9-9-9-9-9-9-9-*||-||*-4---4-4-4---4-4-|-----------------------|
A---7---7-7-7-7-7-7-7-7--||-||--2---2-2-2---2-2-|-----------------------|
E------------------------||-||------------------|-----------------------|

E------------------------||---------------------------------------------|
B------------------------||---------------------------------------------|
G---4---4-4-4-4-4-4-4-4-*||---------------------------------------------|
D---4---4-4-4-4-4-4-4-4-*||---------------------------------------------|
A---2---2-2-2-2-2-2-2-2--||---------------------------------------------|
E------------------------||---------------------------------------------|

The lead guitar plays this overtop of the above part (twice):

E---||-----------------------------------------------|------------------|
B---||-----------------------------------------------|------------------|
G---||*-----5--4h5p4-----4--------5--4h5p4-----4-----|------------------|
D---||*---------------7-----5---------------7-----5--|------------------|
A---||---7---------------------7---------------------|------------------|
E---||-----------------------------------------------|------------------|

E--------------------------------------------||-------------------------|
B--------------------------------------------||-------------------------|
G------5--4h5p4-----4-----4-----------------*||-------------------------|
D----------------7-----5-----5--7--5--4-----*||-------------------------|
A---7------------------------------------5---||-------------------------|
E--------------------------------------------||-------------------------|

E---||-----------------------------------------------|------------------|
B---||-----------------------------------------------|------------------|
G---||*-----5--4h5p4-----4--------5--4h5p4-----4-----|------------------|
D---||*---------------7-----5---------------7-----5--|------------------|
A---||-----------------------------------------------|------------------|
E---||---7---------------------7---------------------|------------------|

E--------------------------------------------||-------------------------|
B--------------------------------------------||-------------------------|
G------5--4h5p4-----4-----------------------*||-------------------------|
D----------------7-----5--------------4--5--*||-------------------------|
A----------------------------4--5--7---------||-------------------------|
E---7---------------------7------------------||-------------------------|

Then the rhythm guitar starts playing this (this is also the rhythm part
for the solos):

E-------------------|-----------------|-----------------|---------------|
B-------------------|-----------------|-----------------|---------------|
G-------9-------9---|-----9-------9---|-----9-------9---|---------------|
D-------9-------9---|-----9-------9---|-----9-------9---|---------------|
A---7-7-7---7-7-7---|-7-7-7---7-7-7---|-7-7-7---7-7-7---|---------------|
E-------------------|-----------------|-----------------|---------------|

E-------------------|-----------------|-----------------|---------------|
B-------------------|-----------------|-----------------|---------------|
G-------9-------9---|-----7-------7---|-----7-------7---|---------------|
D-------9-------9---|-----7-------7---|-----7-------7---|---------------|
A---7-7-7---7-7-7---|-5-5-5---5-5-5---|-5-5-5---5-5-5---|---------------|
E-------------------|-----------------|-----------------|---------------|

E-------------------|-----------------|---------------------------------|
B-------------------|-----------------|---------------------------------|
G-------7-------7---|-----7-------7---|---------------------------------|
D-------7-------7---|-----7-------7---|---------------------------------|
A---5-5-5---5-5-5---|-5-5-5---5-5-5---|---------------------------------|
E-------------------|-----------------|---------------------------------|

The lead guitar plays this overtop of the above part:

E---------------|-------------|-------------|-------------|-------------|
B---------------|-------------|-------------|-------------|-------------|
G---4-4-4h5p4---|-4-4-4h5p4---|-4-4-4h5p4---|-4-4-4h5p4-2-|-------------|
D-------------7-|-----------7-|-----------7-|-------------|-------------|
A---------------|-------------|-------------|-------------|-------------|
E---------------|-------------|-------------|-------------|-------------|

E---------------|-------------|-------------|-------------|-------------|
B---------------|-------------|-------------|-------------|-------------|
G---2-2-2h4p2---|-2-2-2h4p2---|-2-2-2h4p2---|-2-2-2h4p2-2-|-------------|
D-------------5-|-----------5-|-----------5-|-------------|-------------|
A---------------|-------------|-------------|-------------|-------------|
E---------------|-------------|-------------|-------------|-------------|

E---------------|-------------|-------------------------|---------------|
B---------------|-------------|-------------------------|---------------|
G---4-4-4h5p4---|-4-4-4h5p4---|-4-5-4h5p4---4-5-4h5p4---|---------------|
D-------------7-|-----------7-|-----------7-----------7-|---------------|
A---------------|-------------|-------------------------|---------------|
E---------------|-------------|-------------------------|---------------|

E---------------------------|-------------|-------------|----------------|
B---------------------------|-------------|-------------|----------------|
G---4-5-4h5p4---4-5-4h5p42-|-2-2-2h4p2---|-2-2-2h4p2---|-----------------|
D-------------7-------------|-----------5-|-----------5-|----------------|
A---------------------------|-------------|-------------|----------------|
E---------------------------|-------------|-------------|----------------|

E---------------------------|-------------------------|-----------------|
B---------------------------|-------------------------|-----------------|
G---2-4-2h4p2---2-4-2h4p2---|-2-4-2h4p2---2-4-2h4p2---|-----------------|
D-------------5-----------5-|-----------5-----------5-|-----------------|
A---------------------------|-------------------------|-----------------|
E---------------------------|-------------------------|-----------------|

Now one guitar plays the solo rhythm twice, while the other guitar plays
the solo. Then they switch. See the bottom of this tab for the solos.
After the solos there is a harmony interlude (one guitar plays the top
notes, the other plays the bottom notes):

E---||------10--12--10--|--8---10--------|-----10--12--10--|------------|
B---||---8--12--13--12--|--10--12--8--7--|--8--12--13--12--|------------|
G---||*--9--------------|-------------7--|--9--------------|------------|
D---||*-----------------|----------9-----|-----------------|------------|
A---||------------------|----------------|-----------------|------------|
E---||------------------|----------------|-----------------|------------|

E---8---10--------|-----8---10--8---|--6--8---------|-------------------|
B---10--12--8--7--|--6--10--11--10--|--8--10--6--5--|-------------------|
G--------------7--|--7--------------|------------5--|-------------------|
D-----------9-----|-----------------|---------7-----|-------------------|
A-----------------|-----------------|---------------|-------------------|
E-----------------|-----------------|---------------|-------------------|

E------8---10--8---|--6--8---------|------12--14--12--|-----------------|
B---6--10--11--10--|--8--10--6--5--|--10--14--15--14--|-----------------|
G---7--------------|------------5--|--11--------------|-----------------|
D------------------|---------7-----|------------------|-----------------|
A------------------|---------------|------------------|-----------------|
E------------------|---------------|------------------|-----------------|

E---10--12---------|------12--14--12--|--10--12----------||-------------|
B---12--14--10--9--|--10--14--15--14--|--12--14--10--9---||-------------|
G---------------9--|--11--------------|--------------9--*||-------------|
D-----------11-----|------------------|----------11-----*||-------------|
A------------------|------------------|------------------||-------------|
E------------------|------------------|------------------||-------------|

E------10--12--10--|--8---10--------|-----10--12--10--|-----------------|
B---8--12--13--12--|--10--12--8--7--|--8--12--13--12--|-----------------|
G---9--------------|-------------7--|--9--------------|-----------------|
D------------------|----------9-----|-----------------|-----------------|
A------------------|----------------|-----------------|-----------------|
E------------------|----------------|-----------------|-----------------|

E---8---10--------|-----------------------------------------------------|
B---10--12--8--7--|-----------------------------------------------------|
G--------------7--|-----------------------------------------------------|
D-----------9-----|-----------------------------------------------------|
A-----------------|-----------------------------------------------------|
E-----------------|-----------------------------------------------------|

Then it slows down and plays basically the same thing again:

E------10--12--10--|--8---10--------|-----10--12--10--|-----------------|
B---8--12--13--12--|--10--12--8--7--|--8--12--13--12--|-----------------|
G---9--------------|-------------7--|--9--------------|-----------------|
D------------------|----------9-----|-----------------|-----------------|
A------------------|----------------|-----------------|-----------------|
E------------------|----------------|-----------------|-----------------|

E---8---10--------|-----8---10--8---|--6--8---------|-------------------|
B---10--12--8--7--|--6--10--11--10--|--8--10--6--5--|-------------------|
G--------------7--|--7--------------|------------5--|-------------------|
D-----------9-----|-----------------|---------7-----|-------------------|
A-----------------|-----------------|---------------|-------------------|
E-----------------|-----------------|---------------|-------------------|

E------8---10--8---|--6--8---------|------12--14--12--|-----------------|
B---6--10--11--10--|--8--10--6--5--|--10--14--15--14--|-----------------|
G---7--------------|------------5--|--11--------------|-----------------|
D------------------|---------7-----|------------------|-----------------|
A------------------|---------------|------------------|-----------------|
E------------------|---------------|------------------|-----------------|

E---10--12---------|------12--14--12--|--10--12---------|---------------|
B---12--14--10--9--|--10--14--15--14--|--12--14--10--9--|---------------|
G---------------9--|--11--------------|--------------9--|---------------|
D-----------11-----|------------------|----------11-----|---------------|
A------------------|------------------|-----------------|---------------|
E------------------|------------------|-----------------|---------------|

E------9---11--9---|--7--9---------|-----9---11--9---|------------------|
B---7--11--12--11--|--9--11--7--6--|--7--11--12--11--|------------------|
G---8--------------|------------6--|--8--------------|------------------|
D------------------|---------8-----|-----------------|------------------|
A------------------|---------------|-----------------|------------------|
E------------------|---------------|-----------------|------------------|


E---7--9---------|-----10--12--10--|--8---10--------|-------------------|
B---9--11--7--6--|--8--12--13--12--|--10--12--8--7--|-------------------|
G-------------6--|--9--------------|-------------7--|-------------------|
D----------8-----|-----------------|----------9-----|-------------------|
A----------------|-----------------|----------------|-------------------|
E----------------|-----------------|----------------|-------------------|


E------10--12--10--|--8---10--------|-----------------------------------|
B---8--12--13--12--|--10--12--8--7--|-----------------------------------|
G---9--------------|-------------7--|-----------------------------------|
D------------------|----------9-----|-----------------------------------|
A------------------|----------------|-----------------------------------|
E------------------|----------------|-----------------------------------|

After that it goes right back to the beginning riff and plays that once.

Here's the solos:

First solo:

E------------------|------12h15p12--|-----------------------------------|
B---15^--(15)--12--|--15------------|-----------------------------------|
G------------------|----------------|-----------------------------------|
D------------------|----------------|-----------------------------------|
A------------------|----------------|-----------------------------------|
E------------------|----------------|-----------------------------------|


E---12------12-------12--------------------|---------------------|------|
B-------15------15^------15p12--15p12------|-------10h12--10/12--|------|
G--------------------------------------14--|--14^----------------|------|
D------------------------------------------|---------------------|------|
A------------------------------------------|---------------------|------|
E------------------------------------------|---------------------|------|


E---12h15--12--------------------------------------------------|--------|
B--------------15--15^--15p12-------12--15p12--15p12-------12--|--------|
G------------------------------14^--------------------14^------|--------|
D--------------------------------------------------------------|--------|
A--------------------------------------------------------------|--------|
E--------------------------------------------------------------|--------|


E--------------------------------------|--------------------------------|
B---------------------14-^-------------|--------------------------------|
G---14p12--14p12--12--14^---12--14~~~--|--------------------------------|
D--------------------------------------|--------------------------------|
A--------------------------------------|--------------------------------|
E--------------------------------------|--------------------------------|


E----------------------------------|------------------------------------|
B---0h1p0h1p0h1p0h1/3h5p3h5p3h5p3--|------------------------------------|
G----------------------------------|------------------------------------|
D----------------------------------|------------------------------------|
A----------------------------------|------------------------------------|
E----------------------------------|------------------------------------|


E-----------------------------------------7--8--10--|-------------------|
B---5h6p5h6p5h6--7h8p7h8p7h8p7--7--8--10------------|-------------------|
G---------------------------------------------------|-------------------|
D---------------------------------------------------|-------------------|
A---------------------------------------------------|-------------------|
E---------------------------------------------------|-------------------|


E---12-------14--|--15--14h15p14--|-------------------------------------|
B-------15^------|----------------|-------------------------------------|
G----------------|----------------|-------------------------------------|
D----------------|----------------|-------------------------------------|
A----------------|----------------|-------------------------------------|
E----------------|----------------|-------------------------------------|


E---14h15p14--14h15p14--14h15p14--14h15p14--|--17^----------------|-----|
B-------------------------------------------|--------------14h16--|-----|
G-------------------------------------------|-------14h16---------|-----|
D-------------------------------------------|---------------------|-----|
A-------------------------------------------|---------------------|-----|
E-------------------------------------------|---------------------|-----|

E-----------------------------------------------------------------------|
B---16h17p16p14--16h17p16p14--16h17p16p14--16h17p16h17p16p14--16h17-----|
G-----------------------------------------------------------------------|
D-----------------------------------------------------------------------|
A-----------------------------------------------------------------------|
E-----------------------------------------------------------------------|

E------------------------|----------------------------------------------|
B---p16h17p16p14--16p12--|----------------------------------------------|
G------------------------|----------------------------------------------|

D------------------------|----------------------------------------------|
A------------------------|----------------------------------------------|
E------------------------|----------------------------------------------|


Second solo:


E-----------------------------------------------------------|-----------|
B---7p5p0--8p5p0--7p5p0--8p5p0--7p5p0--8p5p0--7p5p0--8p5p0--|-----------|
G-----------------------------------------------------------|-----------|
D-----------------------------------------------------------|-----------|
A-----------------------------------------------------------|-----------|
E-----------------------------------------------------------|-----------|


E-------------------------------------------------|-----------|---------|
B---12p10p0--10p8p0--8p7p0--7p5p0--5p3p0----------|-----------|---------|
G-----------------------------------------5p4-----|-----------|---------|
D----------------------------------------------5--|--------0--|---------|
A-------------------------------------------------|--7~~~-----|---------|
E-------------------------------------------------|-----------|---------|

E-------------------------------------|---------------------------------|
B-------------------------------------|---------------------------------|
G-------------------------------------|---------------------------------|
D---(0)--4p0--4p0--4--0--5p0--5p0--5--|---------------------------------|
A-------------------------------------|---------------------------------|
E-------------------------------------|---------------------------------|

E-----------------------------------|------------------------|----------|
B-----------------------------------|------------------------|----------|
G-----------------------------------|------------------------|----------|
D---0--7p0--7p0--7--0--8p0--8p0--8--|--0--7p0--7p0--7--5--4--|----------|
A-----------------------------------|------------------------|----------|
E-----------------------------------|------------------------|----------|

E-----------------|----------|------------|------------|----------------|
B-----------------|--5---7---|--8----10---|--12---13---|----------------|
G-----------------|--7^--9^--|--10^--12^--|--14^--15^--|----------------|
D---(4)--5--4-----|----------|------------|------------|----------------|
A--------------5--|----------|------------|------------|----------------|
E-----------------|----------|------------|------------|----------------|

E-------------|-------------------------------------------|-------------|
B---15---17---|-------17--20p17-------17--20p17-------17--|-------------|
G---17^--19^--|--19^-------------19^-------------19^------|-------------|
D-------------|-------------------------------------------|-------------|
A-------------|-------------------------------------------|-------------|
E-------------|-------------------------------------------|-------------|

E-----------------------------------------------|-----------------------|
B---20p17-------17--20p17-------17--20p17-------|-----------------------|
G----------19^-------------19^-------------19^--|-----------------------|
D-----------------------------------------------|-----------------------|
A-----------------------------------------------|-----------------------|
E-----------------------------------------------|-----------------------|

E-----------------------------------------------17--19--20--|-----------|
B---17--20p17-------17--20p17-------17--19--20--------------|-----------|
G--------------19^-------------19^--------------------------|-----------|
D-----------------------------------------------------------|-----------|
A-----------------------------------------------------------|-----------|
E-----------------------------------------------------------|-----------|

E---20^--|--------------------------------------------------------------|
B--------|--------------------------------------------------------------|
G--------|--------------------------------------------------------------|
D--------|--------------------------------------------------------------|
A--------|--------------------------------------------------------------|
E--------|--------------------------------------------------------------|
comments
print report bad tab
2 comments total.
0 reply
YoU-RoCk-DuDe wrote on October 1 2007, 01:10 pm

nice tab thx m8

0 reply
Cachao wrote on May 23 2008, 02:19 am

Good tab

I want to post or [tab]
guest
You may want to rate the tab now too:
select rating
Please do not post tabs as comments. Select "correction" instead!