Oops, an error
Loading. Please wait.

Powerslave Tab

ver1
ver1

Album

Solo

Whole song

More versions @911Tabs.com
33,578 views 33 this week
1 commentread comment
1 2 3 4 5
worth learning
x 5
Autoscroll
+/-
esc
set tempo
stop
Contributor
NEW! There's an official Ultimate Guitar app which is ideal
for learning songs when you're away from computer. Get the app
WARNING: You are trying to view
                                    content from Ultimate-Guitar.com
                                    in an unauthorized application,
                                    which is prohibited.

                                    Please use an official Ultimate
                                    Guitar Tabs application for iPhone,
                                    iPad or Android to access legitimate
                                    chords, guitar, bass, and drum tabs
                                    from Ultimate-Guitar.com database.

                                    Type "ultimate guitar tabs" in Apple
                                    App Store's or Android Market's
                                    search to find the application.
Band- Iron Maiden
Album- Powerslave

1.ACES HIGH

-riff:
E----------------|
B----------------|
G----------------|
D----4-6-4-7--6--|
A--7-------------|
E----------------|

Last time of opening-riff:
E----------------|
B----------------|
G----------------|
D--4----6--4-----|
A----7--------7--|
E----------------|

Riff 2:
E------------------------|
B---------------5--5-----|
G--5--4-5-4-5-4-------5--|
D------------------------|
A------------------------|
E------------------------|

E------------------------------|
B---------------------5--------|
G--5--4-5-4-5-4-7--7----7-5-4--|
D------------------------------|
A------------------------------|
E------------------------------|

Verse-riff 1:
There goes the siren that warnes of the air raid
E-------------------------------------------------|
B-------------------------------------------------|
G--4---6---7---9---7---6---4---7---6---2---6---2--|
D--2---4---5---7---5---4---2---5---4---0---4---0--|
A-------------------------------------------------|
E-------------------------------------------------|

There comes the sound of the guns sending flak
E-------------------------------------------|
B-------------------------------------------|
G--4---6---7---9---7---6---4---7---6---2----|
D--2---4---5---7---5---4---2---5---4---0----|
A-------------------------------------------|
E-------------------------------------------|

Verse-riff 2:
   Jump in the cockpit and start up the engines
E-------------------------------------------------|
B-------------------------------------------------|
G-------------------------------------------------|
D--2---4---5---7---5---4---2---5---4-------4------|
A--0---2---3---5---3---2---0---3---2---5---2---5--|
E--------------------------------------3-------3--|

Remove all the wheelblocks there's no time to waste
E-------------------------------------------------|
B-------------------------------------------------|
G-------------------------------------------------|
D--2---4---5---7---5---4---2---5---4--------------|
A--0---2---3---5---3---2---0---3---2---5----------|
E--------------------------------------3----------|

Pre-chorus-riff:
   Running             scrambling
E-------------------|-------------------|
B-------------------|-------------------|
G-------------------|-------------------|
D-------------------|-------------------|
A--5-7-7-7-7-7-7-7--|--5-7-7-7-7-7-7-7--|
E-------------------|-------------------|

   flying
E-------------------|-------------------|
B-------------------|-------------------|
G-------------------|--5-4--------------|
D-------------------|------7-5-7-5-4----|
A--5-7-7-7-7-7-7-7--|----------------5--|
E-------------------|-------------------|

   Rolling             turning
E-------------------|-------------------|
B-------------------|-------------------|
G-------------------|-------------------|
D-------------------|-------------------|
A--5-7-7-7-7-7-7-7--|--5-7-7-7-7-7-7-7--|
E-------------------|-------------------|

   diving              going in again
E-------------------|-------------------|
B-------------------|-------------------|
G-------------------|--5-4--------------|
D-------------------|------7-5-7--------|
A--5-7-7-7-7-7-7-7--|-------------------|
E-------------------|-------------------|

End of pre-chorus-riff.

Chorus:
   Run          live to...
E------------|--------------|
B------------|--------------|
G------------|--------------|
D--2---------|--5-----7-----|
A--2---------|--3-----5-----|
E--0---------|--------------|

...fly          fly to...
E------------|--------------|
B------------|--------------|
G------------|--------------|
D--2---------|--5-----7-----|
A--2---------|--3-----5-----|
E--0---------|--------------|

...live         do or...
E------------|--------------|
B------------|--------------|
G------------|--------------|
D--2---------|--5-----7-----|
A--2---------|--3-----5-----|
E--0---------|--------------|

...die          want you.
E------------|--------------|
B------------|--------------|
G------------|--------------|
D--2---------|--------7-----|
A--2---------|--5-----5-----|
E--0---------|--3-----------|

   Run          live to...
E------------|--------------|
B------------|--------------|
G------------|--------------|
D--5---------|--8-----10----|
A--5---------|--6-----8-----|
E--3---------|--------------|

...fly          fly to...
E------------|--------------|
B------------|--------------|
G------------|--------------|
D--5---------|--8-----10----|
A--5---------|--6-----8-----|
E--3---------|--------------|

...live         Aces...
E------------|--------------|
B------------|--------------|
G------------|--------------|
D--5---------|--8-----10----|
A--5---------|--6-----8-----|
E--3---------|--------------|

...high
E------------|--------------|
B------------|--------------|
G------------|--------------|
D--5---------|--8-----10----|
A--5---------|--6-----8-----|
E--3---------|--------------|

End of chorus.

Riff 3:
E-----------------------------|
B-----------------------------|
G-----------------------------|
D-----------------------7--7--|
A--0--3-3--0-0--3-2-0-0-5--5--|
E-----------------------------|

E-----------------------------|
B-----------------------------|
G-----------------------------|
D-----------------------2--2--|
A--0--3-3--0-0--3-2-0---0--0--|
E---------------------3--------|

E-----------------------------|
B-----------------------------|
G-----------------------------|
D-----------------------7--7--|
A--0--3-3--0-0--3-2-0-0-5--5--|
E-----------------------------|

E----------------------------|
B----------------------------|
G----------------------------|
D-----------------------2----|
A--0--3-3--0-0--3-2-0---0----|
E---------------------3------|

End of riff 3.

Solo-riff 1:
E---------------|---------------|
B---------------|---------------|
G---------------|---------------|
D---------------|--------5---7--|
A--7-----3---5--|--7-----3---5--|
E--5-----1---3--|--5------------|

Solo-riff 2:
E---------------|---------------|
B---------------|---------------|
G---------------|---------------|
D--4------------|--4-----7---9--|
A--2-----5---7--|--2-----5---7--|
E--------3---5--|---------------|

Outro-riff:
E---------------------|---------------------------------|
B---------------------|-----------------5---------------|
G---------------------|--4--7--7--7--7-----7--5--4p5p4--|
D--7---5--7--5--7--5--|---------------------------------|
A---------------------|---------------------------------|
E---------------------|---------------------------------|

E---------------------------------------------|
B--8---5p6p5-----5--6--5----------------------|
G-------------7-----------4--5-------------2--|
D------------------------------------------2--|
A------------------------------------------0--|
E---------------------------------------------|

2.2 MINUTES TO MIDNIGHT

Intro
Sec 1
------------------------------------------------------
-----------------------7--7---------------------------
----5----7----5----7--7v-7------5-----7----5------2--
----5----7----5----7------------5-----7----5------2--play 4 times
-00---00---00--00-----------00----00---00----00--0-
------------------------------------------------------

Sec 2
------------------------------------------------------
------------------------------------------------------
----5----7----5----7--7v-7------5-----7----5------2--play 2 times
----5----7----5----7--7--7------5-----7----5------2--
-00---00---00--00-----------00----00---00----00--0--0-3p0
------------------------------------------------------

Verse

Play Intro andSec 2 twice

----------------------------------------------------------
----------------------------------------------------------
----5----7----5----7--7--7-7-----5-----7----5--5--5-5-5-
----5----7----5----7--7--7-7-----5-----7----5v-5--5-5-5-(play 2 times)
-00---00---00--00-------------55---55---55--------------
----------------------------------------------------------

CHORUS

--------------------------------------------------------------------
-----------------6---6------3-------3------------------------------
-2---x-x--2----x-5---5--x-x-4--x-x--4--5----5/4--4p2----------3---
-2---x-x--2----x-7---7--x-x-5--x-x--5--5----5/4--4p2--3---x-x-3---
-0---x-x--0----x-0---------------------3----3/---------3---x-x-1--
--------------------------------------------------------1---x-x----



-----------------------------------
-----------------------------------
-3/2--2p0--5--5-5-5---5-0---------
-3/2--2p0--5--5-5-5---5-5----5----
-1---------3--3-3-3---3-2----5----
------------------------------3----


--------------------------------------------------------------------
-----------------6----------3-------3------------------------------
-2---x-x--2----x-5------x-x-4--x-x--4--5----5/4--4p2-------------3-
-2---x-x--2----x-7------x-x-5--x-x--5--5----5/4--4p2--3---x-x-3--3-
-0---x-x--0----x-0---------------------3----3/---------3---x-x-3--1
--------------------------------------------------------1---x-x-1--



-------------------
-------------------
-3/2--2p0--2--1---
-3/2--2p0--2--2----
-----------2--2----
-----------0--0----



------------------------------------------------------
------------------------------------------------------
--------------------------------5------7----10--12---
-5-7-7-7-7p5----5-7-7-7-7p5---5-5----7----10--12---play twice
-0-0-0-0-0---7--0-0-0-0-0---7-3-5----5-----8--10---
----------------------------------3-------------------

Fill 1
----------------
-6---------------
---7-------------
-----7-----------
----------------
----------------

Fill 2
----------------
----------------
----------------
-7-5---------5--
-----7-6-5-3-0-
----------------

------------------------------------------------------
-----------------------7--7---------------------------
----5----7----5----7--7v-7------5-----7----5------2--
----5----7----5----7------------5-----7----5------2--
-00---00---00--00-----------00----00---00----00--0-
------------------------------------------------------

-----------------------------------------------------------------
---------------------------7--7----------------------------------
----5----7----5h7p5----7--7v-7------5-----7----5------2---------
----5----7----5h7p5----7--7--7------5-----7----5------2---------
-00---00---00--------------------00----00---00----00--0--0-3p0-
-----------------------------------------------------------------

Rhythm during solo 
----------------------------------------------------------------
10-6-8-8-8-x-x-6-6-6-5-5-5-------------------------6-8-8------
-9-5-7-7-7-x-x-5-5-5-4-4-4--7---------4-5-7-9-7-5-5-7-7------
-7-3-5-5-5-x-x-3-3-3-2-2-2--7---4-5-7-------------3-5-5--5----
------------------------------5----------------------------5-x-x-
-----------------------------------------------------------3-x-x-

------------------------------------------------------------------------
-6-6-6-5-5-5------------------------15bp13-15-12-13--------17---------
-5-5-5-4-4-4-7--------------16bp14------------------14-16b----16bp14--
-3-3-3-2-2-2-7-----5----------------------------------------------------
--------------5-5-7---7-5-3---------------------------------------------
-------------------------------------------------------------------------

------------------------------
-----------------------6-8----
-14----------4-5-7--9-5-7----
---16/-4-5-7--------7-3-5----
---------------------0--------
------------------------------

-----------------------------------------
-8-8-8-x-x-6-6-6-5-5-5------------------
-7-7-7-x-x-5-5-5-4-4-4--7---------------
-5-5-5-x-x-3-3-3-2-2-2--7----5----------
-------------------------5-5-7--7-5-3----
------------------------------------------

Rhythm during solo 2

---------------------------------
-----3-----3-----------------------
-9-9-0-x-x-0-x-x-5--5--6--------------------
-9-9-0-x-x-0-x-x-5--5--7-------4-5-7-----------
-7-7-2-x-x-2-x-x-3--3--4-4-5-7-----------------
---------------------------------

---------------------------------------
-----3-----3---------------------------
-9-9-0-x-x-0-x-x-5--5--6---------------
-9-9-0-x-x-0-x-x-5--5--7---------------
-7-7-2-x-x-2-x-x-3--3--4---2-5-2-------
--------------------------5-------5-3---

-----12-----12-------------12---------------15b-15-14-12------
--------15b----15p12----12---12--------------------------15-13-
-7v------------------14b--------14b-12---12--------------------
----------------------------------------14-----------------------
-----------------------------------------------------------------
-----------------------------------------------------------------

------------------------------
-12--------------------------
---14-12-11------------------
------------14-12------------
------------------------------
------------------------------

Interlude

---------------------------------------------
---------------------------------------------
-5------7----9--7--9---12--7--9-------------
-5v-/---7----9--7--9v--12--7--9v--(2 times)--
-3----0-5----7--5--7---10--5--7-------------
-----------0---------------------------------

-12------------------------------------
---12-15/dive---------------------------
----------------14b-12-----7-----7v----
----------------------14v----9-7-------
---------------------------------------
---------------------------------------

-12----------------------------------------------------------
---12-10h12p10-----------15------------12-13-12------------
----------------12p11h12-----14b-12-14------------7dive-----
--------------------------------------------------------------
--------------------------------------------------------------
--------------------------------------------------------------

-------------------------------
-------------------------------
-5-----------------------------
-5-----------------------------
-3-3-5-7-5-5v-----------------
-------------------------------

repeat intro Sec 1 and then Sec 2



---------------------------------------
-----------6--8------------------------
-----------5--7---5-7---5-2-----------
-12--14----3--5--5-7---5-2---(2 times)
-10--12----------3-5---3-0-------------
----------------------------------------

----------------------------------------------------
----------------------------------------------------
-----------------------10-12-12--12--12p10-12p10--
-12-14-14-14--5h7p5--10--12-12--12-12p10--12p10-
-10-12-12-12--------7-8--10-10--10--10-----------
----------------------------------------------------

----------------------------------------------
----------------------------------------------
-5-7-7-7-7p5--7p5--5-5--2---2---2--2p0--2p0-
-5-7-7-7-7p5--7p5--5-5--2---2---2--2p0--2p0-
-3-5-5-5-5---------3-3---0---0--0------------
----------------------------------------------

----------------------------------------------------
----------------------------------------------------
-----------------------10-12-12--12--12p10-12p10--
-12-14-14-14--5h7p5--10--12-12--12-12p10--12p10-
-10-12-12-12--------7-8--10-10--10--10-----------
----------------------------------------------------

-------------------------------
-------------------------------
-5--7--7---7--7p5--7p5---5-2--
-5--7--7---7--7p5--7p5---5-2--
-3--5--5---5-------------3-0--
-------------------------------

3.LOSFER WORDS

intro

--------------------------------------------
--------------------------------------------
--------------------------------------------
--------------------------------------------
-000-12-00-10-00-9-00-10-00-9-00-7-00-3-2-3-
--------------------------------------------

--------------------------------------------
--------------------------------------------
--------------------------------------------
--------------------------------------5-5-5-
-000-12-00-10-00-9-00-10-00-9-00------5-5-5-
--------------------------------------3-3-3-

----------------------------------------------
----------------------------------------------
----------------------------------------------
----------------------------------------------
--------5-5-5---------------------------5-5-5-
-000000-3-3-3-000000-5-5-5-5-3-2-000000-3-3-3-

--------------------------------------------
--------------------------------------------
--------9-9-9-9-----------------------------
--------7-7-7-7-----------------------------
--------------------------------------------
-000000-------------------------------------

Theme 1

----12-12-13-15-13-12-----14-14-14-15-15-15-17-17-17-17p15p14-
-13-------------------15--------------------------------------
--------------------------------------------------------------
--------------------------------------------------------------
--------------------------------------------------------------
--------------------------------------------------------------

--------------------------------------------
-16-/11-11-13-13/15-13----------------------
--------------------------------------------
--------------------------------------------
--------------------------------------------
--------------------------------------------

Theme 2 (play under solo also)

-----------------------------------------------
-----------------------------------------------
-5p4p0-5p4p0-5p4p0-5p4p0-7p5p0-7p5p0-7p5p0-7p5p0-
-----------------------------------------------
-----------------------------------------------
-----------------------------------------------

----------------------------------------------
----------------------------------------------
-8----3---3-5-7-5-----------------------------
-8----3---3-5-7-5-----------------------------
-6----1---1-3-5-3-----------------------------
----------------------------------------------

Theme 3 (repeat)

-12-00-7-00-8-00-5-00-7-00-3-00-5-00-2-----
-------------------------------------------
-------------------------------------------
-------------------------------------------
-------------------------------------------
-------------------------------------------

Theme 4

---------------------------------------
-/11-10v-8-10-8-------/11-10v-8-10-8----
----------------8v------------------8--
---------------------------------------
---------------------------------------
---------------------------------------

-----------------------------------------
-/13-11v-10-11--------/13-11v-10-11-10----
---------------10v--------------------10v-
-----------------------------------------
-----------------------------------------
-----------------------------------------

last fill

----------11bv-------------------------
-10-11-10------------------------------
---------------------------------------
---------------------------------------
---------------------------------------
---------------------------------------

repeat intro and theme 1

fill for theme 1 at end

-15p13p12-15p13p12-15p13p12-15p13p12----
---------------------------------------
--------------------------------------
--------------------------------------
--------------------------------------
--------------------------------------

outro

---------------------------------------------
-5-3-------3-5-3-------3-5-3-------3-5-3-----
-----5-3-5-------5-3-5-------5-3-5-------5-3-
---------------------------------------------
---------------------------------------------
---------------------------------------------

4.FLASH OF THE BLADE

p h p h p h p   p h p h p h p   p h p h p h p    p h  p h  p h  p
[----------------|---------------|---------------|--------------------]
[+---------------|---------------|---------------|-------------------+]
[--^-^-^-^-^-^-^-|-^-^-^-^-^-^-^-|-^-^-^-^-^-^-^-|--^-^--^-^--^-^--^--]
[+7-0-7-0-7-0-7-0|7-0-7-0-7-0-7-0|8-0-8-0-8-0-8-0|10-0-10-0-10-0-10-0+]
[----------------|---------------|---------------|--------------------]
[----------------|---------------|---------------|--------------------]

Riff A[*****************************************************************
   p h p h p h p   p h p h p h p   p h p h p h p    p h  p h  p h  p
[----------------|---------------|---------------|--------------------]
[+---------------|---------------|---------------|--------------------]
[--^-^-^-^-^-^-^-|-^-^-^-^-^-^-^-|-^-^-^-^-^-^-^-|--^-^--^-^--^-^--^--]
[+7-0-7-0-7-0-7-0|7-0-7-0-7-0-7-0|8-0-8-0-8-0-8-0|10-0-10-0-10-0-10-0-]
[----------------|---------------|---------------|--------------------]
[----------------|---------------|---------------|--------------------]
                                                                  2x
**********************************************************************]
   p h p h p h p   p h p h p h p   p h p h p h p    p h  p h  p h  p 
[----------------|---------------|---------------|--------------------]
[----------------|---------------|---------------|-------------------+]
[--^-^-^-^-^-^-^-|-^-^-^-^-^-^-^-|-^-^-^-^-^-^-^-|--^-^--^-^--^-^--^--]
[-7-0-7-0-7-0-7-0|7-0-7-0-7-0-7-0|8-0-8-0-8-0-8-0|-5-0--5-0--5-0--5-0+]
[----------------|---------------|---------------|--------------------] 
[----------------|---------------|---------------|--------------------]


                                     
 p.m. . . . . . . . . . . . . . . . . . . . . . .
[----------------|---------------|---------------]
[+---------------|---------------|---------------]
[----------------|---------------|---------------]
[+2-2-2-2-2-2-2-2|2-2-2-2-2-2-2-2|5-5-5-5-5-5-5-5]
[-0-0-0-0-0-0-0-0|0-0-0-0-0-0-0-0|3-3-3-3-3-3-3-3]
[----------------|---------------|---------------]

                                     
 p.m. . . . . . . . . . . . . . . . . . . . . . .
[-----------------|----------------|----------------]
[+----------------|----------------|----------------]
[-----------------|----------------|----------------]
[+4-4-4-4-4-4-4-4-|3-3-3-3-3-3-3-3-|3-3-3-3-3-3-3-3-]
[-2-2-2-2-2-2-2-2-|1-1-1-1-1-1-1-1-|1-1-1-1-1-1-1-1-]
[-----------------|----------------|----------------]

   p     p            p.m.. . . . . . . . . . . . . 
[-----------------|----------------|----------------]
[-----------------|----------------|----------------]
[---------------2-|(2)-------------|----------------]
[----------^----2-|(2)2-2-2-2-2-2-2|2-2-2-2-2-2-2-2-]
[--^------3-2---0-|(0)0-0-0-0-0-0-0|0-0-0-0-0-0-0-0-]
[-1-0-3-0-----3---|----------------|----------------]

                                       
 p.m. . . . . . .  . . . . . . . .  . . . . . . . .
[-----------------|----------------|----------------]
[-----------------|----------------|----------------]
[-----------------|----------------|----------------]
[-2-2-2-2-2-2-2-2-|5-5-5-5-5-5-5-5-|4-4-4-4-4-4-4-4-]
[-0-0-0-0-0-0-0-0-|3-3-3-3-3-3-3-3-|2-2-2-2-2-2-2-2-]
[-----------------|----------------|----------------]

                        
 p.m. . . . . . .  . . . . . . . .
[-----------------|----------------|----------------]
[-----------------|----------------|----------------]
[-----------------|----------------|--------------2-]
[-3-3-3-3-3-3-3-3-|3-3-3-3-3-3-3-3-|---------^----2-]
[-1-1-1-1-1-1-1-1-|1-1-1-1-1-1-1-1-|-----^--3-0---0-]
[-----------------|----------------|1-0-3-0-----3---]

                    ###
[-----------------||---------------|----------------]
[-----------------||---------------|----------------]
[-(2)-------------||--7------------|--7---6-----7---]
[-(2)-------------||--7------------|--7---6-----7---]
[-(0)-------------||--5------------|--5---4-----5---]
[-----------------||---------------|----------------]

    
[----------------|---------------|----------------|-------------------]
[----------------|---------------|----------------|-------------------]
[--9-------------|--9---8----9---|--5-------------|--5----4-----5-----]
[--9-------------|--9---8----9---|--5-------------|--5----4-----5-----]
[--7-------------|--7---6----7---|--3-------------|--3----2-----3-----]  
[----------------|---------------|----------------|-------------------]



[----------------|--------0------|----------------|-------------------]
[----------------|--------0------|----------------|-------------------]
[----------------|---------------|---7----7-------|--7----6-----7-----]
[----5-----------|---2-----------|---7----7-------|--7----6-----7-----]
[----5-----5-----|---2-----------|---5----5-------|--5----4-----5-----]
[----3-----2-----|---0-----------|----------------|-------------------]

[----------------|---------------|----------------|-------------------]
[----------------|---------------|----------------|-------------------]
[--9-------------|--9---8----9---|--5-------------|--5----4-----5-----]
[--9-------------|--9---8----9---|--5-------------|--5----4-----5-----]
[--7-------------|--7---6----7---|--3-------------|--3----2-----3-----]
[----------------|---------------|----------------|-------------------]
     ~~      ~~                  ***on second time, goto @@@
[----------------|--------0------||---------------|------------------]
[----------------|--------0------||---------------|------------------]
[----------------|---------------||---------------|------------------]
[--5-------------|---2-----------||---------------|------------------]
[--5------5------|---2-----------||---------------|------------------]
[--3------2------|---0-----------||---------------|------------------]


   p h p h p h p   p h p h p h p   p h p h p h p    P H  P H  P H  P P
[----------------|---------------|---------------|--------------------]
[+---------------|---------------|---------------|--------------------]
[--^-^-^-^-^-^-^-|-^-^-^-^-^-^-^-|-^-^-^-^-^-^-^-|--^-^--^-^--^-^--^--]
[+7-0-7-0-7-0-7-0|7-0-7-0-7-0-7-0|8-0-8-0-8-0-8-0|10-0-10-0-10-0-10-0-]
[----------------|---------------|---------------|--------------------]
[----------------|---------------|---------------|--------------------]

                                                                    2X
   p h p h p h p   p h p h p h p   p h p h p h p    p h  p h  p  h p
[----------------|---------------|---------------|--------------------]
[----------------|---------------|---------------|-------------------+]
[--^-^-^-^-^-^-^-|-^-^-^-^-^-^-^-|-^-^-^-^-^-^-^-|--^-^--^-^--^-^--^--]
[-7-0-7-0-7-0-7-0|7-0-7-0-7-0-7-0|8-0-8-0-8-0-8-0|-5-0--5-0--5-0--5-0+]
[----------------|---------------|---------------|--------------------] 
[----------------|---------------|---------------|--------------------]

interlude a:
*3 guitars
      ~~~~~~~~~~~~~~~       ~~~~~~~~~~~~~~~     ^  ^  ^
{[---------------------|---------------------|---------------------]
{[---------------------|---------------------|--5--5--5--5---------]
{[---------------------|---------------------|--------------7--5---]
{[---7-----------------|---5-----------------|---------------------]
{[---------------------|---------------------|---------------------] 
{[---------------------|---------------------|---------------------]
{
{[--5-0-5-7--8--7--5-0-|--5-0-5-7--8--7--5-0-|7-0--7--8--10-8--7--0]
{[---------------------|---------------------|---------------------]
{[---------------------|---------------------|---------------------]
{[---------------------|---------------------|---------------------]
{[---------------------|---------------------|---------------------] 
{[---------------------|---------------------|---------------------]
{
{[--8-0-8-10-12-10-8-0-|--8-0-8-10-12-10-8-0-|10-0-10-12-13-12-10-0]
{[---------------------|---------------------|---------------------]
{[---------------------|---------------------|---------------------]
{[---------------------|---------------------|---------------------]
{[---------------------|---------------------|---------------------] 
{[---------------------|---------------------|---------------------]

      ~~~~~~~~~~~ sl.       ~~~~~~~~~~~~~~~       ~~~~~~~~~~~~~~~
{[------------------/--|---------------------|---------------------]
{[-----------------/---|---------------------|---------------------]
{[---4---------(4)/----|---------------------|---------------------]
{[---------------------|---7-----------------|---5-----------------] 
{[---------------------|---------------------|---------------------]
{[---------------------|---------------------|---------------------]
{
{[10-8--7--8--8--7--5-0|--5-0-5-7--8--7--5-0-|--5-0-5-7--8--7--5-0-]
{[---------------------|---------------------|---------------------]
{[---------------------|---------------------|---------------------]
{[---------------------|---------------------|---------------------] 
{[---------------------|---------------------|---------------------]
{[---------------------|---------------------|---------------------]
{
{[13-12-10-12-12-10-8-0|--8-0-8-10-12-10-8-0-|10-0-10-12-13-12-10-0]
{[---------------------|---------------------|---------------------]
{[---------------------|---------------------|---------------------]
{[---------------------|---------------------|---------------------] 
{[---------------------|---------------------|---------------------]
{[---------------------|---------------------|---------------------]

    ^  ^  ^                 ~~~~~sl.  sl.
{[---------------------|---------------------|
{[---------------------|---------------------|
{[--5--5--5--5---------|-----------/--------9|
{[--------------7--5---|--6----(6)/--x/10----|
{[---------------------|---------------------|
{[---------------------|---------------------|
{
{[7-0--7--8--10-8--7--0|10-8--7--8--8--7--5-0|
{[---------------------|---------------------|
{[---------------------|---------------------|
{[---------------------|---------------------|
{[---------------------|---------------------|
{[---------------------|---------------------|
{
{[10-0-10-12-13-12-10-0|13-12-10-12-12-10-8-0|
{[---------------------|---------------------|
{[---------------------|---------------------|
{[---------------------|---------------------|
{[---------------------|---------------------|
{[---------------------|---------------------|

       ~~~~  sl.            ~~~~~~~~           ^  ^  ^
{[---------------------|---------------------|-12-12-12-12---------]
{[---10----------------|--13------------13---|--------------15--13-]
{[----------------14---|------------14-------|---------------------]
{[----------x/14-------|---------------------|---------------------]
{[---------------------|---------------------|---------------------] 
{[---------------------|---------------------|---------------------]
{
{[--5-0-5-7--8--7--5-0-|--5-0-5-7--8--7--5-0-|7-0--7--8--10-8--7--0]
{[---------------------|---------------------|---------------------]
{[---------------------|---------------------|---------------------]
{[---------------------|---------------------|---------------------]
{[---------------------|---------------------|---------------------] 
{[---------------------|---------------------|---------------------]
{
{[--8-0-8-10-12-10-8-0-|--8-0-8-10-12-10-8-0-|10-0-10-12-13-12-10-0]
{[---------------------|---------------------|---------------------]
{[---------------------|---------------------|---------------------]
{[---------------------|---------------------|---------------------]
{[---------------------|---------------------|---------------------] 
{[---------------------|---------------------|---------------------]
 
       sl.
       ~~~~~~~              ~~~~~  sl.            ~~~~~~~~
{[---------------------|---------------------|---------------------]
{[---------------------|---10----------------|--13------------13---]
{[---13\------------9--|----------------14---|------------14-------]
{[------\-----x/10-----|----------x/14-------|---------------------] 
{[-------\-------------|---------------------|---------------------]
{[---------------------|---------------------|---------------------]
{
{[10-8--7--8--8--7--5-0|--5-0-5-7--8--7--5-0-|--5-0-5-7--8--7--5-0-]
{[---------------------|---------------------|---------------------]
{[---------------------|---------------------|---------------------]
{[---------------------|---------------------|---------------------] 
{[---------------------|---------------------|---------------------]
{[---------------------|---------------------|---------------------]
{
{[13-12-10-12-12-10-8-0|--8-0-8-10-12-10-8-0-|10-0-10-12-13-12-10-0]
{[---------------------|---------------------|---------------------]
{[---------------------|---------------------|---------------------]
{[---------------------|---------------------|---------------------] 
{[---------------------|---------------------|---------------------]
{[---------------------|---------------------|---------------------]

*4 guitars
{[---12-10-8-----------|---------------------|
{[-----------12-10-8---|---------------------|
{[---------------------|-10--9--7------------|
{[---------------------|-----------10--9--7--|
{[---------------------|---------------------|
{[---------------------|---------------------|
{
{[---8--7--5-----------|---------------------|
{[-----------8--6--5---|---------------------|
{[---------------------|--7--5--4------------|
{[---------------------|------------7--5--3--| 
{[---------------------|---------------------|
{[---------------------|---------------------|
{
{[7-0--7--8--10-8--7--0|10-8--7--8--8--7--5-0|
{[---------------------|---------------------|
{[---------------------|---------------------|
{[---------------------|---------------------|
{[---------------------|---------------------|
{[---------------------|---------------------|
{
{[10-0-10-12-13-12-10-0|13-12-10-12-12-10-8-0|
{[---------------------|---------------------|
{[---------------------|---------------------|
{[---------------------|---------------------| 
{[---------------------|---------------------|
{[---------------------|---------------------|

interlude b:
*2 guitars
                                                 1
     sl.                   sl.                 (pre)
{[---------------------|---------------------|---------------------]
{[---------------------|--6/8------7---------|--10b---10-----8-----]
{[--2/4----2-----------|----------------7----|---------------------]
{[---------------4-----|---------------------|---------------------]
{[---------------------|---------------------|---------------------]
{[---------------------|---------------------|---------------------]
{    sl.                   sl.                  1/2
{[---------------------|---------------------|---------------------]
{[---------------------|---------------------|---7b----7-----5-----]
{[---------------------|--7/9------7---------|---------------------]
{[--3/5----4-----------|----------------9----|---------------------]
{[---------------5-----|---------------------|---------------------]
{[---------------------|---------------------|---------------------]

      ~~~~~~~~~~~~~~~~     sl.                   sl.
{[---------------------|---------------------|---------------------]
{[---7-----------------|---------------------|--8/10-----9---------]
{[---------------------|--4/6----4-----------|----------------9----]
{[---------------------|---------------6-----|---------------------]
{[---------------------|---------------------|---------------------]
{[---------------------|---------------------|---------------------]
{     ~~~~~~~~~~~~~~~~     sl.                   sl.
{[---------------------|---------------------|---------------------]
{[---------------------|---------------------|---------------------]
{[---7-----------------|---------------------|--9/11-----9---------]
{[---------------------|--5/7----6-----------|----------------11---]
{[---------------------|---------------7-----|---------------------]
{[---------------------|---------------------|---------------------]

     1
   (pre)                     ~~~~~~~~~~~~~~~     sl.
{[---------------------|---------------------|---------------------]
{[--15b----15----14----|---12----------------|--6/8-----7----------]
{[---------------------|---------------------|----------------7----]
{[---------------------|---------------------|---------------------]
{[---------------------|---------------------|---------------------]
{[---------------------|---------------------|---------------------]
{    1                      ~~~~~~~~~~~~~~~~     sl.
{[---------------------|---------------------|---------------------]
{[--12b----12----10----|---9-----------------|--6/8-----7----------]
{[---------------------|---------------------|----------------7----]
{[---------------------|---------------------|---------------------]
{[---------------------|---------------------|---------------------]
{[---------------------|---------------------|---------------------]

                                             First time[*************
                                                   ~~~~~~sl.~~~~~~~
{[---------------------|---------------------|---------------------]
{[---8-----7-----------|---8-----7-----------|---------------------]
{[---------------7-----|---------------7-----|----5-------\--------]
{[---------------------|---------------------|-------------\-------]
{[---------------------|---------------------|--------------\------]
{[---------------------|---------------------|---------------------]
{                                                  ~~~~~~~~~~~~~~~~
{[---------------------|---------------------|---------------------]
{[---------------7-----|--------------7------|----8----------------]
{[---5-----7-----------|---5-----7-----------|---------------------]
{[---------------------|---------------------|---------------------]
{[---------------------|---------------------|---------------------]
{[---------------------|---------------------|---------------------]

********************************************************************

{[---------------------|---------------------|---------------------]
{[---------------------|--6/8------7---------|--10b---10-----8-----]
{[--2/4----2-----------|----------------7----|---------------------]
{[---------------4-----|---------------------|---------------------]
{[---------------------|---------------------|---------------------]
{[---------------------|---------------------|---------------------]
{    sl.                   sl.                  1/2
{[---------------------|---------------------|---------------------]
{[---------------------|---------------------|---7b----7-----5-----]
{[---------------------|--7/9------7---------|---------------------]
{[--3/5----4-----------|----------------9----|---------------------]
{[---------------5-----|---------------------|---------------------]
{[---------------------|---------------------|---------------------]

**********************]Second time
                           1
      ~~~~~~~~~~~~~~~~   (pre)~~~~~~~~~~~sl.     sl.
{[---------------------|--12b----------------|---------------------]
{[---7-----------------|-----------------\---|---------------------]
{[---------------------|------------------\--|--2/4----2-----------]
{[---------------------|-------------------\-|---------------4-----]
{[---------------------|---------------------|---------------------]
{[---------------------|---------------------|---------------------]
{     ~~~~~~~~~~~~~~~~     1~~~~~~~~~~~~~sl.     sl.
{[---------------------|--13b----------------|---------------------]
{[---------------------|-----------------\---|---------------------]
{[---7-----------------|------------------\--|---------------------]
{[---------------------|-------------------\-|--3/5----4-----------]
{[---------------------|---------------------|---------------5-----]
{[---------------------|---------------------|---------------------]

                           1                     
     sl.                 (pre)                    ~~~~~~~~~~~~~~~~
{[---------------------|---------------------|---------------------]
{[--6/8------7---------|--10b---10-----8-----|---7-----------------]
{[----------------7----|---------------------|---------------------]
{[---------------------|---------------------|---------------------]
{[---------------------|---------------------|---------------------]
{[---------------------|---------------------|---------------------]
{                         1/2                     ~~~~~~~~~~~~~~~~
{[---------------------|---------------------|---------------------]
{[---------------------|---7b----7-----5-----|---------------------]
{[--7/9------7---------|---------------------|---7-----------------]
{[----------------9----|---------------------|---------------------]
{[---------------------|---------------------|---------------------]
{[---------------------|---------------------|---------------------]

interlude c:
      ~~~~~~~~~~~~~~~       sl.~~~~~~~~~~~~
{[---------------------|---------------------|---------------------]
{[---------------------|---8/10--------------|-10-10-10-10--8------]
{[---5-----------------|---------------------|----------------10---]
{[---------------------|---------------------|---------------------]
{[---------------------|---------------------|---------------------]
{[---------------------|---------------------|---------------------]
{      sl.~~~~~~~~~~         ~~~~~~~~~~~~~~
{[--------/------------|---------------------|---------------------]
{[-------/-------------|---------------------|--5--5--5--5---------]
{[---2--/--------------|----5----------------|--------------7--5---]
{[---------------------|---------------------|---------------------]
{[---------------------|---------------------|---------------------]
{[---------------------|---------------------|---------------------]

       sl.~~~~~~~~~~         ~~~~~~~~~~~~~~~      sl.~~~~~~~~~~~~
{[---------------------|---------------------|---------------------]
{[---------------------|---------------------|---8/10--------------]
{[---9--\--------------|----5----------------|---------------------]
{[-------\-------------|---------------------|---------------------]
{[--------\------------|---------------------|---------------------]
{[---------------------|---------------------|---------------------]
{      sl.~~~~~~~~~~         ~~~~~~~~~~~~~sl.      ~~~~~~~~~~~~~~
{[---------------------|---------------------|---------------------]
{[---------------------|-------------------/-|---------------------]
{[---4--\--------------|----2-------------/--|----5----------------]
{[-------\-------------|---------------------|---------------------]
{[--------\------------|---------------------|---------------------]
{[---------------------|---------------------|---------------------]

                             sl.~~~~ sl.            ~~~~   sl.
{[---------------------|---------------------|---------------------]
{[-10-10-10-10--8------|---------------------|----10---------------]
{[----------------10---|---9--\-----------9--|------------------14-]
{[---------------------|-------\----x/10-----|------------x/14-----]
{[---------------------|--------\------------|---------------------]
{[---------------------|---------------------|---------------------]
{                           ~~~~sl.  sl.           ~~~~    sl.
{[---------------------|---------------------|---------------------]
{[--5--5--5--5---------|---------------------|----5----------------]
{[--------------7--5---|---------/--------5--|------------------9--]
{[---------------------|---6----/---x/7------|------------x/10-----]
{[---------------------|---------------------|---------------------]
{[---------------------|---------------------|---------------------]

      ~~~~~~                                      ~~~~~   sl.
{[---------------------|-12-12-12-12---------|---------------------]
{[--13-----------------|--------------15-13--|---------------------]
{[------------14--12---|---------------------|--13--------------9--]
{[---------------------|---------------------|-----------x/10------]
{[---------------------|---------------------|---------------------]
{[---------------------|---------------------|---------------------]
{     ~~~~~~                                     ~~~~~~   sl.
{[---------------------|---------------------|---------------------]
{[--10-----------------|-10-10-10-10--8------|---------------------]
{[------------10--9----|-----------------10--|--9---------------5--]
{[---------------------|---------------------|-----------x/7-------]
{[---------------------|---------------------|---------------------]
{[---------------------|---------------------|---------------------]

      ~~~~~~sl. sl.         ~~~~~~              sl.
{[----------/----------|---------------------|-x/12--10--8---------]
{[--10-----/-----------|--13-----------------|-------------12-10-8-]
{[------------------14-|-------------14--12--|---------------------]
{[-------------x/14----|---------------------|---------------------]
{[---------------------|---------------------|---------------------]
{[---------------------|---------------------|---------------------]
{    ~~~~~~~sl. sl.         ~~~~~~
{[----------/----------|---------------------|-x/8----7--5---------]
{[--5------/-----------|--10-----------------|--------------8-6-5--]
{[-------------------9-|-------------10---9--|---------------------]
{[-------------x/10----|---------------------|---------------------]
{[---------------------|---------------------|---------------------]
{[---------------------|---------------------|---------------------]

{[---------------------||   GOTO ###
{[---------------------||
{[-10--9--7------------||
{[-----------10--9--7--||
{[---------------------||
{[---------------------||
{
{[---------------------||
{[---------------------||
{[--7--5--4------------||
{[------------7--5--3--||
{[---------------------||
{[---------------------||


@@@
1 guitar
[---------------------|---------------------|---------------------]
[---------------------|---------------------|---------------------]
[---------------------|---7-----------------|--7-----6------7-----]
[---2-----------------|---7-----------------|--7-----6------7-----]
[---2-----------------|---5-----------------|--5-----4------5-----]
[---0-----------------|---------------------|---------------------]

[---------------------|---------------------|---------------------]
[---------------------|---------------------|---------------------]
[---9-----------------|--9-----8------9-----|---5-----------------]
[---9-----------------|--9-----8------9-----|---5-----------------]
[---7-----------------|--7-----6------7-----|---3-----------------]
[---------------------|---------------------|---------------------]

[---------------------|---------------------|------0--------------]
[---------------------|---------------------|------0--------------]
[--5-----4------5-----|---------------------|---------------------]
[--5-----4------5-----|---5-----------------|--2------------------]
[--3-----2------3-----|---5-------5---------|--2------------------]
[---------------------|---3-------2---------|--0------------------]

[---------------------|---------------------|---------------------]
[---------------------|---------------------|---------------------]
[---7-----------------|--7-----6------7-----|---9-----------------]
[---7-----------------|--7-----6------7-----|---9-----------------]
[---5-----------------|--5-----4------5-----|---7-----------------]
[---------------------|---------------------|---------------------]

[---------------------|---------------------|---------------------]
[---------------------|---------------------|---------------------]
[--9-----8------9-----|---5-----------------|--5-----4------5-----]
[--9-----8------9-----|---5-----------------|--5-----4------5-----]
[--7-----6------7-----|---3-----------------|--3-----2------3-----]
[---------------------|---------------------|---------------------]
       ~~~      ~~~
[---------------------|---------------------||Repeat Riff A[--------] 
[---------------------|---------------------||             [--------]
[---------------------|--------9------------||             [--------]
[--5------------------|---2----9------------||             [---7-(7)]
[--5-------5----------|---2----7------------||             [---5-(5)]
[--3-(3)---2-(2)------|---0-----------------||             [--------]

5.THE DUELLISTS

INTRO

|---------------------------------------------------|-----------------
|---------------------------------------------------|-----------------
|---------------------------------------------------|-----------------
|-9-{9}-{9}-{9}-{9}-{9}-{9}-{9}-{9}-{9}-{9}-{9}-{9}-|-{9}-{9}-{9}-{9}-
|-7-{7}-{7}-{7}-{7}-{7}-{7}-{7}-{7}-{7}-{7}-{7}-{7}-|-{7}-{7}-{7}-{7}-
|---------------------------------------------------|-----------------





|---------------|-------------------------------------------------|-----
|---------------|-------------------------------------------------|-----
|---------------|-------------------------------------------------|-----
|-{9}-{9}-5-5-5-|-{7}-{7}-{7}-{7}-{7}-{7}-{7}-{7}-{7}-{7}-{7}-{7}-|-{7}-
|-{7}-{7}-3-3-3-|-{5}-{5}-{5}-{5}-{5}-{5}-{5}-{5}-{5}-{5}-{5}-{5}-|-{5}-
|---------------|-------------------------------------------------|-----





|---------------------------|--------------------------------------------
|---------------------------|--------------------------------------------
|---------------------------|--------------------------------------------
|-{7}-{7}-{7}-{7}-{7}-7-7-7-|--9-{9}-{9}-{9}-{9}-{9}-{9}-{9}-{9}-{9}-{9}-
|-{5}-{5}-{5}-{5}-{5}-5-5-5-|--7-{7}-{7}-{7}-{7}-{7}-{7}-{7}-{7}-{7}-{7}-
|---------------------------|--------------------------------------------





|---------|-------------------------------|-----------------------------
|---------|-------------------------------|-----------------------------
|---------|-------------------------------|-----------------------------
|-{9}-{9}-|-{9}-{9}-{9}-{9}-{9}-{9}-5-5-5-|-{7}-{7}-{7}-{7}-{7}-{7}-{7}-
|-{7}-{7}-|-{7}-{7}-{7}-{7}-{7}-{7}-3-3-3-|-{5}-{5}-{5}-{5}-{5}-{5}-{5}-
|---------|-------------------------------|-----------------------------





|---------------------|-------------------------------|----------------
|---------------------|-------------------------------|----------------
|---------------------|-------------------------------|----------------
|-{7}-{7}-{7}-{7}-{7}-|-{7}-{7}-{7}-{7}-{7}-{7}-7-7-7-|--9-{9}-{9}-{9}-
|-{5}-{5}-{5}-{5}-{5}-|-{5}-{5}-{5}-{5}-{5}-{5}-5-5-5-|--7-{7}-{7}-{7}-
|---------------------|-------------------------------|----------------





|-------------------------------------|-------------------------------
|-------------------------------------|-------------------------------
|-------------------------------------|-------------------------------
|-{9}-{9}-{9}-{9}-{9}-{9}-{9}-{9}-{9}-|-{9}-{9}-{9}-{9}-{9}-{9}-5-5-5-
|-{7}-{7}-{7}-{7}-{7}-{7}-{7}-{7}-{7}-|-{7}-{7}-{7}-{7}-{7}-{7}-3-3-3-
|-------------------------------------|-------------------------------





|-------------------------------------------------|---------------------
|-------------------------------------------------|---------------------
|-------------------------------------------------|---------------------
|-{7}-{7}-{7}-{7}-{7}-{7}-{7}-{7}-{7}-{7}-{7}-{7}-|-{7}-{7}-{7}-{7}-{7}-
|-{5}-{5}-{5}-{5}-{5}-{5}-{5}-{5}-{5}-{5}-{5}-{5}-|-{5}-{5}-{5}-{5}-{5}-
|-------------------------------------------------|---------------------





|-----------|--
|-----------|--
|-----------|--
|-{7}-7-7-7-|--
|-{5}-5-5-5-|--
|-----------|--


VERSE
   He threw...       mistake of....        you're gone...
|----------------------|----------------------|-----------------|-----
|----------------------|----------------------|-----------------|-----
|----------------------|----------------------|-----------------|-----
|--9---------9---------|-9----------9---------|-5---------------|-7---
|--7-7-7-7-7-7-7-7-7-7-|-7-7-7-7-7--7-7-7-7-7-|-3-3-3-3-3-3-3-3-|-5-5-
|----------------------|----------------------|-----------------|-----




                           The choosing...       swords...
|---------------------|------------------------|----------------------
|---------------------|------------------------|----------------------
|---------------------|------------------------|----------------------
|---------------------|----9---------9---------|-9----------9---------
|-5-5-5-5-5-5-5-5-5-5-|----7-7-7-7-7-7-7-7-7-7-|-7-7-7-7-7--7-7-7-7-7-
|---------------------|------------------------|----------------------




  done...
|-----------------|-------------------------|---
|-----------------|-------------------------|---
|-----------------|-------------------------|---
|-5---------------|-7-----------------------|---
|-3-3-3-3-3-3-3-3-|-5-5-5-5-5-5-5-5-5-5-5-5-|---
|-----------------|-------------------------|---



PRE-CHORUS
    He'll tear..     As soon...      You know... have a...
|-------------------------------------------------------|-------------
|-------------------------------------------------------|-------------
|-------------------------------------------------------|-------------
|----12-12-12-12-12--12-12-12-12-12--9-9-9-9-9--7-7-7-7-|-5-5-5-5-5-5-
|----10-10-10-10-10---9--9--9--9--9--7-7-7-7-7--5-5-5-5-|-3-3-3-3-3-3-
|-------------------------------------------------------|-------------





|-------------|-----------------------|-
|-------------|-----------------------|-
|-------------|-----------------------|-
|-5-5-5-5-5-5-|-7-7-7-7-7-7-7-7-7-7-7-|-
|-3-3-3-3-3-3-|-5-5-5-5-5-5-5-5-5-5-5-|-
|-------------|-----------------------|-

CHORUS
 Oh...            Fight...honour         Fight...splendour         Fight...
|-------|---------0-----|----------|-----0-----|-------------|-----0-------|
|-------|-----------4---|----------|-------4---|-------------|-------0-----|
|-2-----|--4----------4-|-2--------|-4-------4-|-0-------0---|-2-------2---|
|-2-----|--4------------|-2--------|-4---------|-0-------0-4-|-2-----------|
|-0-----|--2------------|-0--------|-2---------|-x-----------|-0-----------|
|-------|---------------|----------|-----------|-3-----------|-------------|

  Pleausre...    Oh...              Fight...honour      Fight...splendour
|-------------|-------0------|------0-----|------|------0-----|------------|
|-------------|---------4----|--------0---|------|--------4---|------------|
|-0-------0---|--2--------2--|-4--------4-|-2----|-4--------4-|-0-----0----|
|-0-------0-4-|--2-----------|-4----------|-2----|-4----------|-0-----0--4-|
|-x-----------|--0-----------|-2----------|-0----|-2----------|-x----------|
|-3-----------|--------------|------------|------|------------|-3----------|

      Fight for your life
|--------------|-----------|-------|
|--------------|-----------|-------|
|-2------------|-----------|-------|
|-2------------|-----------|-------|
|-0------------|-----------|-------|
|----2---3---5-|--3--2--0--|-(0)---|


INTERLUDE
  Guitar 1
|------------------------------------|-------------------------------------|
|15-13-12-15-13-12-15-13-12-15-13-12-|-15-13-12-15-13-12-15-13-12-15-13-12-|
|------------------------------------|-------------------------------------|
|------------------------------------|-------------------------------------|
|------------------------------------|-------------------------------------|
|------------------------------------|-------------------------------------|
|                                                                          |
| Guitar 2                                                                 |
|------------------------------------|-------------------------------------|
|12-10-8--12-10-8--12-10-8--12-10-8--|-12-10-8--12-10-8--12-10-8--12-10-8--|
|------------------------------------|-------------------------------------|
|------------------------------------|-------------------------------------|
|------------------------------------|-------------------------------------|
|------------------------------------|-------------------------------------|



  Guitar 1
|------------------------------------|-------------------------------------|
|13-12-10-13-12-10-13-12-10-13-12-10-|-13-12-10-13-12-10-13-12-10-13-12-10-|
|------------------------------------|-------------------------------------|
|------------------------------------|-------------------------------------|
|------------------------------------|-------------------------------------|
|------------------------------------|-------------------------------------|
|                                                                          |
| Guitar 2                                                                 |
|------------------------------------|-------------------------------------|
|10-8--7--10-8--7--10-8--7--10-8--7--|-10-8--7--10-8--7--10-8--7--10-8--7--|
|------------------------------------|-------------------------------------|
|------------------------------------|-------------------------------------|
|------------------------------------|-------------------------------------|
|------------------------------------|-------------------------------------|




  Guitar 1
|------------------------------------|-------------------------------------|
|15-13-12----12-13-15-13-12----12-13-|-15-13-12----12-13-15-13-12----12-13-|
|---------14----------------14-------|----------14----------------14-------|
|------------------------------------|-------------------------------------|
|------------------------------------|-------------------------------------|
|------------------------------------|-------------------------------------|
|                                                                          |
| Guitar 2                                                                 |
|------------------------------------|-------------------------------------|
|10-8--7-----7--8--10-8--7-----8--10-|-10-8--7-----7--8--10-8--7-----8--10-|
|---------9-----------------9--------|----------9-----------------9--------|
|------------------------------------|-------------------------------------|
|------------------------------------|-------------------------------------|
|------------------------------------|-------------------------------------|


  Guitar 1
|------------------------------------|-------------------------------------|
|15-13-12-15-13-12-15-13-12-15-13-12-|-15-13-12-15-13-12-15-13-12-15-13-12-|
|------------------------------------|-------------------------------------|
|------------------------------------|-------------------------------------|
|------------------------------------|-------------------------------------|
|------------------------------------|-------------------------------------|
|                                                                          |
| Guitar 2                                                                 |
|------------------------------------|-------------------------------------|
|12-10-8--12-10-8--12-10-8--12-10-8--|-12-10-8--12-10-8--12-10-8--12-10-8--|
|------------------------------------|-------------------------------------|
|------------------------------------|-------------------------------------|
|------------------------------------|-------------------------------------|
|------------------------------------|-------------------------------------|


REPEAT INTERLUDE(w/bass and drum fills)


HARMONIES(w/INTERLUDE played underneath)
  Guitar 1
|----|-------------|-----|-------------|------------|---------|------------|
|-8--|-(8)~~~~-7^8-|-7---|-(7)~~~~-5^7-|-5~~~~--3^5-|-3-------|------------|
|----|----------H--|-----|----------H--|---------H--|----4--2-|-4^2--------|
|----|-------------|-----|-------------|------------|---------|--P---5-----|
|----|-------------|-----|-------------|------------|---------|------------|
|----|-------------|-----|-------------|------------|---------|------------|
|                                                                          |
| Guitar 2                                                                 |
|----|-------------|-----|-------------|------------|---------|------------|
|----|-------------|-----|-------------|------------|---------|------------|
|-9--|-(9)~~~~-7^9-|-7---|-(7)~~~~-4^7-|-4~~~~--2^4-|-2-------|------------|
|----|----------H--|-----|----------H--|---------H--|----5--4-|-5^4--2-----|
|----|-------------|-----|-------------|------------|---------|--P---------|
|----|-------------|-----|-------------|------------|---------|------------|

REPEAT HARMONIES W/INTERLUDE

SOLO #1(w/Rythm guitar doing gallop rythm on E chord)
(end of
INTERLUDE)
|------------|----------------|--------------------------------------------|
|-13/(15)\12-|-12-------------|--------------------------------------------|
|---B-R------|-----14/(16)~~~\|-14--12^14^12\11-12^11^12^11^12^11\9--------|
|------------|-------B-------R|-------H--P--S-----P--H--P--H--P--S---------|
|------------|----------------|--------------------------------------------|
|------------|----------------|--------------------------------------------|

|------------------------------|-------------slow-|------------|-----------|
|------------------------------|-----------release|------------|----5------|
|-^11^9^11^9\7^9^7--14/(16)\12-|--------12/(14)\12|----11/(12)\|11----7/(9)|
|-H--P-H--P-S-H-P-----B----R---|-14---x---B----R--|---x--------|-------B---|
|------------------------------|-----x------------|--x---------|-----------|
|------------------------------|----x-------------|------------|-----------|
                                       rake

|-----------------------------|--------------------------12----|
|-\7--5-------7---7---------8-|---8-------10--14/(16)-12-------|
|-R-----9/(11)------10/(12)---|----12/(14)------B--------------|
|--------B------------B-------|------B-------------------------|
|-----------------------------|--------------------------------|
|-----------------------------|--------------------------------|


|-15/(17)-15-12---------------------------12-|15/(17)-15-12----------------
|---B-----------12-15/(17)\-12---------12----|--B-----------12-15/(17)-----
|--------------------B----R----14/(16)-------|-------------------B---------
|--------------------------------B-----------|-----------------------------
|--------------------------------------------|-----------------------------
|--------------------------------------------|-----------------------------

|-14-17----|-----------------------------|--------15-|
|-------15-|-7^8^7-----------------------|-----------|
|----------|--H-P--9-7\5/(6)-------------|-----------|
|----------|----------S-B----9-7-5-4-5-7-|-5--5\-----|
|----------|-----------------------------|-----S-----|
|----------|-----------------------------|-----------|


|-17-14-15-12-14----12---------------|--------------------------------------
|----------------15----13-15-12-13---|-12-----------------------------------
|----------------------------------14|----12-14-11-12----11^12^11-----------
|------------------------------------|----------------14---H--P---14--------
|------------------------------------|--------------------------------------
|------------------------------------|--------------------------------------

|-11^12^11-|-------------|-----------|
|---H--P---|-15/(17)~~~~~|~~~~~~~~~~-|
|----------|---B---------|-----------|
|----------|-------------|-----------|
|----------|-------------|-----------|
|----------|-------------|-----------|



SECOND INTERLUDE
  Guitar 1
|--------|----------------|---------|---10---------|--------|-------------|
|-10/12~~|~~--10-12/(14)--|-12~~~~~-|~~-----14-10--|-10/12~~|~-10-12/(14)-|
|---S----|---------B------|---------|--------------|---S----|-------B-----|
|--------|----------------|---------|--------------|--------|-------------|
|--------|----------------|---------|--------------|--------|-------------|
|--------|----------------|---------|--------------|--------|-------------|
|                                                                         |
| Guitar 2                                                                |
|--------|----------------|---------|--------------|--------|-------------|
|--5/7~~-|~~---5--7/(9)---|-7~~~~~~-|~~---8--7--5--|--5/7~~~|~--5--7/(9)--|
|---S----|---------B------|---------|--------------|---S----|-------B-----|
|--------|----------------|---------|--------------|--------|-------------|
|--------|----------------|---------|--------------|--------|-------------|
|--------|----------------|---------|--------------|--------|-------------|

| Guitar 1
|-----|10/(12)-10-9---------|--------|------------|-----|------------------|
|-12~~|--B----------12-10-8-|-10/12~~|~~10 12/(14)|12~~-|-10-8-7------7----|
|-----|---------------------|---S----|-------B----|-----|--------9~-9------|
|-----|---------------------|--------|------------|-----|------------------|
|-----|---------------------|--------|------------|-----|------------------|
|-----|---------------------|--------|------------|-----|------------------|
|                                                                          |
| Guitar 2                                                                 |
|-----|---------------------|--------|------------|-----|------------------|
|-7~~~|-10/(12)-10-8--7-5---|--5/7~~~|~~-5-7/(9)--|-7~~~|-7--6-------------|
|-----|---B---------------7-|---S----|------B-----|-----|-------9--7-------|
|-----|---------------------|--------|------------|-----|------------------|
|-----|---------------------|--------|------------|-----|------------------|
|-----|---------------------|--------|------------|-----|------------------|


SOLO #2(rythm guitar chords shown below solo)

|------------|-------------------|------------------------------|
|-10--\(9)/--|-9/(11)-9--7-------|------------------------------|
|-----tremelo|--B----------9---7-|-AH--7/(8)------------9/(11)--|
|-------bar--|---------------9---|-9----B-----9-7--------B------|
|------------|-------------------|----------------9-8-7---------|
|------------|-------------------|------------------------------|
  B                       D   A/C   B

|------------------------|-7-----------7-----------7---------------|
|------------------------|-------------------------------------7---|
|-\(9)~~--7^9^7------7-9-|---10^9^7-10---10^9^7-10---10^9^7-10-----|
|-R--------H-P-----------|-----P-P---------P-P---------P-P---------|
|----------------8~~-----|-----------------------------------------|
|------------------------|-----------------------------------------|
                 D   A/C   B

|--------------------------7------|-10/(12)-10-7-------------|-------------|
|-10^7----7-10-7-10/(12)~~---10^7-|--------------10--9--7/(8)|-9~~~-9~~~\--|
|---P--10----------B-----------P--|------------------AH--B---|----------S--|
|---------------------------------|--------------------------|-------------|
|---------------------------------|--------------------------|-------------|
|---------------------------------|--------------------------|-------------|
                   D       A/C       B                             A/C   A

|--------7-10-7-9----7-|-----------------------------------|
|-9---10----------10---|-8-10-7-8--------------------------|
|----------------------|----------9-6/(7)\(6)/(7)\(6)/(7)\-|
|----------------------|-------------B---R---B---R---B---S-|
|----------------------|-----------------------------------|
|----------------------|-----------------------------------|
  A                                    D

|---------------------|-------------------------------|--------------|
|------AH------AH-----|-------------------------------|--------------|
|----7-9/(10)--9--7---|-6^7^6^7^6^7^6^7^6^7^6^7^6^7^6-|-6-----6------|
|-/9----B-----------9-|--H-P-H-P-H-P-H-P-H-P-H-P-H-P--|---7-----7----|
|-S-------------------|-------------------------------|-----9-----9--|
|---------------------|-------------------------------|--------------|
  B                                   D         A/C     B

|-------------------------|--------------------------------12/(14)-|
|-------------------------|-----------------------------10---------|
|-6-----6-----6-----6^7^9-|-6/(7)\(6)/(7)\(6)/(7)\--/11------------|
|---7-----7-----7----H-H--|--B---R---B---R---B---S--S--------------|
|-----9-----9-----9-------|----------------------------------------|
|-------------------------|----------------------------------------|
                D                                 A/C          A

                                  
|-------12/(14)--------12/(14)|12-10-12----10-|-15/(17)-15-14-12---------12|
|----10---B---------10---B----|---------12----|---B--------------15/(17)---|
|/11------------/11-----------|---------------|--------------------B-------|
|S--------------S-------------|---------------|----------------------------|
|-----------------------------|---------------|----------------------------|
|-----------------------------|---------------|----------------------------|
 B                                    D   A/C   B


|--------------14-|---------14-17-14----14---------14-17-14-------|
|-15/(17)--/16----|-17/(19)----------17----17/(19)----------17-14-|
|---B------S------|---B----------------------B--------------------|
|-----------------|-----------------------------------------------|
|-----------------|-----------------------------------------------|
|-----------------|-----------------------------------------------|
      A/C      A      A                      D

|---------14-17-14----14---------14-17-14^17^14----|
|-17/(19)----------17----17/(19)---------H--P---17-|
|---B----------------------B-----------------------|
|--------------------------------------------------|
|--------------------------------------------------|
|--------------------------------------------------|
                           D            A/C

|-14-------13---------------------|----------------------|
|----15---------------------------|--------------15-~~~--|
|-------16-----16-15-14-----------|-----14----14-14-~~~--|
|-----------------------16-15-14\-|-/16----16------------|
|-------------------------------S-|-S--------------------|
|---------------------------------|----------------------|
  D                                            D   A

THIRD INTERLUDE

| Guitar 1
|----------------|-------------|-------------|--------------|
|-12----10^12^10-|-8~~--10--12-|-10---8^10^8-|-7~~-8--10----|
|---------H--P---|-------------|-------H--P--|--------------|
|----------------|-------------|-------------|--------------|
|----------------|-------------|-------------|--------------|
|----------------|-------------|-------------|--------------|
|                                                           |
| Guitar 2                                                  |
|----------------|-------------|-------------|--------------|
|-8-----7^8^7----|-5~~---7---8-|-7-----5^7^5-|-3~~-5---7----|
|--------H-P-----|-------------|--------H-P--|--------------|
|----------------|-------------|-------------|--------------|
|----------------|-------------|-------------|--------------|
|----------------|-------------|-------------|--------------|


REPEAT THRID INTERLUDE
REPATE THIRD INTERLUDE W/Guitar 3 TWICE AGAIN

THIRD INTERLUDE Guitar 3

| Guitar 1
|-12---10^12^10--|-8~~--10--12-|-10----8^10^8|-7~~~--8--10--|
|--------H--P----|-------------|--------H--P-|--------------|
|----------------|-------------|-------------|--------------|
|----------------|-------------|-------------|--------------|
|----------------|-------------|-------------|--------------|
|----------------|-------------|-------------|--------------|



FOURTH INTERLUDE (Play Twice)

| Guitar 1
|---------|-------------------|---------|--------------------|
|---------|-------------------|---------|--------------------|
|-9-9-9-9-|-------------------|-5-5-5-5-|--------------------|
|-9-9-9-9-|-5/7-9-7-9/10--9-7-|-5-5-5-5-|------7---7/9-7-----|
|-7-7-7-7-|--S-------S--------|-3-3-3-3-|-7/9----9--S----9---|
|---------|-------------------|---------|--S-----------------|
|                                                            |
| Guitar 2                                                   |
|---------|-------------------|---------|--------------------|
|---------|-------------------|---------|--------------------|
|-9-9-9-9-|-------------------|-5-5-5-5-|--------------------|
|-9-9-9-9-|-2/4-5-4-5/6---5-4-|-5-5-5-5-|------4---4/5-4-----|
|-7-7-7-7-|--S-------S--------|-3-3-3-3-|-3/5----5--S----5---|
|---------|-------------------|---------|--S-----------------|
|                                                            |

6.BACK IN THE VILLAGE

Intro/Main Riff

--------------------------------------------------------------
-----------------5p2---2-4p2---2-----------------5p2---2-2~-
---------------------5--------5-----------------------5------
-----5-----4-------------------------5-----4-----------------
-0-0---0-0---0-0----------------0-0---0-0---0-0-------------
--------------------------------------------------------------

verse

--------------------------------------------------------------
-----------------5p2---2-4p2---2-----------------5p2---2-2~-
---------------------5--------5-----------------------5------
-----5-----4-------------------------5-----4-----------------
-0-0---0-0---0-0----------------0-0---0-0---0-0-------------
--------------------------------------------------------------

--------------------------------
-6---8--------------------------
-5---7--------------------------
-3---5--------------------------play twice
--------------------------------
--------------------------------

White flags shot to ribbons....

-------------------------------------------
-------------------------------------------
-7---3---0---5------7---3---0--2--2---2---
-7---3---5---5---7--7---3---5--2--4---2----
-5---1---2---3---4--5---1---2--0--0---0----
--------------------------------------------

chorus

----------------------------------------------------------------
----------------------------------------------------------------
-5-5-4p0-----5-5-4p0-----5-5-4p0------------------------------
---------3p0----------3p0---------3p0-3p0-----3p0-------------
-------------------------------------------3p0-----3p0---------
----------------------------------------------------------------

------------------------------------------
-5-5-4p0-----5-5-4p0----------------------
---------3p0----------3p0-5-5------------
--------------------------5--5--5--repeat-
--------------------------3--3--5---------
--------------------------------3---------

-------------------------------------------------------------------
-------------------------------------------------------------------
--------------0h5h7-----------------------------0h5h7-------5~~---repeat
---0h2p0h5h7--------0h5p0-----------0h2p0h5h7--------0h5h7-------
-0-------------------------5p0-----0-------------------------------
-------------------------------5p0---------------------------------

interlude

-5--5-----5---5-----8p5------------------------5-----------------------
--8---8p6---8---8p6-----6-6-5p3-6p3-6-5p3-6p3--6-3-6-5p3-6p3-6-5p3--
------------------------------------------------------------------------
------------------------------------------------------------------------
------------------------------------------------------------------------
------------------------------------------------------------------------

-----5------------------------------
-6p3---6-3-8p6-8p5-----8p6-8p5-----
--------------------7-5---------7-6-
------------------------------------
------------------------------------
------------------------------------

ending 2

--------------------------------
-8p6-8p5-----------------------
---------7---------------------
-----------6-------------------
-----------5h7-----------------
--------------------------------

solo rhythm

--------------------------------
--------------------------------
---8-7------7---5---0dive-------
---8-7------7---5---0----------
-0------------------------------
--------------------------------

But still we walk in.....

--------------------------------------------------
--------------------------------------------------
--------------------------------------------------
-9---------------7----------------repeat--then-7--
-7---------------5-----------------------------7--
-0-0-000000000-0--000000000000--------------5--

Outro repeat chorus

ends with

--------------------------------
-3-------------------------------
-2-------------------------------
-0-------------------------------
--------------------------------
--------------------------------

7.POWERSLAVE

Intro/Verse

----------------------------------------------------------------------------------
----------------------------------------------------------------------------------
----------------------------------------------------------------------------------
----------------------------------------------------------------------------------
-7-----------------------10------------------------8-7-------------------------10-
-5--5-5-5--5-5-5--5-5-5--8--5-5-5--5-5-5--5-5-5--6-5--5-5-5--5-5-5---5-5-5--8-----

-----------------------------------
-----------------------------------
-----------------------------------
-----------------------------------
---5-4-5-7-5h7p5-4h5p4-------------
-5----------------------6----------

Prechorus

------------------------------------------------
-5/13---9/10-9----6----5/13---9/10--9---6-------
------------------------------------------------
-2/10---6/7--6----3----2/10---6/7---6---3-------
------------------------------------------------
------------------------------------------------

Tell me why I had to be....
Chorus

----------------------------------------------------------------------------
----------------------------------------------------------------------------
-9--5--7--------------------------------------------------------------------
-9--5--7--------------------------------------------------------------------
-7--3--5--------------------------------------------------------------------
----------3p0-0-0-0--0-0-3p0--0-0-0-0-0-0h2-2-2-2h3-3-3-3h5-5-5-5-3-2-0-----

presolo

-0----------------------------------
-0----------------------------------
-0----------------------------------
-2----------------------------------
-2----------------------------------
-0----------------------------------

(clean sound)

----------------------------------
-----3-------3-------3------------
-------4-------4-------4----------
---4-------4-------4--------------(repeat)
-2-------2-------2-------2--0-----
----------------------------------

guitar solo 1

-------------------------------------------------------------------------------
-5/7-5h7p5/3/2--3p2~~~--2h3p2---------------------------------------------10/12
--------------------------------4/2/4---6-7-9-9br-p7/6h7p6---------7-9br-7-----
------------------------------------------------------------9---7-9------------
--------------------------------------------------------------9----------------
-------------------------------------------------------------------------------

------------------------------------------------------------9-10-9h10p9--------
-10h12p10--7h10p7-----------------------------------10-12--------------12-10-12
-------------------9-7h9p7/6---6/4--4----------9/11----------------------------
------------------------------9-------------7-9--------------------------------
------------------------------------------9------------------------------------
-------------------------------------------------------------------------------

-9-10-12-10-9h10p9------------------------------------------------10-9h10p9-------
--------------------10---------------------------------------10-12-----------12-10
-----------------------9/7-9br-7h9p7-6h7p6/4---------7-9/11-----------------------
--------------------------------------------------7-9------------------------------
------------------------------------------------9----------------------------------
-----------------------------------------------------------------------------------

-12b--12bp10-9h10p9-----------------------------------------------------------------
---------------------12----------------14h15-17-15-14h15p14-----15-14h15p14---------
--------------------------------14h16-------------------------16--------------16-14-
--------------------------14/16-----------------------------------------------------
------------------------------------------------------------------------------------
------------------------------------------------------------------------------------

--------------14-15-17-17br-17b-----17-15-14h15p14----14-15-17-15-14h15p14-----------
----14-15-17-----------------------------------------17-----------------------17-----
-16----------------------------------------------------------------------------------
-------------------------------------------------------------------------------------
-------------------------------------------------------------------------------------
-------------------------------------------------------------------------------------

-14h15p14----------------------------------------------------7---------7---------
-----------17-15-14h15p14-------------------------------------10----7---10p7-----
---------------------------16-14----------------------------------9b-------------
---------------------------------16-15-14/12-14p12-14p12-------------------------
---------------------------------------------------------------------------------
---------------------------------------------------------------------------------

---------------------------------
---------------------------------
-9p7-9-7-------------------------
---------9-7-9/------------------
---------------------------------
---------------------------------

Solo rhythm

----------------------------------------------------------------------
----------------------------------------------------------------------
---------------------------------------7-7-7-----2-----2-----2-2-2----
-4---4----4-4----4--4-----4--4-----5---7-7-7-----2-----2-----2-2-2----
-2-0-2--0-2-2--0-2--2--0--2--2-0---5---5-5-5-----0-----0-----0-0-0----
-------------------------------------3--------------3-----3-----------

Harmony interlude

-----------------------------------------------------------------------------
-----------------------------------------------------------------------------
-----------------------------------------------------------------------------
-------4-5-4--------------4-5-4---7/9-7~~-----7-9-7h9p7----------------4-5-4-
-5~~-7-------7-4-5~~---7-------7-----------10-----------10-7-9~~--5-7--------
-----------------------------------------------------------------------------

-----------------------------------
-----------------------------------
-----------------------------------(repeat)
-----------------------------------
-7-4-5~~---------------------------
-----------------------------------

Solo outro

------------------------------------------
------------------------------------------
-10-9----8-7---5-4------------------------
-10-9----8-7---5-4---5-2------------------
--8-7----6-5---3-2---5-2------------------
---------------------3-0------------------

Outro to song
Slave to the power of death....

--------------------------------------------------------------------
--------------------------------------------------------------------
-5--7--------------------------------------5-7-7-7-9----------------
-5--7--------------------------------------5-7-7-7-9-(trem picking)-
-3--5--------------------------------------3-5-5-5-7----------------
--------3p0-0-0-0-0---0-0-3p0-0-0-0-0-0-----------------------------

----------------------------------------------------------------------------------
-----------------------5/6--5/6---9/6---9-10--13--12/13/12-10--9/10/9--6/9/6--5---
----------------------------------------------------------------------------------
----------------3--3---2/3--2/3---6/3---6--7--10---9/10/9---7---6/7/6---3/6/3--2--
----------------3--3--------------------------------------------------------------
-5-4-5-7-5-4----1--1--------------------------------------------------------------

------------------
------------------
--9/--------------
--9/--------------
--7/--------------
------------------
thats all folks!!

8.RIME OF THE ANCIENT MARINER

Chords used:
A5 : [x022xx] E5 : [x79xxx] 
C5 : [x355xx] F5 : [133xxx] 
D5 : [x577xx] F#5 : [244xxx] 
Eb5 : [x688xx] G5 : [355xxx] 
Csus2: [x35533]
[Intro]: 
e:-------------|------------------------------------------------| 
B:-------------|------------------------------------------------| 
G:-------------|------------------------------------5---7---9\--| etc. 
D:--5^4--------|-2------9------9------9------9------5---7---9\--| 
A:------7-5-7\-|-2------7------7------7------7------3---5---7\--| 
E:-------------|-0--0-0-0--0-0-0--0-0-0--0-0-0--0-0-------------| 
PM ----------------------------------| 
[Riff A]: 
e:----------------------------------------------------------------------| 
B:----------------------------------------------------------------------| 
G:----------------------------------------------------------------------| 
D:-5^4---4--5^4---4--5^4---4--5^4---4--5^4---4--5^4---4--5--5------4----| 
A:-----7--------7--------7--------7--------7--------7----------5^7---7\-| 
E:----------------------------------------------------------------------|
[Riff B]: 
e:------------------| 
B:------------------| 
G:------------------| 
D:--------4---------| 
A:---5^7----5^7-----| 
E:------------------|
Verse: (note that on the 'Live After Death' version, the guitars play 
between D5 and E5, I think to make the song more interesting)
E5 
Hear the rime of the Ancient Mariner, 
[Riff B] 
see his eye as he stops one of three 
E5 
Mesmerises one of the wedding guests - 
C5 [Riff B] E5 
Stay here and listen to the nightmares of the sea.
C5 
And the music plays on as the bride passes by 
D5 [Riff B]* E5 
Caught by his spell and the Mariner tells his tale.
(* = I would suggest faking that little fill on the studio version)
D5 E5 
Driven south the the land of the snow and ice, 
[Riff B] 
to a place where nobody's been.
E5 C5 
Through the snow fog flies on the albatross, hailed in God's name, 
[Riff B] E5 
hoping good luck it brings.
C5 
And the ship sails on, back to the north. 
D5 [Riff B] 
Through the fog and ice and the albatross follows on.
[Shanty A]: (Murray is left channel, Smith is right channel) >----. 
e:--------------------------------------------------------| \ 
B:--------------------------------------------------------|L | 
G:-------------------------7~-----------------------------|E / 
D:-9^7---7-9--9-9-9-7----7----9^7---7-9--9-9-9^7---7------|F <---/| 
A:----10--------------10---------10-------------10---9~---|T | 
E:--------------------------------------------------------| | 
| | | 
e:--------------------------------------------------------|R | 
B:--------------------------------------------------------|I <----/ 
G:------------------------4~------------------------------|G 
D:-5^4---4-5--5-5-5-4---4-----5^4---4-5--5-5-5^4---4------|H 
A:-----7--------------7-----------7--------------7---5~---|T 
E:--------------------------------------------------------|
e:----------------------------------------------------------| 
B:----------------------------------------------------------|L 
G:------------------------7~--------------------------------|E 
D:-9^7---7-9--9-9-9^7---7-----9^7---7-9--9-9-9--9------7----|F 
A:----10-------------10----------10----------------9^10--10\|T 
E:----------------------------------------------------------| 
| | 
e:----------------------------------------------------------|R 
B:----------------------------------------------------------|I 
G:------------------------4~--------------------------------|G 
D:-5^4---4-5--5-5-5^4---4-----5^4---4-5--5-5-5--5------4----|H 
A:-----7--------------7-----------7----------------5^7---7\-|T 
E:----------------------------------------------------------|
(lots of E5 power chordage)
e:--------------------------------------------------------------| 
B:--------------------------------------------------------------|L 
G:--------------------------------------------------------------|E 
D:-9^7---7-9--9-9-9^7---7-9~--12^10^9-10^12--12-12-12^10^9-10^12|F 
A:----10-------------10-----------------------------------------|T 
E:--------------------------------------------------------------| 
| | 
e:--------------------------------------------------------------|R 
B:--------------------------------------------------------------|I 
G:--------------------------------------------------------------|G 
D:-5^4---4-5--5-5-5^4---4-5~--7--5--4--5^7---7--7--7--5--4^5^7~-|H 
A:-----7--------------7-----------------------------------------|T 
E:--------------------------------------------------------------|
e:--------------------------------------------------------------| 
B:--------------------------------------------------------------|L 
G:--------------------------------------------------------------|E 
D:-9^7---7-9--9-9-9^7---7-9~-12^10^9-10^12--12-12-12-12-7^9^10^9|F 
A:----10-------------10-----------------------------------------|T 
E:--------------------------------------------------------------| 
| | 
e:--------------------------------------------------------------|R 
B:--------------------------------------------------------------|I 
G:--------------------------------------------------------------|G 
D:-5^4---4-5--5-5-5^4---4-5~--7^5^4-5^7------7--7--7-7------4---|H 
A:-----7--------------7---------------------------------5^7---7-|T 
E:--------------------------------------------------------------| 
(end Shanty A)
E5 [Riff B] 
The mariner kills the bird of good omen 
E5 [Riff B] 
His shipmates cry against what he's done 
E5 [Riff B] 
But when the fog clears they justify him
E5 
And make themselves a part of the crime.
C5 D5 
Sailing on and on and North across the
[Shanty B]: 
e:--------------------------------------------------------| 
B:--------------------------------------------------------|L 
G:-4--4-4-7^5^4---4--4-4---4~--4-4-7^5^4---4--4--4-4---4~-|E 
D:--------------7--------7---------------7-----------7----|F 
A:--------------------------------------------------------|T 
E:--------------------------------------------------------| 
| | 
e:--------------------------------------------------------|R 
B:--------------------------------------------------------|I 
G:--------------------------------------------------------|G 
D:--------5^4----------------------5^4--------------------|H 
A:-7--7-7-----7-5-7--7-7-5-7~--7-7-----7-5-7--7--7-7-5-7~-|T 
E:--------------------------------------------------------| C5 
sea... Sailing on and on and
D5 [Shanty B] 
North 'til all is calm.
E5 [Riff B] 
The albatross begins with its vengeance 
E5 [Riff B] 
A terrible curse, a thirst has begun 
E5 [Riff B] 
His shipmates blame bad luck on the Mariner 
About his neck the dead bird is hung.
C5 D5 [Shanty B] 
And the curse goes on and on and on at sea. 
C5 D5 [Shanty B] 
And the curse goes on and on for them and me.
E5 [Riff B] 
"Day after day, day after day we stuck nor breath nor motion. 
As idle as a painted ship upon a painted ocean.
D5 [Riff B] 
Water water everywhere, and all the boards did shrink
E5 [Riff A] (twice) 
Water water everywhere, nor any drop to drink." (S.T.Coleridge)
--- 
(this entire section will be repeated again below with different words)
E5 E5 
There, calls the mariner, there comes a ship over the
e:------------------------------------------------------------| 
B:------------------------------------------------------------|L 
G:------------------------------------------------------------|E 
D:------------------------------------------------------------|F 
A:-7-7-7-9-9-9-10-10-10-12^10^9--7-7-7-9-9-9-10-10-10-12^10^9-|T 
E:------------------------------------------------------------| 
| | 
e:------------------------------------------------------------|R 
B:------------------------------------------------------------|I 
G:------------------------------------------------------------|G 
D:------------------------------------------------------------|H 
A:------------------------------------------------------------|T 
E:-0-0-0-2-2-2--3-3--3--5--3--2--0-0-0-2-2-2--3-3--3--5--3--2-| 
line.
E5 E5 
But how can she sail with no wind in her sails and no
e:------------------------------------------------------------| 
B:------------------------------------------------------------|L 
G:------------------------------------------------------------|E 
D:------------------------------------------------------------|F 
A:-7-7-7-9-9-9-10-10-10-12^10^9--7-7-7-9-9-9-10-10-10-12^10^9-|T 
E:------------------------------------------------------------| 
| | 
e:------------------------------------------------------------|R 
B:------------------------------------------------------------|I 
G:------------------------------------------------------------|G 
D:------------------------------------------------------------|H 
A:------------------------------------------------------------|T 
E:-0-0-0-2-2-2--3-3--3--5--3--2--0-0-0-2-2-2--3-3--3--5--3--2-| 
tide.
Csus2 
e:---------------------------------------------------------| 
B:---------------------------------------------------------|L 
G:o-------------------------------------------------------o|E 
D:o-------------------------------------------------------o|F 
A:-3-3-3--3-3-3--3-3-3--3-3-3--3-3-3--3-3-3--3-3-3--3-3-3--|T 
E:---------------------------------------------------------| 
| | 
e:----------------------3--------------------3-------------|R 
B:---------------------3-----------------------3-----------|I 
G:--5-----------------5--------------------------5---------|G 
D:--5----------------------------------------------5-------|H 
A:--3----------------------------------------------3-------|T 
E:---------------------------------------------------------| 
See... Onward she comes...
A5 
e:---------------------------------------------------------| 
B:---------------------------------------------------------|L 
G:o-------------------------------------------------------o|E 
D:o-------------------------------------------------------o|F 
A:-----------0-0-0--0-0-0--0-0-0--0-0-0--0-0-0--0-0-0------|T 
E:---------------------------------------------------------| 
| | 
e:---------------------------------------------------------|R 
B:---------------------------------------------------------|I 
G:-----------2---------------2-----------------------------|G 
D:-----------2---------------2-----------------------------|H 
A:-----------0---------------0-----------------------------|T 
E:---------------------------------------------------------| 
Onward she nears out of the sun...
Csus2 
e:---------------------------------------------------------| 
B:---------------------------------------------------------|L 
G:o-------------------------------------------------------o|E 
D:o-------------------------------------------------------o|F 
A:-3-3-3--3-3-3--3-3-3--3-3-3--3-3-3--3-3-3--3-3-3--3-3-3--|T 
E:---------------------------------------------------------| 
| | 
e:----------------------3--------------------3-------------|R 
B:---------------------3-----------------------3-----------|I 
G:--5-----------------5--------------------------5---------|G 
D:--5----------------------------------------------5-------|H 
A:--3----------------------------------------------3-------|T 
E:---------------------------------------------------------| 
See... She has no crew...
A5 
e:---------------------------------------------------------| 
B:---------------------------------------------------------|L 
G:o-------------------------------------------------------o|E 
D:o-------------------------------------------------------o|F 
A:-----------0-0-0--0-0-0--0-0-0--0-0-0--0-0-0--0-0-0------|T 
E:---------------------------------------------------------| 
| | 
e:---------------------------------------------------------|R 
B:---------------------------------------------------------|I 
G:-----------2---------------------2-----------------------|G 
D:-----------2---------------------2-----------------------|H 
A:-----------0---------------------0-----------------------|T 
E:---------------------------------------------------------| 
She has no life, wait but there's two
---
(Now repeat entire above pattern with these lyrics)
E5 E5 
Death and she life in death, they throw their dice for the crew 
E5 E5 
She wins the mariner and he belongs to her now.
Csus2 A5 
Then... crew one by one, they drop down dead, two hundred men
Csus2 A5 
She, she life in death, she lets him live, her chosen one.

Now for some instrumental chords:
F#5 A5 E5 F5 G5 (Smith plays chords, Murray plays root-note triplets) 
F#5 A5 E5 F5 G5
--- 
Play this part a total of four times (follow the left/right channels all 
the way through to the ending C5 and Eb5 chords, then return to the 
start) but the last time, skip the C5 and Eb5 and end on the little fill 
before the quiet part.
E5 
e:-------------------------------------------------------| 
B:-------------------------------------------------------|L 
G:o------------------------------------------------------|E 
D:o---------------------------------------7-7-7-7--------|F 
A:-10^7-7-7-7-7-10^7-7-7-7-7-10^7-7-7-7-7---------10-9---|T 
E:-------------------------------------------------------| 
| | 
e:-------------------------------------------------------|R 
B:-------------------------------------------------------|I 
G:o------------------------------------------------------|G 
D:o------------------------------------------------------|H 
A:-------------------------------------------------------|T 
E:--3^0-0-0-0-0--3^0-0-0-0-0--3^0-0-0-0-0-5-5-5-5--3-2---|
C5 Eb5 
e:---------------------------|---------------------------| 
B:---------------------------|---------------------------|L 
G:---------------------------|--------------------------o|E 
D:---------------------------|--------------------------o|F 
A:-10^7-7-7-7-7-10^7-7-7-7-7-|-------------6-6-6-6-6-6---|T 
E:---------------------------|-8-8-8-8-8-8---------------| 
| | 
e:---------------------------|---------------------------|R 
B:---------------------------|---------------------------|I 
G:---------------------------|-5-5-5-5-5-5-8-8-8-8-8-8--o|G 
D:---------------------------|-5-5-5-5-5-5-8-8-8-8-8-8--o|H 
A:---------------------------|-3-3-3-3-3-3-6-6-6-6-6-6---|T 
E:--3^0-0-0-0-0--3^0-0-0-0-0-|---------------------------|
C#m 
e:---------------------------------| 
B:----------------------------5----|L (I may have tabbed Dave's part 
G:--------------------------6------|E wrong.) 
D:-10--9^10^9------11-----6--------|F 
A:-----------10-/12--12\4----------|T 
E:---------------------------------| 
| | 
e:---------------------------------|R 
B:----------------------5----------|I 
G:----------------------6----------|G 
D:--7--6^7^6-------8----6----------|H 
A:-----------7--/9----9\4----------|T 
E:---------------------------------|
Middle section: 
-------------- 
(key changes to D)
Bass: 
A+ or F+/A 
G:---------------------------------------------------------| 
D:------3------3------3------3------3------3------3------3-| 
A:----4------4------4------4------4------4------4------4---| 
E:--5------5------5------5------5------5------5------5-----| 
G+ or Eb+/G 
G:---------------------------------------------------------| 
D:------1------1------1------1------1------1------1------1-| 
A:----2------2------2------2------2------2------2------2---| 
E:--3------3------3------3------3------3------3------3-----|
e:-------------------------------------------| 
B:-------------------------------------------|L 
G:-------10-------------------------------7-o|E 
D:----11--------------------------------8---o|F 
A:-12---------------------------------9------|T 
E:-------------------------------------------| 
| | 
e:-------------------------------------------|R 
B:-------------------------------------------|I 
G:--5---------7---9---10---12---13\---7~----o|G (volume swells) 
D:------------------------------------------o|H 
A:-------------------------------------------|T 
E:-------------------------------------------|
e:-------------------------------------------| 
B:-------------------------------------------|L 
G:-------10-------------------------------8-o|E 
D:----11--------------------------------9---o|F 
A:-12--------------------------------10------|T 
E:-------------------------------------------| 
| | 
e:-------------------------------------------|R 
B:-------------------------------------------|I 
G:--5---------7---9---10---12---13\---8~----o|G (volume swells) 
D:------------------------------------------o|H 
A:-------------------------------------------|T 
E:-------------------------------------------|
(all guitars repeat above patterns for lyrics below)
"One after one by the star-dogged moon, too quick for groan or sigh 
Each turned his face with a ghastly pang and cursed me with his eye. 
Four times fifty living men (and I heard nor sigh nor groan), 
With heavy thump, a lifeless lump, they dropped down one by one." 
(S.T.Coleridge)
Bass: 
Dm 
G:---------------------------------------------------------| 
D:--3------3------3------3------3------3------3------3-----| 
A:----5------5------5------5------5------5------5------5---| 
E:------5------5------5------5------5------5------5------5-| 
Cm 
G:---------------------------------------------------------| 
D:--1------1------1------1------1------1------1------1-----| 
A:----3------3------3------3------3------3------3------3---| 
E:------3------3------3------3------3------3------3------3-|
e:----------------------------------------------| 
B:----------------------------------------------|L 
G:-10---------------------------------8---------|E 
D:----12--------------------------------10------|F 
A:-------12--------------------------------10---|T 
E:----------------------------------------------| 
| | 
e:----------------------------------------------|R 
B:-(6\)-----------------------------------------|I 
G:--7\--------7---9---10---12---13\---8--<7>v(\)|G (volume swells) 
D:----------------------------------------------|H 
A:----------------------------------------------|T 
E:----------------------------------------------|
e:-----------------------------------------------| 
B:-----------------------------------------------|L 
G:-10---------------------------------7----------|E 
D:----12--------------------------------9--------|F 
A:-------12-------------------------------9------|T 
E:-----------------------------------------------| 
| | 
e:-----------------------------------------------|R 
B:--6\-------------------------------------------|I 
G:--7\--------7---9---10---12---13\---7~--<5>v(\)|G (volume swells) 
D:-----------------------------------------------|H 
A:-----------------------------------------------|T 
E:-----------------------------------------------|
(tacet)
Bass: (think Number of the Beast; this may be played an octave higher) 
G:-----------------------------------------------------------------| 
D:--4-----4-----4---5-----5-----5---7-----7-----7-----7-----7---7--| 
A:----5-5---5-5---5---5-5---5-5---5---5-5---5-5---5-5---5-5---5---5| 
E:-----------------------------------------------------------------| 
(it could also be this) 
G:--11-----11-----11---12-----12-----12---14-----14------| 
D:-----0-0----0-0----0----0-0----0-0----0----0-0----0-0--| etc 
A:-------------------------------------------------------| 
E:-------------------------------------------------------|
Bass plays above figure twice, then Murray joins with palm-muted D while 
bass changes to [Bass Riff 1] for lyrics.
[Bass Riff 1]: 
G:-----------------------------------------------------------------| 
D:--4-----4-----4---5-----4-----5---7-----7-----7-----7-----7---7--| 
A:----5-5---5-5---5---5-5---5-5---5---5-5---5-5---5-5---5-5---5---5| 
E:-----------------------------------------------------------------|
[Bass Riff 2]: 
G:---------------------------------|-------------------------------| 
D:-2-----2-----2---3-----3-----3---|-2-----2-----2---3-----3-----3-| 
A:---5-5---5-5---5---5-5---5-5---5-|---5-5---5-5---5---5-5---5-5---| 
E:---------------------------------|-------------------------------|
G:---------------------|---------------------| 
D:o--0-----0-----0----o|o--0-----0-----0----o| 
A:o----5-5---5-5---5--o|o----5-5---5-5---5--o| 
E:---------------------|---------------------|
With [Bass Riff 1]: 
The curse it lives on in their eyes, the Mariner he wished he'd die
With [Bass Riff 2]: 
Along with the sea creatures but they lived on, so did he.
(Smith joins Murray in playing the palm-muted D)
With [Bass Riff 1]: 
And by the light of the moon, he prays for their beauty not doom
With [Bass Riff 2]: 
With heart he blesses them, God's creatures all of them too.
[Bass Riff 3]: (not sure about this one) Guitar stays the same!!! 
G:-----------------------------------------------------------------| 
D:----0-0---0-0---0-------------------0-0---0-0---0-0---0-0---0---0| 
A:--3-----3-----3---1~----1/3~------5-----5-----5-----5-----5---5--| 
E:-----------------------------------------------------------------|
With [Bass Riff 3]: 
Then the spell starts to break 
The albatross falls from his neck
[Bass Riff 4]: 
G:-----------------------------------------------------------------| 
D:----0-0---0-0---0---0-0---0-0---0---0-0---0-0---0---0-0---0-0---0| 
A:--3-----3-----3---1-----1-----1---3-----3-----3---5-----5-----5--| 
E:-----------------------------------------------------------------|
With [Bass Riff 4]: 
Sinks down like lead into the sea
[Bass Riff 5]: 
G:-------------------------------------------------------| 
D:----0-0---0-0---0---0---0---0---0----------------------| etc 
A:--3-----3-----3---1---1---3---3----0-0-0-0-------------| 
E:-------------------------------------------------------|
With [Bass Riff 5]: 
A5 
Then down in falls comes the rain.....
(key changes to A) 
(All guitars continue with A5)
Both guitars: 
A5 F5 G5 A5 
e:------------------------------------------| 
B:------------------------------------------| 
G:o--2~------------------------------------o| 
D:o--2~---------------3-----5----7---5-----o| 
A:---0~--3-3-3-3^2^0--3-----5----7---5------| 
E:--------------------1-----3----5---3------|
Murray continues playing above figure under Adrian's solo:
A5 F5 
e:-------------------------------------------------------| 
B:--------------------------(5b)-------------------------| 
G:---------x--7b9~9~9-7^5----5b--------------------------| 
D:---7~~~-----------------7---------7p5----5-------------| 
A:---------------------------------------7---7\3~----3^0-| 
E:-------------------------------------------------------|
G5 A5 
e:------|-------------------8--8--8--8--8--8--8^10-10-10-| 
B:------|--8^10-10-10-10-10-10-10-10-10-10-10-10---10-10-| 
G:------|--9----9--9--9--9-------------------------------| 
D:------|------------------------------------------------| 
A:------|------------------------------------------------| 
E:--3~--|------------------------------------------------| 
F5 G5 A5 
e:-10-10-10\-----------------------------|---------------| 
B:-10-10-10\-----------------------------|--8------8~----| 
G:-----------------9~---5-7-x-7b9r7^5-7~-|--10b12--10b12~| 
D:---------------7-----------------------|---------------| 
A:-------------8-------------------------|---------------| 
E:---------------------------------------|---------------| 
F5 G5 
e:-------------------------------------------------------| 
B:---8^5-8^5---5-----------------------------------------| 
G:-----------7---7-5-7-5--------5-7-7b9r7^5--7~~/--------| 
D:------------------------7~-----------------------------| 
A:-------------------------------------------------------| 
E:-------------------------------------------------------| 
A5 
e:------------17^15----15^17^15----15--------------------| 
B:---------17-------17----------17----17^15-17^15----15--|(I hope you 
G:---14^17----------------------------------------17-----| practiced your 
D:-------------------------------------------------------|sweep picking!) 
A:-------------------------------------------------------| 
E:-------------------------------------------------------| 
F5 
e:-----------------------------------------17-----------------| 
B:-15-15-15^17^15----15-----------------17----17--20b22r20^17-| 
G:----------------17----17^14~~~--14^17-----------------------| 
D:------------------------------------------------------------| 
A:------------------------------------------------------------| 
E:------------------------------------------------------------|
G5 E5* 
e:--20b22-20-19-17------------| 
B:-----------------20-18-17*--| 
G:----------------------------| 
D:----------------------------| 
A:----------------------------| 
E:----------------------------|
* = Now, the key changes back to E and Adrian's rhythm is C5 - D5 - E5. 
On the last note of Adrian's solo, Dave comes in with the exact 
same note and takes over lead while Adrian drops back to rhythm. 
E5 C5 
e:---------14^15^14---------14^15^14--17^15^14-----------| 
B:--/17~~------------17~~----------------------17^15^13--| 
G:-------------------------------------------------------| 
D:-------------------------------------------------------| 
A:-------------------------------------------------------| 
E:-------------------------------------------------------| 
D5 E5 
e:------------------------------------0-12^0-0-14^0-0-12^| 
B:-------------------------------------------------------| 
G:--16^14^12--11--9-7-9-7--------------------------------| 
D:------------------------9-7----------------------------| 
A:----------------------------7~~------------------------| 
E:-------------------------------------------------------| 
C5 
e:-0-0-14^0-0-15^0-0-17^0-0-15^0-0-14^0-0-12^0-0-10^0-0--| 
B:-------------------------------------------------------| 
G:-------------------------------------------------------| 
D:-------------------------------------------------------| 
A:-------------------------------------------------------| 
E:-------------------------------------------------------| 
D5 E5 
e:-8^0-0-10-8-7---------------------------|--------------| 
B:--------------10-8-7--------------------|--------------| 
G:---------------------9-8-7--------------|---7^9^7*-----| 
D:---------------------------9-8-7--------|--------------| 
A:---------------------------------10-7~--|--------------| 
E:----------------------------------------|--------------| 
(* = countinuously hammer-on and pulloff while raising and 
lowering tremolo bar) 
C5 D5 E5 
e:-------------|-------------14^15^14-------------------------| 
B:-------------|-15b17~r15------------17b19r17--15^17^15^17^15| 
G:-------------|----------------------------------------------| 
D:-------------|----------------------------------------------| 
A:-------------|----------------------------------------------| 
E:--0v(\)(/)*--|----------------------------------------------| 
(* = dive bomb on tremolo bar followed by slow raise to pitch) 
C5 
e:-----------15^17^15--17b19~~--17^15^14--15^14-----14---| 
B:-----15^17------------------------------------17-----17| 
G:--16---------------------------------------------------| 
D:-------------------------------------------------------| 
A:-------------------------------------------------------| 
E:-------------------------------------------------------| 
D5 
e:-------------12----------------------------------------| 
B:-15-17^15^13----15b17~~~r15---12-----------------------| 
G:---------------------------------14b16r14-12-----------| 
D:---------------------------------------------14~~------| 
A:-------------------------------------------------------| 
E:-------------------------------------------------------|
Whew! Now, the next harmony:
E5* C5* D5* (chords implied by bass) 
e:-------------------------------------------------------| 
B:-12~~--12-10-12~--10-12-13-12~--10^12^10----------10---|L 
G:o----------------------------------------11~---12------|E 
D:o------------------------------------------------------|F 
A:-------------------------------------------------------|T 
E:-------------------------------------------------------| 
| | 
e:-------------------------------------------------------|R 
B:-------------------------------------------------------|I 
G:o------------------------------------------------------|G 
D:o-5~~---5--4--5---4--5--7--5-----7^5^4------------4----|H 
A:-----------------------------------------5~----7-------|T 
E:-------------------------------------------------------|
e:-------------------------------------------------------| 
B:-12~~--12-10-12~--10-12-13-12~--13^12^10----------10---|L 
G:-----------------------------------------11~---12-----o|E 
D:------------------------------------------------------o|F 
A:-------------------------------------------------------|T 
E:-------------------------------------------------------| 
| | 
e:-------------------------------------------------------|R 
B:-------------------------------------------------------|I 
G:------------------------------------------------------o|G 
D:--5~~---5--4--5---4--5--7--5-----7^5^4------------4---o|H 
A:-----------------------------------------5~----7-------|T 
E:-------------------------------------------------------|
(There seems to be a third, overdubbed rhythm guitar here) 
e:-------------------------------------------------------| 
B:-------------------------------------------------------|L 
G:o-----------------------------------------------------o|E 
D:o--4-5-4-5-4-5-4-5-4-5-4-5-4-5-4-5-4-5-4-5-4-5-4-5----o|F 
A:-------------------------------------------------------|T 
E:-------------------------------------------------------| 
| | 
e:-------------------------------------------------------|R 
B:-------------------------------------------------------|I 
G:o-----------------------------------------------------o|G 
D:o--7-9-7-9-7-9-7-9-7-9-7-9-7-9-7-9-7-9-7-9-7-9-7-9----o|H 
A:-------------------------------------------------------|T 
E:-------------------------------------------------------| 
(I think you get the idea here.)
E5 
e:-------------------------------------|-----------------| 
B:-------------------------------------|-----------------|L 
G:o-----------------------------------o|----9~-----------|E 
D:o--9-9-9-7-7-7-6-6-6-7-7-7--7-6-----o|----9~-----------|F 
A:--------------------------------8-7--|----7~-----------|T 
E:-------------------------------------|----0~-----------| 
| | 
e:-------------------------------------|-----------------|R 
B:-------------------------------------|-----------------|I 
G:o-----------------------------------o|-----------------|G 
D:o-----------------------------------o|----2~-----------|H 
A:-------------------------------------|----2~-----------|T 
E:---7-7-7-5-5-5-4-4-4-5-5-5--5-4-1-0--|----0~-----------|
Play above section three times (watch the repeat sign!) - on third 
repeat, play E5 chord in gallop rhythm and start it all over!!!!
E5 C5 D5 
E5 C5 D5
E5 
Hear the groans of the long dead seamen 
[Riff B] 
See them stir as they start to rise 
Bodies lifted by good spirits 
C5 [Riff B] 
None of them speak and they're lifeless in their eyes
C5 
And revenge is still sought, penance starts again 
D5 [Riff B] 
Cast into a trance and the nightmare carries on.
D5 E5 [Riff B] 
Now the curse is finally lifted, and the Mariner sights his home
Spirits go from the long dead bodies 
C5 [Riff B] 
Form their own light and the Mariner's left alone.
Play [Shanty A] again! (remember that?)
E5 [Riff B] 
And then a boat came sailing towards him 
E5 [Riff B] 
It was a joy he could not believe 
E5 [Riff B] 
The pilot's boat, his son and the hermit
E5 
Penance of life will fall onto Him.
C5 D5 
And the ship it sinks like lead into the
[Shanty B]: 
e:--------------------------------------------------------| 
B:--------------------------------------------------------|L 
G:-4--4-4-7^5^4---4--4-4---4~--4-4-7^5^4---4--4--4-4---4~-|E 
D:--------------7--------7---------------7-----------7----|F 
A:--------------------------------------------------------|T 
E:--------------------------------------------------------| 
| | 
e:--------------------------------------------------------|R 
B:--------------------------------------------------------|I 
G:--------------------------------------------------------|G 
D:--------5^4----------------------5^4--------------------|H 
A:-7--7-7-----7-5-7--7-7-5-7~--7-7-----7-5-7--7--7-7-5-7~-|T 
E:--------------------------------------------------------| C5 
sea... And the hermit
D5 [Shanty B] 
shrieves the Mariner of his sins.
E5 [Riff B] 
The Mariner's bound to tell of his story 
E5 [Riff B] 
To tell his tale wherever he goes 
E5 [Riff B] 
To teach God's word by his own example 
That we must love all things that God made.
C5 D5 [Shanty B] 
And the wedding guest's a sad and wiser man 
C5 D5 E5 
And the tale goes on and on and on and on...................
As the song is fading out, Steve Harris plays: 
e:---------------------------------------------| 
B:---------------------------------------------| 
G:-------------<5>-----------------------------| 
D:--------<5>-------<5>------------------------| 
A:---<5>-----------------<5>-------------------| 
E:-----------------------------<5>~~~~~--------|
comments
print report bad tab
1 comment total.
0 reply
mikey_1990 wrote on March 2 2007, 08:15 am

all was good apart from powerslave

I want to post or [tab]
guest
You may want to rate the tab now too:
select rating
Please do not post tabs as comments. Select "correction" instead!