Oops, an error
Loading. Please wait.

Powerslave Tab

ver1
ver1

Album

Solo

Whole song

More versions @911Tabs.com
161,856 views 383 this week
23 commentsread comments
1 2 3 4 5
excellent!
x 58
Autoscroll
+/-
esc
set tempo
stop
Contributor
WARNING: You are trying to view
                                    content from Ultimate-Guitar.com
                                    in an unauthorized application,
                                    which is prohibited.

                                    Please use an official Ultimate
                                    Guitar Tabs application for iPhone,
                                    iPad or Android to access legitimate
                                    chords, guitar, bass, and drum tabs
                                    from Ultimate-Guitar.com database.

                                    Type "ultimate guitar tabs" in Apple
                                    App Store's or Android Market's
                                    search to find the application.
e|------------------------------------------|
b|------------------------------------------|
g|------------------------------------------|
D|-2----------------5--------------------3--|--------|
A|-0-00-0-00-0-00-0-3---0-00-0-00-0-00-0-1--|        |
E|------------------------------------------|        |
                                                     |
                                                     |----x5
e|-------------------------------------------|       |    
b|-------------------------------------------|       |   
g|-------------------------------------------|       |
D|------------------5------------------------|-------|
A|-0-00-0-00-0-00-0-3---0-5-4-5-7-5-4h5p4----|
E|----------------------------------------6--|


                              x4
e|-----------------------------|
b|-----------------------------|
g|-7--------17--13/14-13---10--|
D|-----------------------------|
A|-9--------15--11/12-11----8--|
E|-----------------------------|


chorus
e|------------------------|
b|------------------------|
g|------------------------|
D|-2------------5------7--|-------------------|
A|-2------------3------5--|                   |
E|-0----------------------|                   |
                                              |
                                              |
e|--------------------------------|           |
b|--------------------------------|           |
g|--------------------------------|           |
D|--------------------------------|           |------x4
A|--------------------------------|           |        
E|-3p0-0-0-0--0-0-3p0-0-0-0--0-0--|           |  
                                              |
                                              |
e|----------------------------------|         |
b|----------------------------------|         |
g|----------------------------------|         |
D|----------------------------------|---------|
A|----------------------------------|
E|-0h2-2-2-2/3-3-3-3/5-5-5-5\3-3-3--|


e|------------------------------------------|
b|------------------------------------------|
g|------------------------------------------|
D|------------------5--------------------3--|------|
A|-0-00-0-00-0-00-0-3---0-00-0-00-0-00-0-1--|      |
E|------------------------------------------|      |
                                                   |
                                                   |----x5
e|-------------------------------------------|     |
b|-------------------------------------------|     |
g|-------------------------------------------|     |
D|------------------5------------------------|-----|
A|-0-00-0-00-0-00-0-3---0-5-4-5-7-5-4h5p4----|
E|----------------------------------------6--|


                              x3
e|-----------------------------|
b|-----------------------------|
g|-7--------17--13/14-13---10--|
D|-----------------------------|
A|-9--------15--11/12-11----8--|
E|-----------------------------|


e|-----------------------------|
b|-----------------------------|
g|-7--------17--16/17-16---10--|
D|-----------------------------|
A|-9--------15--14/15-14----8--|
E|-----------------------------|


chorus
e|------------------------|
b|------------------------|
g|------------------------|
D|-2------------5------7--|-------------------|
A|-2------------3------5--|                   |
E|-0----------------------|                   |
                                              |
                                              |
e|--------------------------------|           |
b|--------------------------------|           |
g|--------------------------------|           |
D|--------------------------------|           |------x4
A|--------------------------------|           |        
E|-3p0-0-0-0--0-0-3p0-0-0-0--0-0--|           |  
                                              |
                                              |
e|----------------------------------|         |
b|----------------------------------|         |
g|----------------------------------|         |
D|----------------------------------|---------|
A|----------------------------------|
E|-0h2-2-2-2/3-3-3-3/5-5-5-5\3-3-3--|



e|-0-----------------------|
b|-0-----------------------|
g|-0-----------------------|
D|-2-----------------------|
A|-2--------------------0--|
E|-0------------------0----|


                                x2
e|-------------------------------|
b|-----3-------3-------3---------|
g|-------4-------4-------4-------|
D|---4-------4-------4-----------|
A|-2-------2-------2-------2--0--|
E|-------------------------------|


solo
e|-----------------------------------|
b|-----------------------------------|
g|-9/11~~~~~~~~~~~-------9h11p9\7\6--|
D|-----------------------------------|
A|-----------------------------------|
E|-----------------------------------|


e|---------------------------------------------|
b|---------------------------------------------|
g|-7-6~~~~~~~~~~~~--------6h7p6-----------6-7--|
D|----------------------x-------9-7/9~~~-------|
A|--------------------x------------------------|
E|---------------------------------------------|


e|-------------------------------|
b|-------------------------------|
g|-9~~~~---9b11r9-7-6h7p6--------|
D|------------------------9~~~~--|
A|-------------------------------|
E|-------------------------------|


e|-----------------------------------------|
b|-------------------10/12-----10h12p10~~--|
g|--------7-9b11r9-7-----------------------|
D|----7-9----------------------------------|
A|-/9--------------------------------------|
E|-----------------------------------------|


e|----------------------------|
b|-7h10p7---------------------|
g|--------9--7h9p7\6---6------|
D|-------------------9---9~~--|
A|----------------------------|
E|----------------------------|


e|------------------9-10--9h10p9----------9-10-12--|
b|------------10-12--------------12-10-12----------|
g|--------/11--------------------------------------|
D|----7-9------------------------------------------|
A|-/9----------------------------------------------|
E|-------------------------------------------------|


e|-10-9h10p9-------------------------------|
b|-----------10----------------------------|
g|--------------9--9b11--r9-7h9p7-6h7p6----|
D|--------------------------------------9--|
A|-----------------------------------------|
E|-----------------------------------------|


e|------------------10-9h10p9-------12b14~~--|
b|------------10-12-----------12-10----------|
g|--------/11--------------------------------|
D|----7-9------------------------------------|
A|-/9----------------------------------------|
E|-------------------------------------------|


e|-----12b14-r12p10-9h10p9---------------|
b|---x---------------------12------------|
g|-x-------------------------------------|
D|--------------------------------14/16--|
A|---------------------------------------|
E|---------------------------------------|


e|---------------------------------------------------------------|
b|-------14-15-17-15-14h15p15-----15-14h15p14----------14-15-17--|
g|-14h16----------------------16--------------16-14-16-----------|
D|---------------------------------------------------------------|
A|---------------------------------------------------------------|
E|---------------------------------------------------------------|


e|-14-15-17-17b19-17b19-17b19----r17-17-15-14h15p14--|
b|---------------------------------------------------|
g|---------------------------------------------------|
D|---------------------------------------------------|
A|---------------------------------------------------|
E|---------------------------------------------------|


e|----14-15-17-15-14h15p14----14h15p14-----------------------|
b|-17----------------------17----------17-15-14h15p14--------|
g|----------------------------------------------------16-14--|
D|-----------------------------------------------------------|
A|-----------------------------------------------------------|
E|-----------------------------------------------------------|


e|-------------------------------|
b|-------------------------------|
g|-------------------------------|
D|-16-15-14\12-14p12-14p12-------|
A|-------------------------14~~--|
E|-------------------------------|


e|-7-------------7----------------------|
b|---10--------7---10p7-----------------|
g|------9b11------------9p7-9p7---------|
D|------------------------------9-7-9\--|
A|--------------------------------------|
E|--------------------------------------|


e|-7-----7--------------------------------------|
b|-10b12-10b12~~--------------------------------|
g|-----------------9b11r9p7-9~~--7b9---7-6------|
D|-----------------------------------------7----|
A|-------------------------------------------7--|
E|----------------------------------------------|


e|-----------7--------------7--------------7-------|
b|---------7---10p7-------7---10p7-------7---10p7--|
g|-/7-9b11----------9b11-----------9b11------------|
D|-------------------------------------------------|
A|-------------------------------------------------|
E|-------------------------------------------------|


e|---------7--------------7-------------------------7---------10-7--------|
b|-------7---10p7-------7---10p7-------7h10p7---------10b12--------10~~\--|
g|-9b11-----------9b11-----------9b11---------9b11------------------------|
D|------------------------------------------------------------------------|
A|------------------------------------------------------------------------|
E|------------------------------------------------------------------------|


e|-2h3p2---2-------2h3p2---2-------2h3p2---2-------2h3p2---2h3p2--|
b|-------3---3-0h3-------3---3-0h3-------3---3-0h3-------3--------|
g|----------------------------------------------------------------|
D|----------------------------------------------------------------|
A|----------------------------------------------------------------|
E|----------------------------------------------------------------|


e|-7h8p7---7--------------------------------------|
b|-------8---10-8-7h10p8-7---8p7---7--------------|
g|-------------------------9-----9---9p7\6-6~~~~--|
D|------------------------------------------------|
A|------------------------------------------------|
E|------------------------------------------------|


e|-10p7-10p7----10p7----7-------------------------------|
b|-----------10------10---10p9p7----7-------------------|
g|-------------------------------10---10p9p7---7h9~~~~--|
D|-------------------------------------------9----------|
A|------------------------------------------------------|
E|------------------------------------------------------|


e|-------------------15b17~~~~--|
b|-13b15----15b17---------------|
g|------------------------------|
D|------------------------------|
A|------------------------------|
E|------------------------------|


e|------------------------------------------|
b|------------------------------------------|
g|-----------------------------------4------|
D|--------4-5--4------------4-5--4-----7~~--|
A|-5~~--7--------7-4-5~~--7--------7--------|
E|------------------------------------------|


e|------------------------------------------|
b|------------------------------------------|
g|------------------------------------------|
D|-5-7-9--7h9p7-5----4~~----4-5--4----------|
A|-----------------7------7--------7-4-5~~--|
E|------------------------------------------|


e|-------------------------------------|
b|-------------------------------------|
g|------------------------------4------|
D|---4-5--4------------4-5--4-----7~~--|
A|-7--------7-4-5~~--7--------7--------|
E|-------------------------------------|


e|--------------------------------------|
b|--------------------------------------|
g|--------------------------------------|
D|-5-7-9--7h9p7-5----4~~----4-5--4------|
A|-----------------7------7--------7-4--|
E|--------------------------------------|


e|----------------------------------------7-10p7---------------|
b|-10----10-----------10b12r10b12~~--7h10--------10-10b12-r10--|
g|-9b11--9b11~~--r9-7------------------------------------------|
D|-------------------------------------------------------------|
A|-------------------------------------------------------------|
E|-------------------------------------------------------------|


e|-----------------------------|
b|-7h10p7----------------------|
g|--------9b11r9p7-9b11~~---7--|
D|-----------------------------|
A|-----------------------------|
E|-----------------------------|


(tremolo pick throughout this bar)
e|-----------------7--9--10--|
b|----------7--10------------|
g|-6--7--9-------------------|
D|---------------------------|
A|---------------------------|
E|---------------------------|


e|-12b14------r12--10h12-9~~--|
b|----------------------------|
g|----------------------------|
D|----------------------------|
A|----------------------------|
E|----------------------------|


e|-------14-15-17-15-14h15p14----14----------------------|
b|-14-15----------------------17----17-15-14-15-14-------|
g|-------------------------------------------------16~~--|
D|-------------------------------------------------------|
A|-------------------------------------------------------|
E|-------------------------------------------------------|


e|---------------------------------------------------|
b|-----10h12p10-14p12p10----10h12p10-----------------|
g|-/12-------------------12----------12p11\9-11p9\7--|
D|---------------------------------------------------|
A|---------------------------------------------------|
E|---------------------------------------------------|


e|-------------------------------------9-10-12-10-9h10p9----9--|
b|-------------------------------10-12-------------------12----|
g|-9p7\6-7p6--------------7-9/11-------------------------------|
D|-----------9-9----9p7-9--------------------------------------|
A|-------------------------------------------------------------|
E|-------------------------------------------------------------|


e|-12b14~~~~--|
b|------------|
g|------------|
D|------------|
A|------------|
E|------------|


backing for solo
e|-------------------------------------------------------------|
b|-----3-------3-------3-------------3-------3-------3---------|
g|-------4-------4-------4-------------4-------4-------4-------|
D|---4-------4-------4-------------4-------4-------4-----------|
A|-2-------2-------2-------2--0--2-------2-------2-------2--0--|
E|-------------------------------------------------------------|


e|-------------------------------------------------------------|
b|-----3-------3-------3-------------3-------3-------3---------|
g|-------4-------4-------4-------------4-------4-------4-------|
D|---4-------4-------4-------------4-------4-------4-----------|
A|-2-------2-------2-------2--0--2-------2-------2-------2--0--|
E|-------------------------------------------------------------|


e|-------------------------------------------------------------|
b|-----3-------3-------3-------------3-------3-------3---------|
g|-------4-------4-------4-------------4-------4-------4-------|
D|---4-------4-------4-------------4-------4-------4-----------|
A|-2-------2-------2-------2--0--2-------2-------2-------2--0--|
E|-------------------------------------------------------------|


e|------------------------------------------------------------------|
b|-----3-------3-------3-------3-------3-------3-------3------------|
g|-------4-------4-------4-------4-------4-------4-------4---4---4--|
D|---4-------4-------4-------4-------4-------4-------4-----0--------|
A|-2-------2-------0-------0-----------------------------------0----|
E|---------------------------------3-------3-------3----------------|


e|------------------------------------------------------------------|
b|-----3-------3-------3-------3-------3-------3-------3------------|
g|-------4-------4-------4-------4-------4-------4-------4---4---4--|
D|---4-------4-------4-------4-------4-------4-------4-----0--------|
A|-2-------2-------0-------0-----------------------------------0----|
E|---------------------------------3-------3-------3----------------|


e|------------------------------------------------------------------|
b|-----3-------3-------3-------3-------3-------3-------3------------|
g|-------4-------4-------4-------4-------4-------4-------4---4---4--|
D|---4-------4-------4-------4-------4-------4-------4-----0--------|
A|-2-------2-------0-------0-----------------------------------0----|
E|---------------------------------3-------3-------3----------------|


e|----------------------------------------------------------------|
b|-----3-------3-------3-------3----------------------------------|
g|-------4-------4-------4-------4--------------------------------|
D|---4-------4-------4-------4------------------------------------|
A|-2-------2-------0-------0-------5-5-5-5-5-5-5-5-5-5-5-5-7-5-\--|
E|---------------------------------3-3-3-3-3-3-3-3-3-3-3-3-5-3-\--|


e|------------------------------------------------------------------------|
b|------------------------------------------------------------------------|
g|------------------------------------------------------------------------|
D|-4---4--------4-4---4-4---4-4---5--------7-7-7------2-----2------2-2-2--|
A|-2-0-2------0-2-2-0-2-2-0-2-2-0-5--------5-5-5------0-----0------0-0-0--|
E|--------------------------------3-----------------------3------3--------|


e|------------------------------------------------------------------------|
b|------------------------------------------------------------------------|
g|------------------------------------------------------------------------|
D|-4---4--------4-4---4-4---4-4---5--------7-7-7------2-----2------2-2-2--|
A|-2-0-2------0-2-2-0-2-2-0-2-2-0-5--------5-5-5------0-----0------0-0-0--|
E|--------------------------------3-----------------------3------3--------|


e|------------------------------------------------------------------------|
b|------------------------------------------------------------------------|
g|------------------------------------------------------------------------|
D|-4---4--------4-4---4-4---4-4---5--------7-7-7------2-----2------2-2-2--|
A|-2-0-2------0-2-2-0-2-2-0-2-2-0-5--------5-5-5------0-----0------0-0-0--|
E|--------------------------------3-----------------------3------3--------|


e|-------------------------------------------------------------------|
b|-------------------------------------------------------------------|
g|-------------------------------------------------------------------|
D|-4---4--------4-4---4-4---4-4---5--------7------2-----2-2-2-2-2-2--|
A|-2-0-2------0-2-2-0-2-2-0-2-2-0-5--------5------0-----0-0-0-0-0-0--|
E|--------------------------------3----------------------------------|


e|-------------------------------------------|
b|-------------------------------------------|
g|-------------------------------------------|
D|----------2-----------------2------/5-4~~--|
A|-2~~--4-5----5-4-0-2~~--4-5----5-4---------|
E|-------------------------------------------|


e|------------------------------------------|
b|------------------------------------------|
g|------------------------------------------|
D|-2-4-5--4h5p4-2-------------2-------------|
A|-----------------4-5~~--4-5----5-4-0-2~~--|
E|------------------------------------------|


e|--------------------------------------|
b|--------------------------------------|
g|--------------------------------------|
D|-----2-----------------2------/5-4~~--|
A|-4-5----5-4-0-2~~--4-5----5-4---------|
E|--------------------------------------|


e|----------------------------------------|
b|----------------------------------------|
g|----------------------------------------|
D|-2-4-5--4h5p4-2-------------2-----------|
A|-----------------4-5~~--4-5----5-4------|
E|-----------------------------------5p2--|


e|------------------------------------------------------------------------|
b|------------------------------------------------------------------------|
g|------------------------------------------------------------------------|
D|-4---4--------4-4---4-4---4-4---5--------7-7-7------2-----2------2-2-2--|
A|-2-0-2------0-2-2-0-2-2-0-2-2-0-5--------5-5-5------0-----0------0-0-0--|
E|--------------------------------3-----------------------3------3--------|


e|------------------------------------------------------------------------|
b|------------------------------------------------------------------------|
g|------------------------------------------------------------------------|
D|-4---4--------4-4---4-4---4-4---5--------7-7-7------2-----2------2-2-2--|
A|-2-0-2------0-2-2-0-2-2-0-2-2-0-5--------5-5-5------0-----0------0-0-0--|
E|--------------------------------3-----------------------3------3--------|


e|-----------------------------------------------------------|
b|-----------------------------------------------------------|
g|-----------------------------------------------------------|
D|-4---4--------4-4---4-4---4-4---5--------7-7-7------2------|
A|-2-0-2------0-2-2-0-2-2-0-2-2-0-5--------5-5-5------0------|
E|--------------------------------3--------------------------|

                                                     
e|--------------------------------------------------------------------|
b|--------------------------------------------------------------------|
g|--------------------------------------------------------------------|
D|-(2)---2------2-2-2-4---4--------4-4---4-4---4-4----------7---10-9--|
A|-(0)---0------0-0-0-2-0-2------0-2-2-0-2-2-0-2-2-0-5------5----8-7--|
E|-----3------3--------------------------------------3----------------|
                                                     ^solo finishes here

e|----------------------------------------------|
b|----------------------------------------------|
g|--------[7]\--/\/\--/\/\--/\/-----------------|
D|-8-7--------\/----\/----\/------5-4-----------|
A|-6-5----------------------------3-2-----------|
E|----------------------------------------------|


e|-----------------------|
b|-----------------------|
g|-----------------------|
D|-----------------------|
A|-x\\\\\\--5-2----------|
E|-x\\\\\\--3-0----------|


e|------------------------------------------|
b|------------------------------------------|
g|------------------------------------------|
D|------------------5--------------------3--|------|
A|-0-00-0-00-0-00-0-3---0-00-0-00-0-00-0-1--|      |
E|------------------------------------------|      |
                                                   |
                                                   |----x5
e|-------------------------------------------|     |
b|-------------------------------------------|     |
g|-------------------------------------------|     |
D|------------------5------------------------|-----|
A|-0-00-0-00-0-00-0-3---0-5-4-5-7-5-4h5p4----|
E|----------------------------------------6--|



                              x4
e|-----------------------------|
b|-----------------------------|
g|-7--------17--13/14-13---10--|
D|-----------------------------|
A|-9--------15--11/12-11----8--|
E|-----------------------------|


chorus
e|------------------------|
b|------------------------|
g|------------------------|
D|-2------------5------7--|-------------------|
A|-2------------3------5--|                   |
E|-0----------------------|                   |
                                              |
                                              |
e|--------------------------------|           |
b|--------------------------------|           |
g|--------------------------------|           |
D|--------------------------------|           |------x3
A|--------------------------------|           |        
E|-3p0-0-0-0--0-0-3p0-0-0-0--0-0--|           |  
                                              |
                                              |
e|----------------------------------|         |
b|----------------------------------|         |
g|----------------------------------|         |
D|----------------------------------|---------|
A|----------------------------------|
E|-0h2-2-2-2/3-3-3-3/5-5-5-5\3-3-3--|


e|------------------------|
b|------------------------|
g|------------------------|
D|-2------------5------7--|
A|-2------------3------5--|                   
E|-0----------------------|                  
                                              
                                              
e|--------------------------------|           
b|--------------------------------|           
g|--------------------------------|           
D|--------------------------------|           
A|--------------------------------|                  
E|-3p0-0-0-0--0-0-3p0-0-0-0--0-0--|


e|--------------------------------------------|
b|--------------------------------------------|
g|--------------------------------------------|
D|-5------7-----------------------------------|
A|-3------5-----------------------------------|
E|-------------3p0-0-0-0--0-0-3p0-0-0-0--0-0--|   


e|-------------------------|
b|-------------------------|
g|-------------------------|
D|-5----------------7-7-7--|
A|-3----------------5-5-5--|
E|-------------------------|  


e|---------------------------------|
b|---------------------------------|
g|-9--------9----------------------|
D|-9--------9----------------------|
A|-7--------7----------------------|
E|----------0----------------------|      
          (tremolo pick this chord)



e|----------------------|
b|----------------------|
g|----------------------|
D|-------------------3--|
A|-------------------3--|
E|-5--4--5--7--5--4--1--|   


e|---------------|
b|---------------|
g|---------------|
D|-3-------------|
A|-3-------------|
E|-1-------------| 
 (tremolo pick)   



e|--------------------------------------------------------------------|
b|--------------------------------------------------------------------|
g|-9---10-9-10-13\10-13--14--17--16/17\16-14--13/14\13-10-13-10-9-----|
D|--------------------------------------------------------------------|
A|-7----8-7--8-11\-8-11--12--15--14/15\14-12--11/12\11--8-11--8-7-----|
E|--------------------------------------------------------------------|    


e|--------------|
b|--------------|
g|-9\-----------|
D|-9\-----------|
A|-7\-----------|
E|--------------|          



h = hammer on
p = pull off
/ = slide up
\ = slide down
~ = vibrato
x = muted string
x\ = pick slide
b = bend
r = release
\  /\ = whammy bar vibrato
 \/
[ ] = natural harmonic


ENJOY!!!!!!!!!!!!!!!!!!!!!
comments
print report bad tab
23 comments total. Showing first comments.
+2 reply
homair wrote on July 22 2003, 12:00 am

the chord at the end of the song is wrong, it should an E5 chord:

|------|
|------|
|-9\---|
|-9\---|
|-7\---|
|------|

+8 reply
METSOAD wrote on May 19 2006, 02:51 am

this song is excellent great tab 5 stars

+5 reply
metal4all wrote on May 23 2006, 05:27 pm

great tab homair.

I want to post or [tab]
guest
You may want to rate the tab now too:
select rating
Please do not post tabs as comments. Select "correction" instead!