Oops, an error
Loading. Please wait.

Rainmaker Tab

ver1
ver1

Album

Whole song

More versions @911Tabs.com
22,450 views 46 this week
21 commentsread comments
1 2 3 4 5
excellent!
x 7
Autoscroll
+/-
esc
set tempo
stop
Contributor
WARNING: You are trying to view
                                    content from Ultimate-Guitar.com
                                    in an unauthorized application,
                                    which is prohibited.

                                    Please use an official Ultimate
                                    Guitar Tabs application for iPhone,
                                    iPad or Android to access legitimate
                                    chords, guitar, bass, and drum tabs
                                    from Ultimate-Guitar.com database.

                                    Type "ultimate guitar tabs" in Apple
                                    App Store's or Android Market's
                                    search to find the application.
Band- Iron Maiden
Album- Rainmaker

1.RAINMAKER

|-------------------------|-----------------------------|
|-------------15----------|-----------------------------|
|----------14----------17-|-(17)-------15-(15)-12-14----|
|-12-14-15-------12-14----|------12-14---------------15-|
|-------------------------|-----------------------------|
|-------------------------|-----------------------------|
|
| Gtrs II, III
|  PM---------------|                       PM------------|
|-------------------------|-------------------------------|
|-------------------------|-------------------------------|
|-------------------------|-------------------------------|
|--7--7--7--7--7--7--7--3-|--(3)--3--3------3---3--3------|
|--5--5--5--5--5--5--5--1-|--(1)--1--1------1---1--1------|
|-------------------------|-------------------------------|


  D5                   C5
|-------------------------|-----------------------------|
|-------------15----------|-----------------------------|
|----------14----------17-|-(17)-------15-(15)-12-14----|
|-12-14-15-------12-14----|------12-14---------------15-|
|-------------------------|-----------------------------|
|-------------------------|-----------------------------|
|
|  PM---------------|                       PM------------|
|-------------------------|-------------------------------|
|-------------------------|-------------------------------|
|-------------------------|-------------------------------|
|--7--7--7--7--7--7--7--5-|--(5)--5--5------5---5--5------|
|--5--5--5--5--5--5--5--3-|--(3)--3--3------3---3--3------|
|-------------------------|-------------------------------|


  D5                   Bb5                           C5
|-------------------------|-----------------------------|
|-------------15----------|-----------------------------|
|----------14----------17-|-(17)-------15-(15)-12-14----|
|-12-14-15-------12-14----|------12-14---------------15-|
|-------------------------|-----------------------------|
|-------------------------|-----------------------------|
|
|  PM---------------|                       PM------------|
|-------------------------|-------------------------------|
|-------------------------|-------------------------------|
|-------------------------|-------------------------------|
|--7--7--7--7--7--7--7--3-|--(3)--3--3------3---3--3--5---|
|--5--5--5--5--5--5--5--1-|--(1)--1--1------1---1--1--3---|
|-------------------------|-------------------------------|


                                                    D5
|--------------------------|---------------------------|
|--------------15----------|---------------15----------|
|-----------14----14-------|------------14----14-------|
|-12--14-15----------15-12-|-(12)-14-15----------15-12-|
|--------------------------|---------------------------|
|--------------------------|---------------------------|
|
|      PM---------------|          PM--------------------|
|--------------------------|-----------------------------|
|--------------------------|-----------------------------|
|--------------------------|-------------------------2---|
|-(5)--5--5--5--5--5--5--5-|--(5)--5--5--5--5--5--5--0---|
|-(3)--3--3--3--3--3--3--3-|--(3)--3--3--3--3--3--3------|
|--------------------------|-----------------------------|


 Verse 1-  0:11
                   Bb5                  F5
|--------------------|--------------------|
|--------------------|--------------------|
|--------------------|--------------------|
|-(12)---------------|--------------------|
|--------------------|--------------------|
|--------------------|--------------------|
|
| Gtr II
|                               PM
|--------------------|--------------------|
|--------------------|--------------------|
|--(2)--2--2-2-(2)-3-|-(3)--3---3-3-(3)-5-|
|--(0)--0--0-0-(0)-3-|-(3)--3---3-3-(3)-3-|
|--------------------|--------------------|
|--------------------|--------------------|
|
| Gtr III
|                           PM--|
|--------------------|--------------------|
|--------------------|--------------------|
|--(2)-------------3-|-(3)--3-3-3-3-(3)-5-|
|--(0)-------------3-|-(3)--3-3-3-3-(3)-3-|
|------------------5-|-(5)--------------3-|
|--------------------|--------------------|


                   C                    D5
|--------------------|--------------------|
|--------------------|--------------------|
|--------------------|--------------------|
|--------------------|--------------------|
|--------------------|--------------------|
|--------------------|--------------------|
|
|          PM                   PM
|--------------------|--------------------|
|--------------------|--------------------|
|-(5)--5---5-5-(5)-5-|-(5)--5---5-5-(5)-2-|
|-(3)--3---3-3-(3)-2-|-(2)--2---2-2-(2)-0-|
|--------------------|--------------------|
|--------------------|--------------------|
|
|      PM--|                PM--|
|--------------------|--------------------|
|--------------------|--------------------|
|-(5)--5-5-5-5-(5)-5-|-(5)--5-5-5-5-(5)-2-|
|-(3)--3-3-3-3-(3)-2-|-(2)--2-2-2-2-(2)-0-|
|-(3)--------------3-|-(3)----------------|
|--------------------|--------------------|


                   Bb5                  F5
  Gtr II
                                PM
|--------------------|--------------------|
|--------------------|--------------------|
|-(2)--2---2-2-(2)-3-|-(3)--3---3-3-(3)-5-|
|-(0)--0---0-0-(0)-3-|-(3)--3---3-3-(3)-3-|
|--------------------|--------------------|
|--------------------|--------------------|
|
| Gtr III
|      PM--|                PM--------------|
|--------------------|----------------------|
|--------------------|----------------------|
|-(2)--2-2-2-2-(2)-3-|-(3)--3-3-3-3--3--5---|
|-(0)--0-0-0-0-(0)-3-|-(3)--3-3-3-3--3--3---|
|------------------5-|-(5)--------------3---|
|--------------------|----------------------|


                   C                    D5
           PM                   PM
|--------------------|--------------------|
|--------------------|--------------------|
|-(5)--5---5-5-(5)-5-|-(5)--5---5-5-(5)-2-|
|-(3)--3---3-3-(3)-2-|-(2)--2---2-2-(2)-0-|
|--------------------|--------------------|
|--------------------|--------------------|
|
|      PM--|                PM--------------|
|--------------------|----------------------|
|--------------------|----------------------|
|-(5)--5-5-5-5-(5)-5-|-(5)--5-5-5-5--5--2---|
|-(3)--3-3-3-3-(3)-2-|-(2)--2-2-2-2--2--0---|
|-(3)--------------3-|-(3)------------------|
|--------------------|----------------------|


                   Bb5                 F5
                               PM
|--------------------|-------------------|
|--------------------|-------------------|
|-(2)--2---2-2-(2)-3-|-(3)--3--3-3-(3)-5-|
|-(0)--0---0-0-(0)-3-|-(3)--3--3-3-(3)-3-|
|--------------------|-------------------|
|--------------------|-------------------|
|
|      PM--|                   PM
|--------------------|-------------------|
|------------------1-|-(1)--1--1-1-(1)---|
|-(2)--2-2-2-2-(2)-3-|-(3)--3--3-3-(3)-5-|
|-(0)--0-0-0-0-(0)-3-|-(3)-------------3-|
|--------------------|-----------------3-|
|--------------------|-------------------|


                  C                    Bb5
          PM                   PM
|-------------------|--------------------|
|-------------------|--------------------|
|-(5)--5--5-5-(5)-5-|-(5)--5---5-5-(5)-3-|
|-(3)--3--3-3-(3)-2-|-(2)--2---2-2-(2)-3-|
|-------------------|--------------------|
|-------------------|--------------------|
|
|         PM               PM--------------|
|-------------------|----------------------|
|-------------------|----------------------|
|-(5)--5--5-5-(5)-5-|-(5)--5-5-5-5--5--3---|
|-(3)--3--3-3-(3)-2-|-(2)--2-2-2-2--2--3---|
|-(3)-------------3-|-(3)--------------1---|
|-------------------|----------------------|


                                   C5                                     D5
|----------------|-------------------|-------------------|------------------|
|----------------|-------------------|-------------------|----------------3-|
|-(3)--3--3-3-3--|--3---3--3-3-(3)-5-|-(5)--5--5-5-(5)-5-|-(5)--5-5-5-5-5-2-|
|-(3)--3--3-3-3--|--3---3--3-3-(3)-5-|-(5)--5--5-5-(5)-5-|-(5)--5-5-5-5-5-0-|
|----------------|--1--------------3-|-(3)-------------3-|-(3)--------------|
|----------------|-------------------|-------------------|------------------|
|
|----------------|-------------------|-------------------|------------------|
|----------------|-------------------|-------------------|----------------3-|
|--3-------------|-(3)-------------5-|-(5)---------------|-(5)------------2-|
|-(3)------------|-(3)-------------5-|-(5)---------------|-(5)------------0-|
|-(1)------------|-(1)-------------3-|-(3)---------------|-(3)--------------|
|----------------|-------------------|-------------------|------------------|


 Chorus- 0:33
            F5            Bb5           C5            G5
  Gtrs II, III
|-------------|-------------|-------------|-------------|
|-(3)-------6-|-(6)---------|-------------|-------------|
|-(2)-------5-|-(5)-------3-|-(3)-------5-|-(5)-------0-|
|-(0)-------3-|-(3)-------3-|-(3)-------5-|-(5)-------0-|
|-----------3-|-(3)-------1-|-(1)-------3-|-(3)---------|
|-------------|-------------|-------------|-------------|


            Bb5           F5            C5            D5
|-------------|-------------|-------------|-------------|
|-------------|-------------|-------------|-----------3-|
|-(0)-------3-|-(3)---------|-----------5-|-(5)-------2-|
|-(0)-------3-|-(3)-------3-|-(3)-------5-|-(5)-------0-|
|-----------1-|-(1)-------3-|-(3)-------3-|-(3)---------|
|-------------|-----------1-|-(1)---------|-------------|


            F5            Bb5           C5            G5
|-------------|-------------|-------------|-------------|
|-(3)---------|-------------|-------------|-------------|
|-(2)---------|-----------3-|-(3)-------5-|-(5)-------0-|
|-(0)-------3-|-(3)-------3-|-(3)-------5-|-(5)-------0-|
|-----------3-|-(3)-------1-|-(1)-------3-|-(3)---------|
|-----------1-|-(1)---------|-------------|-------------|


            Bb5           C5                         Dm
|-------------|-------------|------------|-----------5-|
|-------------|-------------|------------|-----------6-|
|-(0)-------3-|-(3)-------5-|-(5)--------|-(5)-------7-|
|-(0)-------3-|-(3)-------5-|-(5)--------|-(5)-------0-|
|-----------1-|-(1)-------3-|-(3)--------|-(3)---------|
|-------------|-------------|------------|-------------|


 Bridge- 0:56
                  Dsus4                 Dm
       PM-----|              PM---------------|
|-(5)-------------(5)-|-(5)-------------(5)---|
|-(6)--------------8--|-(8)--------------6----|
|-(7)--------------7--|-(7)--------------7----|
|-(0)--0--0-0-(0)--0--|-(0)--0--0-0-(0)--0----|
|---------------------|-----------------------|
|---------------------|-----------------------|


                  Dsus4               Bb
       PM-----|            PM-------------|
|-(5)---------------|---------------------|
|-(6)-------------8-|-(8)-------------6---|
|-(7)-------------7-|-(7)-------------7---|
|-(0)--0--0-0-(0)-0-|-(0)--0--0-0-(0)-8---|
|-------------------|---------------------|
|-------------------|---------------------|


                  Bb6                 F5                  C             Dm
|-------------------|-------------------|-------------------|-----------5-|
|-(6)-------------8-|-(8)-------------6-|-(6)-------------5-|-(5)-------6-|
|-(7)-------------7-|-(7)-------------5-|-(5)-------------5-|-(5)-------7-|
|-(8)--0--0-0-(0)-8-|-(8)--0--0-0-(0)-3-|-(3)-------------5-|-(5)-------0-|
|-------------------|-------------------|------3--3-3-(3)---|-------------|
|-------------------|-------------------|-------------------|-------------|


                  Dsus4                 Dm
       PM-----|              PM---------------|
|-(5)-------------(5)-|-(5)-------------(5)---|
|-(6)--------------8--|-(8)--------------6----|
|-(7)--------------7--|-(7)--------------7----|
|-(0)--0--0-0-(0)--0--|-(0)--0--0-0-(0)--0----|
|---------------------|-----------------------|
|---------------------|-----------------------|


                  Dsus4               Bb
       PM-----|            PM-------------|
|-(5)---------------|---------------------|
|-(6)-------------8-|-(8)-------------6---|
|-(7)-------------7-|-(7)-------------7---|
|-(0)--0--0-0-(0)-0-|-(0)--0--0-0-(0)-8---|
|-------------------|---------------------|
|-------------------|---------------------|


                  Bb6                 F5                  C             D5
|-------------------|-------------------|-------------------|-------------|
|-(6)-------------8-|-(8)-------------6-|-(6)-------------5-|-(5)-------3-|
|-(7)-------------7-|-(7)-------------5-|-(5)-------------5-|-(5)-------2-|
|-(8)--0--0-0-(0)-8-|-(8)--0--0-0-(0)-3-|-(3)-------------5-|-(5)-------0-|
|-------------------|-------------------|------3--3-3-(3)---|-------------|
|-------------------|-------------------|-------------------|-------------|


 Chorus- 1:18
            F5            Bb5           C5            G5
|-------------|-------------|-------------|-------------|
|-(3)-------6-|-(6)---------|-------------|-------------|
|-(2)-------5-|-(5)-------3-|-(3)-------5-|-(5)-------0-|
|-(0)-------3-|-(3)-------3-|-(3)-------5-|-(5)-------0-|
|-----------3-|-(3)-------1-|-(1)-------3-|-(3)---------|
|-------------|-------------|-------------|-------------|


            Bb5           F5            C5                          D5
|-------------|-------------|-------------|---------------------------|
|-------------|-------------|-------------|-------------------------3-|
|-(0)-------3-|-(3)---------|-----------5-|-(5)---------------------2-|
|-(0)-------3-|-(3)-------3-|-(3)-------5-|-(5)---------------------0-|
|-----------1-|-(1)-------3-|-(3)-------3-|-(3)-----------------------|
|-------------|-----------1-|-(1)---------|---------------------------|
|
| Gtr I
|-------------|-------------|-------------|-----8-----(8)-8-8-8-8-8-8-|
|-------------|-------------|-------------|-----8b10==(8)-8-8-8-8-8-8-|
|-------------|-------------|-------------|---------------------------|
|-------------|-------------|-------------|---------------------------|
|-------------|-------------|-------------|---------------------------|
|-------------|-------------|-------------|---------------------------|


                 F5            Bb5           C5            G5
|------------------|-------------|-------------|-------------|
|-(3)--------------|-------------|-------------|-------------|
|-(2)--------------|-----------3-|-(3)-------5-|-(5)-------0-|
|-(0)------------3-|-(3)-------3-|-(3)-------5-|-(5)-------0-|
|----------------3-|-(3)-------1-|-(1)-------3-|-(3)---------|
|----------------1-|-(1)---------|-------------|-------------|
|
|-(8)------(8)-----|-------------|-------------|-------------|
|-(8)------(8)r\---|-------------|-------------|-------------|
|------------------|-------------|-------------|-------------|
|------------------|-------------|-------------|-------------|
|------------------|-------------|-------------|-------------|
|------------------|-------------|-------------|-------------|


            Bb5           C5
|-------------|-------------|------------------------------------|
|-------------|-------------|------------------------------------|
|-(0)-------3-|-(3)-------5-|-(5)--------------------------------|
|-(0)-------3-|-(3)-------5-|-(5)--------------------------------|
|-----------1-|-(1)-------3-|-(3)--------------------------------|
|-------------|-------------|------------------------------------|
|
|-------------|-------------|------------------------10-------10-|
|-------------|-------------|-----10--------------10----10-13----|
|-------------|-------------|--------12b14==(12)r----------------|
|-------------|-------------|------------------------------------|
|-------------|-------------|------------------------------------|
|-------------|-------------|------------------------------------|


                        Dm
|------------------------5------------|
|------------------------6------------|
|-(5)--------------------7------------|
|-(5)--------------------0------------|
|-(3)---------------------------------|
|-------------------------------------|
|
|--------10-------10------------------|
|-10--13----10-13----10-13b15==(13)---|
|-------------------------------------|
|-------------------------------------|
|-------------------------------------|
|-------------------------------------|


 Bridge- 1:40
                    Dsus4                 Dm
         PM-----|              PM---------------|
|--(5)--------------(5)-|-(5)-------------(5)---|
|--(6)---------------8--|-(8)--------------6----|
|--(7)---------------7--|-(7)--------------7----|
|--(0)---0--0-0-(0)--0--|-(0)--0--0-0-(0)--0----|
|-----------------------|-----------------------|
|-----------------------|-----------------------|
|
|-----------------------|---------------------|
|-(13)r-----------------|---------------------|
|-----------------------|---------------------|
|-----------------------|---------------------|
|-----------------------|---------------------|
|-----------------------|---------------------|


                  Dsus4               Bb
       PM-----|            PM-------------|
|-(5)---------------|---------------------|
|-(6)-------------8-|-(8)-------------6---|
|-(7)-------------7-|-(7)-------------7---|
|-(0)--0--0-0-(0)-0-|-(0)--0--0-0-(0)-8---|
|-------------------|---------------------|
|-------------------|---------------------|
|
|-------------------|-------------------|
|-------------------|-------------------|
|-------------------|-------------------|
|-------------------|-------------------|
|-------------------|-------------------|
|-------------------|-------------------|


                    Bb6                  F5                   C              Dm
|--------------------|--------------------|--------------------|-----------5--|
|-(6)-------------8--|-(8)-------------6--|-(6)-------------5--|-(5)-------6--|
|-(7)-------------7--|-(7)-------------5--|-(5)-------------5--|-(5)-------7--|
|-(8)--0--0-0-(0)-8--|-(8)--0--0-0-(0)-3--|-(3)-------------5--|-(5)-------0--|
|--------------------|--------------------|------3--3-3-(3)----|--------------|
|--------------------|--------------------|--------------------|--------------|


                  Dsus4                 Dm
       PM-----|              PM---------------|
|-(5)-------------(5)-|-(5)-------------(5)---|
|-(6)--------------8--|-(8)--------------6----|
|-(7)--------------7--|-(7)--------------7----|
|-(0)--0--0-0-(0)--0--|-(0)--0--0-0-(0)--0----|
|---------------------|-----------------------|
|---------------------|-----------------------|


                  Dsus4               Bb
       PM-----|            PM-------------|
|-(5)---------------|---------------------|
|-(6)-------------8-|-(8)-------------6---|
|-(7)-------------7-|-(7)-------------7---|
|-(0)--0--0-0-(0)-0-|-(0)--0--0-0-(0)-8---|
|-------------------|---------------------|
|-------------------|---------------------|


                  Bb6                 F5
  Gtr I
|-------------------|-------------------|
|-------------------|-------------------|
|-------------------|-------------------|
|-------------------|-------------------|
|-------------------|-------------------|
|-------------------|-------------------|
|
| Gtr II
|-------------------|-------------------|
|-(6)-------------8-|-(8)-------------6-|
|-(7)-------------7-|-(7)-------------5-|
|-(8)--0--0-0-(0)-8-|-(8)--0--0-0-(0)-3-|
|-------------------|-------------------|
|-------------------|-------------------|
|
| Gtr III
|-------------------|-------------------|
|--6--------------8-|-(8)-------------6-|
|--7--------------7-|-(7)-------------5-|
|--8---0--0-0-(0)-8-|-(8)--0--0-0-(0)-3-|
|-------------------|-------------------|
|-------------------|-------------------|


                  C             D5
|-------------------|-----------8b10==(8)-|
|-------------------|---------------------|
|-------------------|---------------------|
|-------------------|---------------------|
|-------------------|---------------------|
|-------------------|---------------------|
|
|-------------------|---------------------|
|-(6)-------------5-|-(5)-----------------|
|-(5)-------------5-|-(5)-------7---------|
|-(3)-------------5-|-(5)-------7---------|
|------3--3-3-(3)---|-----------5---------|
|-------------------|---------------------|
|
|-------------------|---------------------|
|-(6)-------------5-|-(5)-----------------|
|-(5)-------------5-|-(5)-----------------|
|-(3)-------------5-|-(5)-----------------|
|------3--3-3-(3)---|-----------5---------|
|-------------------|-----------5---------|


 Guitar Solo 2- :02
                            Bb5                          C5                         F5
  Gtr I
|-(8)r-8b10==(8)-------(8)r-8b10==|=(8)r-8----------8------|------------5h6p5---5h6h==8-|
|---------------------------------|--------10-8-(8)---10-8-|-(8)----6-8-------8---------|
|---------------------------------|------------------------|-----/7---------------------|
|---------------------------------|------------------------|----------------------------|
|---------------------------------|------------------------|----------------------------|
|---------------------------------|------------------------|----------------------------|
|
| Gtr II
|---------------------------------|------------------------|----------------------------|
|---------------------------------|------------------------|----------------------------|
|-(7)-----------------------------|----------------------5-|-(5)------------------------|
|-(7)---------7------7------3-----|-(3)-----3----3--3--3-5-|-(5)----5-------5---5---3---|
|-(5)---------5------5------1-----|-(1)--1--1-1--1--1--1-3-|-(3)--3-3-3-3---3---3---3---|
|------5---------5-5--------------|------------------------|------------------------1---|
|
|  ~~~~                              ~~~~                     ~~~
|---------------------------------|------------------------|----------------------------|
|---------------------------------|------------------------|----------------------------|
|---------------------------------|------------------------|----------------------------|
|---------------------------------|------------------------|----------------------------|
|-(5)-----------------------1-----|-(1)------------------3-|-(3)--------------------3---|
|-(5)-----------------------1-----|-(1)------------------3-|-(3)--------------------1---|


                            G5                              D5
|-10---------------10h12p10--------------10-------------------------------------|
|-----13b15==(13)r----------13b15==(13)r-----13p10----13p10---------------------|
|--------------------------------------------------12-------12b14==(12)r-(12)---|
|-------------------------------------------------------------------------------|
|-------------------------------------------------------------------------------|
|-------------------------------------------------------------------------------|
|
|-------------------------------------------------------------------------------|
|-------------------------------------------------------------------------------|
|------------------------------------------------------------7------------------|
|-(3)------------------------5-----------(5)-----------------7------------------|
|-(3)------------------------5-----------(5)-----------------5------------------|
|-(1)--1---------------1-----3-----------(3)-----3-----3------------------------|
|
|-------------------------------------------------------------------------------|
|-------------------------------------------------------------------------------|
|-------------------------------------------------------------------------------|
|-------------------------------------------------------------------------------|
|-(3)------------------------5-----------(5)-----------------5------------------|
|-(1)------------------------3-----------(3)-----------------5------------------|


                                     Bb5                                                              C5
   ~~~~
|-------------------------10h13p==10|-12p=10--------------10h==13p10----------13h15-15b17==(15)r-15-15b17=|
|------------13b15==(13)r-----------|--------13b15==(13)r------------10-13h15-----------------------------|
|(12)--(12)\------------------------|---------------------------------------------------------------------|
|-----------------------------------|---------------------------------------------------------------------|
|-----------------------------------|---------------------------------------------------------------------|
|-----------------------------------|---------------------------------------------------------------------|
|
|-----------------------------------|---------------------------------------------------------------------|
|-----------------------------------|---------------------------------------------------------------------|
|-(7)-------------------------------|-------------------------------------------------------------5-------|
|-(7)---7----------7------------3---|-(3)--------------------3-----------3-----3-----3------------5-------|
|-(5)---5----------5------------1---|-(1)-----1--------------1-----1-----1-----1-----1------------3-------|
|-----5---5---5---------------------|---------------------------------------------------------------------|
|
|  ~~~~                                     ~~~
|-----------------------------------|---------------------------------------------------------------------|
|-----------------------------------|---------------------------------------------------------------------|
|-----------------------------------|---------------------------------------------------------------------|
|-----------------------------------|---------------------------------------------------------------------|
|--5----------------------------1---|-(1)---------------------------------------------------------3-------|
|--5----------------------------1---|-(1)---------------------------------------------------------3-------|


                                                                          D5
|-(15)r-------15h17p15----15-17-|-18--17h18p17-15-17-17p15----15h17p15----15h17p15---|
|----------------------18-------|--------------------------18----------18------------|
|-------------------------------|----------------------------------------------------|
|-------------------------------|----------------------------------------------------|
|-------------------------------|----------------------------------------------------|
|-------------------------------|----------------------------------------------------|
|
|-------------------------------|----------------------------------------------------|
|-------------------------------|----------------------------------------------------|
|--(5)--------------------------|------------------------------------------7---------|
|--(5)----5-------------5--5--5-|--5---5--------5--5--5-----5--------5-----7---------|
|--(3)--3-3-3-----3-----3--3--3-|--3---3--------3--3--3-----3--------3-----5---------|
|-------------------------------|----------------------------------------------------|
|
|   ~~~~~
|-------------------------------|----------------------------------------------------|
|-------------------------------|----------------------------------------------------|
|-------------------------------|----------------------------------------------------|
|-------------------------------|----------------------------------------------------|
|--(3)--------------------------|-(3)--------------------------------------5---------|
|--(3)--------------------------|-(3)--------------------------------------5---------|


                                                       Bb5
|-17p=15----15h17p==15-17p15----15h==17p15----15h17p15----15h|
|--------18------------------18------------18----------18----|
|------------------------------------------------------------|
|------------------------------------------------------------|
|------------------------------------------------------------|
|------------------------------------------------------------|
|
|------------------------------------------------------------|
|------------------------------------------------------------|
|-(7)--------------------------------------------------------|
|-(7)-------------7-------------------------7-----------3----|
|-(5)-------------5-------------------------5-----------1----|
|---------5----------------5-------5-------------------------|
|
|  ~~~
|------------------------------------------------------------|
|------------------------------------------------------------|
|------------------------------------------------------------|
|------------------------------------------------------------|
|-(5)---------------------------------------------------1----|
|-(5)---------------------------------------------------1----|


                                                       C5
|-17--18---18b20==(18)r18-18b20==(18)-(18)r==(18)-(18)-18--|
|----------------------------------------------------------|
|----------------------------------------------------------|
|----------------------------------------------------------|
|----------------------------------------------------------|
|----------------------------------------------------------|
|
|----------------------------------------------------------|
|----------------------------------------------------------|
|-------------------------------------------------------5--|
|-(3)---------------3-------------------3--3---3--------5--|
|-(1)----1----------1------1------------1--1---1--------3--|
|----------------------------------------------------------|
|
|  ~~~
|----------------------------------------------------------|
|----------------------------------------------------------|
|----------------------------------------------------------|
|----------------------------------------------------------|
|-(1)---------------------------------------------------3--|
|-(1)---------------------------------------------------3--|


                               F5             G5            D5
|-(18)-17-15-17-17h18p17p15-17p15-|----------------------------|
|---------------------------------|-18--17-15-15-(15)\---13s15-|
|---------------------------------|----------------------------|
|---------------------------------|----------------------------|
|---------------------------------|----------------------------|
|---------------------------------|----------------------------|
|
|---------------------------------|----------------------------|
|---------------------------------|----------------------------|
|--(5)----------------------------|--------------------------7-|
|--(5)-----5-----------5-----5--3-|-(3)--------5--(5)--------7-|
|--(3)--3--3--3--3-----3-----3--3-|-(3)--------5--(5)--------5-|
|-------------------------------1-|-(1)--1--1--3--(3)--3--3----|
|
|   ~~~~
|---------------------------------|----------------------------|
|---------------------------------|----------------------------|
|---------------------------------|----------------------------|
|---------------------------------|----------------------------|
|--(3)--------------------------3-|-(3)--------5--(5)--------5-|
|--(3)--------------------------1-|-(1)--------3--(3)--------5-|


                            Bb5                                       C5
|---------------------15-15h17h18-|-17p=15-17p15----------------------17-|
|-(15)-17-18-15-17-18-------------|--------------18p17-18p17-15-17-18----|
|---------------------------------|--------------------------------------|
|---------------------------------|--------------------------------------|
|---------------------------------|--------------------------------------|
|---------------------------------|--------------------------------------|
|
|---------------------------------|--------------------------------------|
|---------------------------------|--------------------------------------|
|--(7)----------------------------|------------------------------------5-|
|--(7)-----7--------7--------3----|-(3)-----------3-----------3--3--3--5-|
|--(5)-----5--------5--------1----|-(1)-----1-----1-----1-----1--1--1--3-|
|-------5-----5--5----------------|--------------------------------------|
|
|   ~~~~                             ~~~
|---------------------------------|--------------------------------------|
|---------------------------------|--------------------------------------|
|---------------------------------|--------------------------------------|
|---------------------------------|--------------------------------------|
|--(5)-----------------------1----|-(1)--------------------------------3-|
|--(5)-----------------------1----|-(1)--------------------------------3-|


                                                   B5
                                                   Gtrs II, III
                                                     |
                                                     /

|-----------20-------20----|-----20----20-(20)-----(20)\-|
|-18--17-18----17-18----17-|-18-----17-------------------|
|--------------------------|-----------------------------|
|--------------------------|-----------------------------|
|--------------------------|-----------------------------|
|--------------------------|-----------------------------|
|
|--------------------------|-----------------------------|
|--------------------------|-----------------------------|
|-(5)----------------------|-----------------------------|
|-(5)-----5--------5--5--5-|--5---5--5--5---5--5-5-------|
|-(3)--3--3--3--3--3--3--3-|--3---3--3--3---3--3-3-------|
|--------------------------|-----------------------------|
|
|  ~~~
|--------------------------|-----------------------------|
|--------------------------|-----------------------------|
|--------------------------|-----------------------------|
|--------------------------|-----------------------------|
|-(3)----------------------|-(3)-------------------------|
|-(3)----------------------|-(3)-------------------------|


 Interlude 2:24
  B5             F#5         G5          A5
  |  | |  | |  |  |     |  |||  |   |  |  |
  /  / /  / /  /  /     /  ///  /   /  /  /

                        ~~~~~~~~~~~
|------9-10-9-------|-----------------------|
|---12--------12----|--------------10-12-10-|
|----------------11-|-(11)----(11)----------|
|-------------------|-----------------------|
|-------------------|-----------------------|
|-------------------|-----------------------|
|
| Gtr IV
|                       ~~~~~~~~~~~
|-------------------|-----------------------|
|---------7---------|-----------------------|
|----7-9----9--7--7-|--(7)-----(7)--6--7--6-|
|-------------------|-----------------------|
|-------------------|-----------------------|
|-------------------|-----------------------|


                   D5          E5        B5
    |  |||  |  | | |    |  | | |  |  | | |
    /  ///  /  / / /    /  / / /  /  / / /

    ~~~~~~~~~~~
|--------------------|----------------------|
|-(10)----(10)-8-7-8-|-(8)-7---7-(7)--------|
|--------------------|-------9-------9-7-7--|
|--------------------|----------------------|
|--------------------|----------------------|
|--------------------|----------------------|
|
|   ~~~~~~~~~~~
|--------------------|----------------------|
|--------------------|----------------------|
|--(6)-----(6)-6-6-7-|-(7)-6---6-(6)--------|
|--------------------|-------9-------9-7-9--|
|--------------------|----------------------|
|--------------------|----------------------|


                    F#5          G5          A5
   |    | |  | |  |   |     |  |||  |   |  |  |
   /    / /  / /  /   /     /  ///  /   /  /  /

                            ~~~~~~~~~~~
|---------9-10-9----/14-|-(14)----(14)-12-10-12-|
|------12--------12-----|-----------------------|
|-(7)-------------------|-----------------------|
|-----------------------|-----------------------|
|-----------------------|-----------------------|
|-----------------------|-----------------------|
|
|                           ~~~~~~~~~~~
|-----------------------|-----------------------|
|------------7----------|-----------------------|
|-------7-9----9--7---7-|--(7)-----(7)--6--7--6-|
|-(9)-------------------|-----------------------|
|-----------------------|-----------------------|
|-----------------------|-----------------------|


                                               B5
    |  |||  |   | |  |     |  |  | |  |   |  |  |
    /  ///  /   / /  /     /  /  / /  /   /  /  /

    ~~~~~~~~~~~
|-(12)----(12)-10-9-10-|-(10)-9----9-(9)-----------|
|----------------------|--------12-------12-10-12--|
|----------------------|---------------------------|
|----------------------|---------------------------|
|----------------------|---------------------------|
|----------------------|---------------------------|
|
|   ~~~~~~~~~~~
|----------------------|---------------------------|
|----------------------|---------------------------|
|--(6)-----(6)---------|-----------------------/7--|
|---------------9-7--9-|--(9)-7--5-7-(7)--5--------|
|----------------------|---------------------9-----|
|----------------------|---------------------------|


                     F#5         G5          A5
    |    | |  | |  |  |     |  |||  |   |  |  |
    /    / /  / /  /  /     /  ///  /   /  /  /

                            ~~~~~~~~~~~
|----------9-10-9-------|-----------------------|
|-(12)--12--------12----|--------------10-12-10-|
|--------------------11-|-(11)----(11)----------|
|-----------------------|-----------------------|
|-----------------------|-----------------------|
|-----------------------|-----------------------|
|
|                           ~~~~~~~~~~~
|-----------------------|-----------------------|
|-------------7---------|-----------------------|
|--(7)---7-9----9--7--7-|--(7)-----(7)--6--7--6-|
|-----------------------|-----------------------|
|-----------------------|-----------------------|
|-----------------------|-----------------------|


                   D5          E5        B5
    |  |||  |  | | |    |  | | |  |  | | |
    /  ///  /  / / /    /  / / /  /  / / /

|--------------------|----------------------|
|-(10)----(10)-8-7-8-|-(8)-7---7-(7)--------|
|--------------------|-------9-------9-7-7--|
|--------------------|----------------------|
|--------------------|----------------------|
|--------------------|----------------------|
|
|   ~~~~~~~~~~~
|--------------------|----------------------|
|--------------------|----------------------|
|--(6)-----(6)-6-6-7-|-(7)-6---6-(6)--------|
|--------------------|-------9-------9-7-9--|
|--------------------|----------------------|
|--------------------|----------------------|


                    F#5          G5          A5
   |    | |  | |  |   |     |  |||  |   |  |  |
   /    / /  / /  /   /     /  ///  /   /  /  /

                            ~~~~~~~~~~~
|---------9-10-9----/14-|-(14)----(14)-12-10-12-|
|------12--------12-----|-----------------------|
|-(7)-------------------|-----------------------|
|-----------------------|-----------------------|
|-----------------------|-----------------------|
|-----------------------|-----------------------|
|
|                           ~~~~~~~~~~~
|-----------------------|-----------------------|
|------------7----------|-----------------------|
|-------7-9----9--7---7-|--(7)-----(7)--6--7--6-|
|-(9)-------------------|-----------------------|
|-----------------------|-----------------------|
|-----------------------|-----------------------|


                                               Dm
    |  |||  |   | |  |     |  |  | |  |   |  |
    /  ///  /   / /  /     /  /  / /  /   /  /

                                               Gtrs II, III
    ~~~~~~~~~~~
|-(12)----(12)-10-9-10-|-(10)-9----9-(9)-------5--|
|----------------------|--------12-------12-10-6--|
|----------------------|-----------------------7--|
|----------------------|-----------------------0--|
|----------------------|--------------------------|
|----------------------|--------------------------|
|
|   ~~~~~~~~~~~
|----------------------|--------------------------|
|----------------------|--------------------------|
|--(6)-----(6)---------|--------------------------|
|---------------9-7--9-|--(9)-7--5-7-(7)--5-------|
|----------------------|---------------------9----|
|----------------------|--------------------------|


 Bridge- 2:45
                  Dsus4                 Dm
  Gtrs II, III
       PM-----|              PM---------------|
|-(5)-------------(5)-|-(5)-------------(5)---|
|-(6)--------------8--|-(8)--------------6----|
|-(7)--------------7--|-(7)--------------7----|
|-(0)--0--0-0-(0)--0--|-(0)--0--0-0-(0)--0----|
|---------------------|-----------------------|
|---------------------|-----------------------|


                  Dsus4               Bb
       PM-----|            PM-------------|
|-(5)---------------|---------------------|
|-(6)-------------8-|-(8)-------------6---|
|-(7)-------------7-|-(7)-------------7---|
|-(0)--0--0-0-(0)-0-|-(0)--0--0-0-(0)-8---|
|-------------------|---------------------|
|-------------------|---------------------|


                    Bb6                  F5                   C              Dm
|--------------------|--------------------|--------------------|-----------5--|
|-(6)-------------8--|-(8)-------------6--|-(6)-------------5--|-(5)-------6--|
|-(7)-------------7--|-(7)-------------5--|-(5)-------------5--|-(5)-------7--|
|-(8)--0--0-0-(0)-8--|-(8)--0--0-0-(0)-3--|-(3)-------------5--|-(5)-------0--|
|--------------------|--------------------|------3--3-3-(3)----|--------------|
|--------------------|--------------------|--------------------|--------------|


                  Dsus4                 Dm
       PM-----|              PM---------------|
|-(5)-------------(5)-|-(5)-------------(5)---|
|-(6)--------------8--|-(8)--------------6----|
|-(7)--------------7--|-(7)--------------7----|
|-(0)--0--0-0-(0)--0--|-(0)--0--0-0-(0)--0----|
|---------------------|-----------------------|
|---------------------|-----------------------|


                  Dsus4               Bb
       PM-----|            PM-------------|
|-(5)---------------|---------------------|
|-(6)-------------8-|-(8)-------------6---|
|-(7)-------------7-|-(7)-------------7---|
|-(0)--0--0-0-(0)-0-|-(0)--0--0-0-(0)-8---|
|-------------------|---------------------|
|-------------------|---------------------|


                    Bb6                  F5                   C            D5
|--------------------|--------------------|--------------------|--------------|
|-(6)-------------8--|-(8)-------------6--|-(6)-------------5--|-(5)-------3--|
|-(7)-------------7--|-(7)-------------5--|-(5)-------------5--|-(5)-------2--|
|-(8)--0--0-0-(0)-8--|-(8)--0--0-0-(0)-3--|-(3)-------------5--|-(5)-------0--|
|--------------------|--------------------|------3--3-3-(3)----|--------------|
|--------------------|--------------------|--------------------|--------------|


 Chorus- 3:08
            F5            Bb5           C5            G5
|-------------|-------------|-------------|-------------|
|-(3)-------6-|-(6)---------|-------------|-------------|
|-(2)-------5-|-(5)-------3-|-(3)-------5-|-(5)-------0-|
|-(0)-------3-|-(3)-------3-|-(3)-------5-|-(5)-------0-|
|-----------3-|-(3)-------1-|-(1)-------3-|-(3)---------|
|-------------|-------------|-------------|-------------|


            Bb5           F5            C5                                 D5
|-------------|-------------|-------------|-----------------------------------|
|-------------|-------------|-------------|---------------------------------3-|
|-(0)-------3-|-(3)---------|-----------5-|-(5)-----------------------------2-|
|-(0)-------3-|-(3)-------3-|-(3)-------5-|-(5)-----------------------------0-|
|-----------1-|-(1)-------3-|-(3)-------3-|-(3)-------------------------------|
|-------------|-----------1-|-(1)---------|-----------------------------------|
|
| Gtr I
|-------------|-------------|-------------|------------10---------------------|
|-------------|-------------|-------------|-----/10-13------------------------|
|-------------|-------------|-------------|---------------12b14r(12)-10-------|
|-------------|-------------|-------------|-----------------------------12-12-|
|-------------|-------------|-------------|-----------------------------------|
|-------------|-------------|-------------|-----------------------------------|


             F5            Bb5           C5                                G5
|--------------|-------------|-------------|---------------------------------|
|--(3)---------|-------------|-------------|---------------------------------|
|--(2)---------|-----------3-|-(3)-------5-|-(5)---------------------------0-|
|--(0)-------3-|-(3)-------3-|-(3)-------5-|-(5)---------------------------0-|
|------------3-|-(3)-------1-|-(1)-------3-|-(3)-----------------------------|
|------------1-|-(1)---------|-------------|---------------------------------|
|
|   ~~~~                                                          ~~~~~~~
|--------------|-------------|-------------|-----15b17==(15)r-15-13-(13)-----|
|--------------|-------------|-------------|---------------------------------|
|--------------|-------------|-------------|---------------------------------|
|-(12)---------|-------------|-------------|---------------------------------|
|--------------|-------------|-------------|---------------------------------|
|--------------|-------------|-------------|---------------------------------|


            Bb5           C5
|-------------|-------------|--------------------------------------|
|-------------|-------------|--------------------------------------|
|-(0)-------3-|-(3)-------5-|-(5)----------------------------------|
|-(0)-------3-|-(3)-------5-|-(5)----------------------------------|
|-----------1-|-(1)-------3-|-(3)----------------------------------|
|-------------|-------------|--------------------------------------|
|
|-------------|-------------|-----13-10-13-10-13-------------------|
|-------------|-------------|--------------------10-13-10----10----|
|-------------|-------------|-----------------------------12----12-|
|-------------|-------------|--------------------------------------|
|-------------|-------------|--------------------------------------|
|-------------|-------------|--------------------------------------|


|---------------------------------------------|
|---------------------------------------------|
|-(5)-----------------------------------------|
|-(5)-----------------------------------------|
|-(3)-----------------------------------------|
|---------------------------------------------|
|
|---------------------------------------------|
|---------------------------------------------|
|-10--12-10----10----10-12b14==(12)r(12)-10---|
|-----------12----12--------------------------|
|---------------------------------------------|
|---------------------------------------------|


 Outro 3:30
  D5                   Bb5
  Gtrs I, IV
|-------------------------|-----------------------------|
|-------------15----------|-----------------------------|
|----------14----------17-|-(17)-------15-(15)-12-14----|
|-12-14-15-------12-14----|------12-14---------------15-|
|-------------------------|-----------------------------|
|-------------------------|-----------------------------|
|
| Gtrs II, III
|  PM---------------|                       PM------------|
|-------------------------|-------------------------------|
|-------------------------|-------------------------------|
|-------------------------|-------------------------------|
|--7--7--7--7--7--7--7--3-|--(3)--3--3------3---3--3------|
|--5--5--5--5--5--5--5--1-|--(1)--1--1------1---1--1------|
|-------------------------|-------------------------------|


  D5                   C5
|-------------------------|-----------------------------|
|-------------15----------|-----------------------------|
|----------14----------17-|-(17)-------15-(15)-12-14----|
|-12-14-15-------12-14----|------12-14---------------15-|
|-------------------------|-----------------------------|
|-------------------------|-----------------------------|
|
|  PM---------------|                       PM------------|
|-------------------------|-------------------------------|
|-------------------------|-------------------------------|
|-------------------------|-------------------------------|
|--7--7--7--7--7--7--7--5-|--(5)--5--5------5---5--5------|
|--5--5--5--5--5--5--5--3-|--(3)--3--3------3---3--3------|
|-------------------------|-------------------------------|


  D5                   Bb5                           C5
|-------------------------|-----------------------------|
|-------------15----------|-----------------------------|
|----------14----------17-|-(17)-------15-(15)-12-14----|
|-12-14-15-------12-14----|------12-14---------------15-|
|-------------------------|-----------------------------|
|-------------------------|-----------------------------|
|
|  PM---------------|                       PM------------|
|-------------------------|-------------------------------|
|-------------------------|-------------------------------|
|-------------------------|-------------------------------|
|--7--7--7--7--7--7--7--3-|--(3)--3--3------3---3--3--5---|
|--5--5--5--5--5--5--5--1-|--(1)--1--1------1---1--1--3---|
|-------------------------|-------------------------------|


|--------------------------|---------------------------|
|--------------15----------|---------------15----------|
|-----------14----14-------|------------14----14-------|
|-12--14-15----------15-12-|-(12)-14-15----------15-12-|
|--------------------------|---------------------------|
|--------------------------|---------------------------|
|
|      PM---------------|          PM--------------------|
|--------------------------|-----------------------------|
|--------------------------|-----------------------------|
|--------------------------|-----------------------------|
|-(5)--5--5--5--5--5--5--5-|--(5)--5--5--5--5--5--5--5---|
|-(3)--3--3--3--3--3--3--3-|--(3)--3--3--3--3--3--3--3---|
|--------------------------|-----------------------------|


                                                     D5
|---------------------------|--------------------------|-----*|
|---------------15----------|---------------15---------|-----*|
|------------14----14-------|------------14----14------|-----*|
|-(12)-14-15----------15-12-|-(12)-14-15----------15-0-|-----*|
|---------------------------|------------------------0-|-----*|
|---------------------------|--------------------------|-----*|
|
|       PM---------------|          PM--------------------------|
|---------------------------|--------------------------|--------|
|---------------------------|--------------------------|--------|
|---------------------------|--------------------------|--------|
|--(5)--5--5--5--5--5--5--5-|--(5)--5--5--5--5--5--5-7-|--------|
|--(3)--3--3--3--3--3--3--3-|--(3)--3--3--3--3--3--3-5-|--------|
|---------------------------|--------------------------|--------|

2.DANCE OF DEATH

Intro:
Guitar 1
    E           G/F#        D
e|-------------------------------------|
B|-------------------------------------|
G|-------------------------------------|
D|----9---9------12--12-------7---7----|\
A|--7---7---7---9---9---9---5---5---5--| \
E|-------------------------------------|  \
    C           C           D              \
e|--------------------------------------------|    \
B|--------------------------------------------|     \
G|--------------------------------------------|     2x
D|----5---5-------5---5-------7---7-----------|     /
A|--3---3---3---3---3---3---5---5---5---------|    /
E|--------------------------------------------|   /
    E           E                         /
e|----------------------------------------|             /
B|----------------------------------------|            /
G|----------------------------------------|           /
D|----9---9-------9---9-------------------|_________/
A|--7---7---7---7---7---7-----------------|
E|----------------------------------------|
    E           G/F#        D
e|-------------------------------------|
B|-------------------------------------|
G|-------------------------------------|
D|----9---9------12--12-------7---7----|
A|--7---7---7---9---9---9---5---5---5--|
E|-------------------------------------|
    A           C           D
e|-------------------------------------|
B|-------------------------------------|
G|-------------------------------------|
D|----2---2-------5---5-------7---7----|
A|--0---0---0---3---3---3---5---5---5--|
E|-------------------------------------|
    E           E
e|-------------------------|
B|-------------------------|
G|-------------------------|
D|----9---9-------9---9----|
A|--7---7---7---7---7---7--|
E|-------------------------|

Guitar 2
e|-----------------------7-7-----------------|
B|------7---8--10-8----------10--8-7---------|
G|--9----------------9---------------9-------|
D|-------------------------------------------|
A|-------------------------------------------|
E|-------------------------------------------|

e|--7-7-10--7-----------------7-7------------|
B|------------10--8--10-8---------10--8-7----|
G|------------------------9---------------9--|
D|-------------------------------------------|
A|-------------------------------------------|
E|-------------------------------------------|

Vers 1: 2x
Guitar 1
    E           G/F#        D
e|-------------------------------------|
B|-------------------------------------|
G|-------------------------------------|
D|----9---9------12--12-------7---7----|
A|--7---7---7---9---9---9---5---5---5--|
E|-------------------------------------|
    C           C           D
e|-------------------------------------|
B|-------------------------------------|
G|-------------------------------------|
D|----5---5-------5---5-------7---7----|
A|--3---3---3---3---3---3---5---5---5--|
E|-------------------------------------|
    E           E
e|-------------------------|
B|-------------------------|
G|-------------------------|
D|----9---9-------9---9----|
A|--7---7---7---7---7---7--|
E|-------------------------|
    E           G/F#        D
e|-------------------------------------|
B|-------------------------------------|
G|-------------------------------------|
D|----9---9------12--12-------7---7----|
A|--7---7---7---9---9---9---5---5---5--|
E|-------------------------------------|
    A           C           D
e|-------------------------------------|
B|-------------------------------------|
G|-------------------------------------|
D|----2---2-------5---5-------7---7----|
A|--0---0---0---3---3---3---5---5---5--|
E|-------------------------------------|
    E           E
e|-------------------------|
B|-------------------------|
G|-------------------------|
D|----9---9-------9---9----|
A|--7---7---7---7---7---7--|
E|-------------------------|

Vers 2: 2x
Guitar 1
| E5 | G5/F# | D5 | C5 |

| C5 | D5 | E5 | E5 |

| E5 | G5/F# | D5 | A5 |

| C5 | D5 | E5 | E5 |

Guitar 2
e|--------------------------------|
B|--------------------------------|
G|--(9)-(9)-9--7------------------|
D|---------------10-9-7-9-10-9~~--| 3x
A|--------------------------------|
E|--------------------------------|

Vers 3:
| E5 | G5/F# D5 | 2x
                        ___
| E5 | G5/F# | D5 | C5 |   \
                            \
| C5 | D5 | E5 | G5/F# D5 |  \
                             2x
| E5 | G5/F# | D5 | A5 |     /
                            /
| C5 | D5 | E5 | G5/F# D5 |/

| E5 | G5/F# | D5 | C5 |

| C5 | D5 | E5 | G5/F# D5 |

| E5 | G5/F# | D5 | A5 |

| C5 | D5 | Em |

Bridge:
e|-----------------|
B|----7-8-7--------|
G|--9-------9-7-9--|
D|-----------------| 3x
A|-----------------|
E|-----------------|

e|-----------------|
B|----7-7--7-7-7---|
G|--9--------------|
D|-----------------|
A|-----------------|
E|-----------------|

e|-----------------|
B|----7-8-7--------|
G|--9-------9-7-9--|
D|-----------------|
A|-----------------|
E|-----------------|

e|----------------------7------------|\-----|
B|----7-8-7---7-8--8-10---10-8-7-8----------| \
G|--9-------9-------------------------------|  \
D|------------------------------------------|   \
A|------------------------------------------|    \
E|------------------------------------------|     \
                                           2x
e|------------------------------------------|     /
B|----7-8-7-----7----7-8-7------------------|    /
G|--9-------9-7----9-------9-7-9------------|   /
D|------------------------------------------|  /
A|------------------------------------------| /
E|------------------------------------------|

e|-----------------|\-----|
B|----7-8-7---------------| \
G|--9-------9-7-9---------|  \
D|------------------------| 2x\
A|------------------------|    \
E|------------------------|     \
                          \
e|---------------------------|       \
B|----7-7--7-7-7-------------|        \
G|--9------------------------|        2x
D|---------------------------|        /
A|---------------------------|       /
E|---------------------------|      /
                         /
e|-------------------|    /
B|----7-8-7----------|   /
G|--9-------9-7-9----|  /
D|-------------------| /
A|-------------------|
E|-------------------|

e|----------------------7------------|\-----|
B|----7-8-7---7-8--8-10---10-8-7-8----------| \
G|--9-------9-------------------------------|  \
D|------------------------------------------|   \
A|------------------------------------------|    \
E|------------------------------------------|     \
                                           2x
e|------------------------------------------|     /
B|----7-8-7-----7----7-8-7------------------|    /
G|--9-------9-7----9-------9-7-9------------|   /
D|------------------------------------------|  /
A|------------------------------------------| /
E|------------------------------------------|

Chorus:
Guitar 1
| E5 | G5 | D5 | E5 | 4x

Guitar 2
e|----------------------|
B|----------------------|
G|----------------------|
D|--10-9-7----7---------|
A|---------10---10-9-7--|
E|----------------------|

| C5 | B5 |

e|----------------------|
B|----------------------|
G|----------------------|
D|--10-9-7----7---------|
A|---------10---10-9-7--|
E|----------------------|

| C5 | B5 |

Bridge 2: 2x
e|-----------------|\-----|
B|----7-8-7---------------| \
G|--9-------9-7-9---------|  \
D|------------------------| 2x\
A|------------------------|    \
E|------------------------|     \
                          \
e|---------------------------|       \
B|----7-7--7-7-7-------------|        \
G|--9------------------------|        2x
D|---------------------------|        /
A|---------------------------|       /
E|---------------------------|      /
                         /
e|-------------------|    /
B|----7-8-7----------|   /
G|--9-------9-7-9----|  /
D|-------------------| /
A|-------------------|
E|-------------------|

e|----------------------7------------|\-----|
B|----7-8-7---7-8--8-10---10-8-7-8----------| \
G|--9-------9-------------------------------|  \
D|------------------------------------------|   \
A|------------------------------------------|    \
E|------------------------------------------|     \
                                           2x
e|------------------------------------------|     /
B|----7-8-7-----7----7-8-7------------------|    /
G|--9-------9-7----9-------9-7-9------------|   /
D|------------------------------------------|  /
A|------------------------------------------| /
E|------------------------------------------|

Solo:

(Chorus)

| F#5 | D5 | E5 | F#5 | 6x

| E5 | G5 | D5 | E5 | 10x

(Bridge 2) 3x

| D5 E5 | G5 E5 | D5 E5 |

Outro:

(Intro)

    E           G/F#        D
e|-------------------------------------|
B|-------------------------------------|
G|-------------------------------------|
D|----9---9------12--12-------7---7----|
A|--7---7---7---9---9---9---5---5---5--|
E|-------------------------------------|
    C           C           D
e|-------------------------------------|
B|-------------------------------------|
G|-------------------------------------|
D|----5---5-------5---5-------7---7----|
A|--3---3---3---3---3---3---5---5---5--|
E|-------------------------------------|
    E           E
e|-------------------------|
B|-------------------------|
G|-------------------------|
D|----9---9-------9---9----|
A|--7---7---7---7---7---7--|
E|-------------------------|
    E           G/F#        D
e|-------------------------------------|
B|-------------------------------------|
G|-------------------------------------|
D|----9---9------12--12-------7---7----|
A|--7---7---7---9---9---9---5---5---5--|
E|-------------------------------------|
    A           C           D
e|-------------------------------------|
B|-------------------------------------|
G|-------------------------------------|
D|----2---2-------5---5-------7---7----|
A|--0---0---0---3---3---3---5---5---5--|
E|-------------------------------------|
    Em
e|------------7--------|
B|----------8----------|
G|--------9---------8--|
D|------9--------9-----|
A|----7----------------|
E|--7------------------|

3.MORE TEA VICAR

Don't Know

4.THE WICKER MAN

e ---------------------------------------------------------------------------------------------|
b ---------------------------------------------------------------------------------------------|
g ---9--9---------------------9--9--------------------9--9----------------------5--5-/-12--12--|
d ---9--9---------------------9--9--------------------9--9----------------------5--5-/-12--12--|
a ---7--7---------------------7--7--------------------7--7----------------------3--3-/-10--10--|
e 0---------0--0--0--0--0---------0--0--0--0--0----------0--0--0--0--0-------------------------|
  m    u   m m m m m    u  m m m m m     u  m m m m m      u          u

Intro Gtrs. 2 and 3
e ----------------------------------------------------------------------------|
b ----------------------------------------------------------------------------|
g ---9--9---------------------9--9--------------------9--9-----5--5-/-12--12--|
d ---9--9---------------------9--9--------------------9--9-----5--5-/-12--12--|
a ---7--7---------------------7--7--------------------7--7-----3--3-/-10--10--|
e ----------------------------------------------------------------------------|

Bridge All Gtrs.
e --------------------------------------------------------------------------------|
b --------------------------------------------------------------------------------|
g --7------5-----/-12--12--12-/11/-9----7------5---------------5--5----7-------5--|
d --7------5-----/-12--12--12-/11/-9----7------5-------5--5----5--5----7-------5--|
a --5------3-----/-10--10--10-/-9/-7----5------3-------5--5----3--3----5-------3--|
e -------------------------------------------------------------3--3---------------|

--------------------------------------------------|
--------------------------------------------------|
--/-12-/-12-/-12-/11/-9----7------5----------5----|
--/-12-/-12-/-12-/11/-9----7------5-----5----5----|
--/-10-/-10-/-10-/-9--7----5------3-----5----3----|
------------------------------------------------3-|


Chorus Gtrs. 1 and 3
e ---------------------------------------------------------------------------------------|
b ---------------------------------------------------------------------------------------|
g --9--9--9--9--9----5--5--5--5--5----------------------------------------9--9--9--9--9--|
d --9--9--9--9--9----5--5--5--5--5----5--5--5--5--5----7--7--7--7--7------9--9--9--9--9--|
a --7--7--7--7--7----3--3--3--3--3----5--5--5--5--5----7--7--7--7--7------7--7--7--7--7--|
e --------------------------------------------3--3--3--3--3----5--5--5--5--5-------------|

--------------------------------------------------------|
--------------------------------------------------------|
--12--12--12--12--12----5--5--5--5--5-------------------|
--12--12--12--12--12----5--5--5--5--5------5--5----7--7-|
--10--10--10--10--10----3--3--3--3--3------5--5----7--7-|
-------------------------------------------3--3----5--5-|
Chorus Gtr. 2  Some people tab this as played on the G string.  It's not.
e ------------------------------------------------------------------------------------|
b -12p10h12p10h12------12p10h12p10h12------12p10h12p10h12------12p10h12h13p12---------|
g ---------------------------12---------------------------12------------------12---12-|
d ------------------------------------------------------------------------------------|
a ------------------------------------------------------------------------------------|
e ------------------------------------------------------------------------------------|

Break Down Gtr. 1
This is played using overdrive.
e --------------------------------------------------------------------|
b --------------------------------------------------------------------|
g -----------------------------------------------------------------7--|
d -------------------------------9p7-7h9--7/9h10p9h10-----10p9p7------|
a -7b--7h9h10--7b----10-----------------------------------------------|
e  -------------------------------------------------------------------|
(Gtr.3 Plays in unison the second time the above riff is played)

e -------------------------12-14p12h14p12h15p14h15p14h17p15h17p15h19p17p15p14/15~~~-|
b ----------------------------------------------------------------------------------|
g ----------------------------------------------------------------------------------|
d ----------------------------------------------------------------------------------|
a -7b--7h9h10--7b-------------------------------------------------------------------|
e ----------------------------------------------------------------------------------|

Break Down Gtrs. 2 and 3,  played 4x
Pretty quiet in the background, it may be hard to hear.
e -----------------------------------------------------------------------------------------------|
b -----------------------------------------------------------------------------------------------|
g --9--9-------------------9--9--------------------5--5------------------------------------7--7--|
d --9--9-------------------9--9--------------------5--5------------------------5--5-------7--7---|
a --7--7-------------------7--7--------------------3--3------------------------5--5-------5--5---|
e --------0--0--0--0--0--------0--0--0--0--0---------0--0--0--0--0------3--3---------------------|

***GUITAR SOLO***

Solo Gtr. 1
e ---------------------------10---7------7------7----------------7b---------------------|
b -12b-12b-12b----10-----------8------8-------8-----------------8p7h8p7h8p7----5p4h5p4--|
g ----------------------------------------------------------9b--------------------------|
d --------------------------------------------------------------------------------------|
a --------------------------------------------------------------------------------------|
e --------------------------------------------------------------------------------------|

e ------------------------------------------------------------------------------------------------------|
b ------------------------------------------------------------------------------------------------------|
g -7p5h7p5-------------------------------------------------------------------------------7h9p7h9p7h9p7--|
d ---------------7p5h7p5----------------------------------7h9p7h9p7h9p7---------------------------------|
a ------------------------7b~-------7h9p7h9p7h9p7--------------------------7h9p7h9p7h9p7----------------|
e ------------------------------------------------------------------------------------------------------|

e -12-12-12h14-14-14h15-15-15h17-17-17h19-19-19p17-17-17p15-15-15p14-14-14--12-12-12h14-14-14h15-15-15h17--|
b ---------------------------------------------------------------------------------------------------------|
g ---------------------------------------------------------------------------------------------------------|
d ---------------------------------------------------------------------------------------------------------|
a ---------------------------------------------------------------------------------------------------------|
e ---------------------------------------------------------------------------------------------------------|

-17p15-15p14p12p13-13~~--|
-------------------------|
-------------------------|
-------------------------|
-------------------------|
-------------------------|

Solo Gtrs. 2 and 3,  played  4x
e --------------------------------------------------------------------------------------|
b --------------------------------------------------------------------------------------|
g --------------------------------------------------------------------------------------|
d --9--9--9--9--9----7--7--7--7--7----5--5--5--5--5----7--7--7--7--7--------------------|
a --9--9--9--9--9----7--7--7--7--7----5--5--5--5--5----7--7--7--7--7--------------------|
e --7--7--7--7--7----5--5--5--5--5----3--3--3--3--3----5--5--5--5--5--------------------|

Outro Gtrs. 1, 2 and 3
e --------------------------------------------|
b --------------------------------------------|
g -9--------5-------------------7-------------|
d -9--------5--------5---------7--------------|
a -7--------3--------5---------5--------------|
e ---------------------3----------------------|
After above is played twice, Gtrs. 1 and 2 switch to this :
e ------------------------------------------------------------------------------------|
b ------------------------------------------------------------------------------------|
g -9-------------------------5-----------------------------------------------------7--|
d -9-------------------------5------------------------5----------------------------7--|
a -7--10--9--10-/-12----3--10--9--10-/12----5----10--9--10-/-12----5--10--9--7-/-5~---|
e ------------------------------------------------------3-----------------------------|

5.CHILDREN OF THE DAMNED

 Em
 e-0----0--------------|--------------3---------------|
 B-0--------0----------|---------0--------0-----------|
 G-0------------0------|-----0----------------0-------|
 D-2----------------2--|--------------------------0---|
 A-2-------------------|------------------------------|
 E-0-------------------|--3---------------------------|

    D                        C            D
 e---------2--------------|-----0-------------2---------|
 B-------------3-------3--|--1-----1------3------3------|
 G--2--------------2------|--0--------0---2---------2---|
 D--0---------------------|--2------------0-------------|
 A------------------------|--3--------------------------|
 E------------------------|-----------------------------|

  Intro Solo:I've broken this into two main sections. Each one
             lasts two bars. Swell into the first note of each
             section with the volume control. The key here is
             a smooth mellow sound. I haven't shown the vibrato's
             because there is a basic 16th note shallow vibrato
             through the whole solo, just listen to the record.
             Try and pick as few of the notes as possible. Use
             smooth slides and hammers/pulls to move between the
             notes. Live, I think Dave uses a 4-stage phaser
             (MXR Phase 90) with a fairly fast rate (about a
             quarter note). There is a slight variation which he
             plays on the 12 Wasted Years Video which I've shown.
             At the end the F# note is sustained instead of
             resolving to the E.

  |----------------------------------------------|
  |----------------------------------------------|
  |----------------------------------------------|
  |-----------------7--/9--7-----7b(9)r-p5-7-p5--|
  |--7-----7--9-10------------5------------------|
  |----------------------------------------------|


  |-----------------------------------------------------------------------|
  |-----------------------------------------------------------------------|
  |----------------------------------------------11--12--11h12p11---------|
  |--------7-/9--7--5--4h5p4-------------12--14-------------------14-12-14|
  |--7------------------------5--12-/14-----------------------------------|
  |-----------------------------------------------------------------------|

  Variation:

  |-----------------------------------------------------------------------|
  |-----------------------------------------------------------------------|
  |----------------------------------------------11--12-p11~sustain-------|
  |--------7-/9--7--5--4h5p4-------------12--14---------------------------|
  |--7------------------------5--12-/14-----------------------------------|
  |-----------------------------------------------------------------------|

Acoustic Riff for Verses:
     Em                            Cmaj7          D6add4
  e-----------------0-----------|------------------------------|
 B--------------------0--------|-----------0-------------0-----|
 G-----------0-----------0-----|--------0--------------0-------|
 D--------2--------------------|-----2--------------4----------|
 A-----2-------------------0h2-|--3--------------5-------------|
 E--0--------------------------|-------------------------------|

Live, in the second verse, after the line "If he had lived he would
have crucified us all" Adrian plays natural harmonics at the 5th fret
as follows.

|--5----------------------|
|-----5-------------------| Natural Harmonics
|--------5----------------|
|-----------5-------------|
|-------------------------|
|-------------------------|

Chorus: I've just shown the basic fingerings for the chorus. You
        can pick up the strumming and muting from the record.
        Note that on alternate repititions of the riff the last
        two chords are muted and strummed differently.

   E(m)      B(m)      C   D   A    G
|----------------------------------------|
|----------------------------------------|
|-------9-9--4-4-------5---7-------------|
|--2----9-9--4-4-------5---7---7-7--5-5--|
|--2----7-7--2-2--0-2--3---5---7-7--5-5--|
|--0---------------------------5-5--3-3--|

After the second chorus the song breaks out of the chorus with
this phrase.

   A  G  F# D  E
|-----------------|
|-----------------|
|--9--7--6--------|
|--7--5--4--7--9--|
|--7--5--4--5--7--|
|-----------------|

The rhythm guitar here is just made up of sustained power chords
like this. Live, the sound here shimmers due to Dave's phaser.
The strumming isn't quite this plain, there are a few muted
strums usually before each chord change.

   E(m)            D         C          D
|----------------------------------------------------------|
|----------------------------------------------------------|
|----------------------------------------------------------|
|--9-------2 BARS--7--2 BARS-5---1 BAR--7---1 BAR----------|
|--7---------------5---------3----------5------------------|
|----------------------------------------------------------|


The next part is the lead which Adrian plays over the vocals
The note in brackets means that sometimes the phrase finishes
with F# and sometimes D.

|-----------------------|----------------------|--------------------|
|-----------------------|----------------------|--------------------|
|-----------------------|----------------------|--------------------|
|--------4--5--4--------|--------4-5-4---------|-/9-9-10-7-9-7-5-4--|
|--7--------------7--5--|--7------------7---5--|----------------(5)-|
|-----------------------|----------------------|--------------------|

The next part is the guitar harmony before the solo.
The bends at the end of these phrases may or may not be unison bends.
Try them yourself and see what you think.

Gtr I (Adrian)
|---------------------------------------------------------------------|
|---------------------------------------------------------------------|
|--9---11-12-11--9--7--4~--5-/7--5--4--7--5--9--11b(12)-9b(11)-7b(9)--|
|---------------------------------------------------------------------|
|---------------------------------------------------------------------|
|---------------------------------------------------------------------|

Gtr II (Dave)
|---------------------------------------------------------------|
|--8--10-/12-10-8-12-7----------------8-10b(12)-8b(10)----------|
|----------------------9-/11-9-7-11-9------------------11b(12)--|
|---------------------------------------------------------------|
|---------------------------------------------------------------|
|---------------------------------------------------------------|


The guitar solo is tapped with the side of the plectrum.
The highest note of each triplet phrase is tapped and the other
two notes are fingered with the first and third finger of your
left hand.
The tab as shown is played through twice except the bend in the
last bit is bent slightly sharper than the A note the second time.

  T  P  H   T  P  H     sim.      sim.
|--20-12-15--19-12-15--20-12-15--19-12-15--|
|------------------------------------------|
|------------------------------------------|
|------------------------------------------|
|------------------------------------------|
|------------------------------------------|


|--20-12-15--19-12-15--20-12-15--19-12-15--|
|------------------------------------------|
|------------------------------------------|
|------------------------------------------|
|------------------------------------------|
|------------------------------------------|


|--15-10-12--14-10-12--15-10-12--14-10-12--|
|------------------------------------------|
|------------------------------------------|
|------------------------------------------|
|------------------------------------------|
|------------------------------------------|


|--15-10-12--14-10-12--15-10-12--14-10-12--|
|------------------------------------------|
|------------------------------------------|
|------------------------------------------|
|------------------------------------------|
|------------------------------------------|


|--15--8-10--14--8-10--15--8-10--14--8-10--|
|------------------------------------------|
|------------------------------------------|
|------------------------------------------|
|------------------------------------------|
|------------------------------------------|


|--15-10-12--14-10-12--15-10-12--14-10-12--|
|------------------------------------------|
|------------------------------------------|
|------------------------------------------|
|------------------------------------------|
|------------------------------------------|


|--20-12-15--19-12-15--20-12-15--19-12-15--|
|------------------------------------------|
|------------------------------------------|
|------------------------------------------|
|------------------------------------------|
|------------------------------------------|


|--15b(17)r15-p12--------------------------|
|-----------------15~----------------------|
|------------------------------------------|
|------------------------------------------|
|------------------------------------------|
|------------------------------------------|


The next bit is right after the solo where Bruce sings
Oh! Oh! Oh! Oh! etc.

|-------------------|-----------------|--------------------|
|-------------------|-----------------|--------------------|
|-------------------|-----------------|--------------------|
|-------4-5-4-------|------4-5-4------|-----4-5-4----4-----|
|--7-----------7-5--|--7---------7-5--|--7---------7----5~-|
|-------------------|-----------------|--------------------|


The next part goes with the remaining vocals, "You're Children
of the ***ed" etc.
It should be noted that the strumming for the rhythm guitar
changes here to a more intense pattern.(Same chords as before).

|-------------------|--------------------|
|-------------------|--------------------|
|-------------------|--------------------|
|--5-(7)/9-7-5-4-5--|--5--(7)/9-7-5-4-5--|
|-------------------|--------------------|
|-------------------|--------------------|

|-------------------|--------------------|
|-------------------|--------------------|
|-------------------|--------------------|
|--5-(7)/9-7-5-5-4--|--7--(7)/9-7-4-h5---|
|-------------------|------------------5-|
|-------------------|--------------------|


Ending:

Gtr I (Adrian)
|----------------------------------------------------------|
|----------------------------------------------------------|
|----------------------------------------------------------|
|--5----4----2----0----4~--------2~---------------2--------|
|---------------------------2~--------------------2--------|
|-------------------------------------------------0--------|


Gtr II (Dave)
|----------------------------------------------------------|
|----------------------------------------------------------|
|--9----7--------------9--------------------------9--------|
|--9----7----5----7----9--------------------------9--------|
|--7----5----5----7----7--------------------------7--------|
|------------3----5----0-----------------------------------|

6.WILDEST DREAMS

e|------------------------------------|-------------------------------------------------------------|
B|------------------------------------|-------------------------------------------------------------|
G|------------------------------------|-------------------------------------------------------------|
D|---6------7----7-----7-----7p6------|--6-----7-----7----7-----7-----6-----7----7------7-----7p6---|
A|---7------7----7-----7-----7--------|--7-----7-----7----7-----7-----7-----7----7------7-----7-----|
E|0----0--0---------0-----0-----0-0---|----0-0---0-0--------0-0---0-0---0-0--------0--0---0-0-------|

e|---------------|-----------------------------------|
B|---------------|-----------------------------------|
G|---------------|-----------------------------------|
D|-5-----6-----7-|----6------7----7-----7-----7p6----|
A|-4-----5-----5-|----7------7----7-----7-----7------|
E|---0-0---0-0---|-0----0--0---------0-----0-----0-0-|

--------------------------------------------------------|
--------------------------------------------------------|
--------------------------------------------------------|
--6-----7-----7----7-----7-----6-----7---7-----7-----7p6|
--7-----7-----7----7-----7-----7-----7---7-----7-----7--|
----0-0---0-0--------0-0---0-0---0-0--------0-0---0-0---|


e|---------------|-----------------------------------|
B|---------------|-----------------------------------|
G|---------------|-----------------------------------|
D|-5-----6-----7-|----6------7----7-----7-----7p6----|
A|-4-----5-----5-|----7------7----7-----7-----7------|
E|---0-0---0-0---|-0----0--0---------0-----0-----0-0-|

--------------------------------------------------------|
--------------------------------------------------------|
--------------------------------------------------------|
--6-----7-----7----7-----7-----6-----7---7-----7-----7p6|
--7-----7-----7----7-----7-----7-----7---7-----7-----7--|
----0-0---0-0--------0-0---0-0---0-0--------0-0---0-0---|


e|-----------------------------------------------------------------------------------------------------------|
B|-----------------------------------------------------------------------------------------------------------|
G|-----------------------------------------------------------------------------------------------------------|
D|----------5--3p2---------5--3p2-----------------5--3p2--------5--3p2-------------5--3p2---------5--3p2-----|
A|-3----5-----------5--------------5---3----5-------------5-------------5---3--5-----------5--------------5--|
E|-1----3--------------3---------------1----3----------------3--------------1--3--------------3--------------|

e|-------------------------------------------------------------------------------------------------|
B|-------------------------------------------------------------------------------------------------|
G|--------------------------6--7--6--7p6--6-7---10---9--12p11---6-7-6-7p6-6--7---------------------|
D|-------------2------------7--7--7--7----7-7---10--10--12------7-7-7-7---7--7----5--5-5-----------|
A|-3----5--5---2----------------------------------------------------------------0-3--3-3---5-------|
E|-1----3--3---0---0-0-0-0---------------------------------------------------------------3-3-------|

e|--------------------------------------------------------------------------|
B|--------------------------------------------------------------------------|
G|---6--7--6--7p6--6-7---10---9--12p11---6-7-6-7p6-6--7---------------------|
D|---7--7--7--7----7-7---10--10--12------7-7-7-7---7--7----5--5-5-----------|
A|-------------------------------------------------------0-3--3-3---5-------|
E|----------------------------------------------------------------3-3-------|

e|------------------------------------------------------------------------------|
B|------------------------------------------------------------------------------|
G|--7--6---4--------------------------------------------------------------------|
D|------------7--5-----4--7--5--4-----------------------------------------------|
A|--------------------------------7--5--4--0------------------------------------|
E|------------------------------------------------------------------------------|

solo

e|------------------------------------7---9--10--9--10--12--10p9-------------------------|
B|--10^^(with wah-wah)----10--10^^--------------------------------10p9-------------------|
G|---------------------------------------------------------------------11p9--------------|
D|---------------------------------------------------------------------------------------|
A|---------------------------------------------------------------------------12----------|
E|---------------------------------------------------------------------------------------|

|----------7---------------------------------------------------------------------------------|
|--------7---10p7------7---------------------------------------------------------------------|
|--9^^-------------9^^----10--9---7^----9---9-9----------------------------------------------|
|-------------------------------------9---9-----9--9--7----------7---------------------------|
|----------------------------------------------------------9--8-----9--8--7p5-----7--<7>/14--|
|------------------------------------------------------------------------------7-------------|

|----------------------------------------------------------------------------------|
|-0-5-7-0-5-7-0-7-8-7-8p7-0-8-10-0-8-10-0-10-12-0-10-12-0-12-14-0-12-14-0-14-15----|
|----------------------------------------------------------------------------------|
|----------------------------------------------------------------------------------|
|----------------------------------------------------------------------------------|
|----------------------------------------------------------------------------------|
                                       wah-wah
|---------------------17^^----------------------------------------------------------------|
|--17^^r17^^---17^------------17^------15p14-------15p14------14--------------------------|
|----------------------------------------------16---------16-----16p14------14------------|
|-----------------------------------------------------------------------16------16--------|
|-----------------------------------------------------------------------------------------|
|-----------------------------------------------------------------------------------------|

|------------------------------------------------------------------------|
|------------------------------------------------------------------------|
|---------------------------------------14p16-----------<16>-------------|
|---15--14p12-------14--12--14--12---------------------------------------|
|---------------14-------------------------------------------------------|
|------------------------------------------------------------------------|
end solo

|----------------------------------------------------------------------------------------------|
|------------------------------------------------/9---10---12----12h13----p12-----10--9~~~~----|
|----------------------------------------------------------------------------------------------|
|--9---(9)\\-----5----7-----9----5---7---9-----------------------------------------------------|
|--7---(7)\\-----3----5-----7----3---5---7-----------------------------------------------------|
|----------------------------------------------------------------------------------------------|


|--------------------------------------------------------------------------|
|---9---10---12--12p13---13h15--13--12h13p12-------------------------------|
|--------------------------------------------------------------------------|
|--------------------------------------------------------------------------|
|--------------------------------------------------------------------------|
|--------------------------------------------------------------------------|

|---------------------------------------------------------------------------------------|
|---------------------------------------------------------------------------------------|
|---------------------------------------------------------------------------------------|
|---5---------7-------9-----------5---------7-------9-----------------------------------|
|---3--(x8)---5-(x8---7--(x16)----3--(x8)---5-(x8---7--(x16)----------------------------|
|---------------------------------------------------------------------------------------|

e|--------------------------------------------------------------------------|
B|--------------------------------------------------------------------------|
G|---6--7--6--7p6--6-7---10---9--12p11---6-7-6-7p6-6--7---------------------|
D|---7--7--7--7----7-7---10--10--12------7-7-7-7---7--7----5--5-5-----------|
A|-------------------------------------------------------0-3--3-3---5-------|
E|----------------------------------------------------------------3-3-------|

e|------------------------------------------------------------------------------|
B|------------------------------------------------------------------------------|
G|--7--6---4--------------------------------------------------------------------|
D|------------7--5-----4--7--5--4-----------------------------------------------|
A|--------------------------------7--5--4--0------------------------------------|
E|------------------------------------------------------------------------------|
21 comments total. Showing first comments.
0 reply
maidenfan12 wrote on December 19 2004, 12:00 am

er...
right...
just which album is this?

0 reply
stevo192 wrote on March 22 2005, 12:00 am

I thought the same...its on a album called dance of death (their newest). If you were any kind of fan you would already know this you numbskull...and how can you have an album with 1 song on?

0 reply
culls.2000 wrote on March 29 2005, 12:00 am

What? I'm confused. Sounds like it would be a good album though.

I want to post or [tab]
guest
You may want to rate the tab now too:
select rating
Please do not post tabs as comments. Select "correction" instead!