Oops, an error
Loading. Please wait.

Seventh Son Of A Seventh Son Tab

ver1
ver1

Album

Whole song

More versions @911Tabs.com
20,990 views 30 this week
2 commentsread comments
1 2 3 4 5
worth learning
x 7
Autoscroll
+/-
esc
set tempo
stop
Contributor
WARNING: You are trying to view
                                    content from Ultimate-Guitar.com
                                    in an unauthorized application,
                                    which is prohibited.

                                    Please use an official Ultimate
                                    Guitar Tabs application for iPhone,
                                    iPad or Android to access legitimate
                                    chords, guitar, bass, and drum tabs
                                    from Ultimate-Guitar.com database.

                                    Type "ultimate guitar tabs" in Apple
                                    App Store's or Android Market's
                                    search to find the application.
Band- Iron Maiden
Album- Seventh Son Of A Seventh Son

1.MOONCHILD

Em                  D
Seven deadly sins,  seven ways to win,
Am                  Cmaj7          Em
seven holy paths to hell  and your trip begins.

Em                     D
Seven downward slopes, seven bloodied hoopes
Am                     Cmaj7       D
seven are your burning fires       seven your desires

   E!

E--------------------------------|------------------------------------|
B--------------------------------|--------------3-----3---------------|
G--------------------------------|------2---4p2---4p2---4p2-2h4-4p2---|
D--------------------------------|--2-----2---------------------------|
A--7-----------------------------|------------------------------------|
E--0-----------------------------|------------------------------------|
   [fade in with volume]           [let it sustain]

[riff 1]
                                            [repeat last measure]
E------------------------------------|--------------------------------|
B---------------3-----3--------------|--------------------------------|
G-----4p2---4p2---4p2---4p2-2h4-4p2--|----------*-/-------------------|
D---2-----2--------------------------|-----------/--------------------|
A------------------------------------|----------/-*-------------------|
E------------------------------------|--------------------------------|

[end riff 1]
[Guitar 1 repeat riff 1, Guitar 2 play this riff]
   E!
E--------------------------------|------------------------------------|
B--------------------------------|------------------------------------|
G--------------------------------|------------------------------------|
D--9-----------------------------|------------------------------------|
A--7-----------------------------|------------------------------------|
E--0-----------------------------|------------------------------------|

   E!
E--------------------------------|------------------------------------|
B--------------------------------|------------------------------------|
G--------------------------------|------------------------------------|
D--9-----------------------------|------------------------------------|
A--7-----------------------------|------------------------------------|
E--0-----------------------------|------------------------------------|

[intro]
   E! B! D! A!
E--------------------------------|------------------------------------|
B--------------------------------|------------------------------------|
G--------------------------------|------------------------------------|
D--9-----7-----------------------|------------------------------------|
A--7--9--5--7--------------------|------------------------------------|
E-----7-----5--------------------|------------------------------------|

   B! G! A! E!
E--------------------------------|------------------------------------|
B--------------------------------|------------------------------------|
G--------------------------------|------------------------------------|
D-----------2--------------------|------------------------------------|
A--9--5--7--2--------------------|------------------------------------|
E--7--3--5--0--------------------|------------------------------------|

   E! B! D! A!
E--------------------------------|------------------------------------|
B--------------------------------|------------------------------------|
G--------------------------------|------------------------------------|
D--9-----7-----------------------|------------------------------------|
A--7--9--5--7--------------------|------------------------------------|
E-----7-----5--------------------|------------------------------------|

   B! G! A! Dadd9/F#
E-----------0--------------------|------------------------------------|
B-----------3--------------------|------------------------------------|
G-----------2--------------------|------------------------------------|
D-----------0--------------------|------------------------------------|
A--9--5--7--0--------------------|------------------------------------|
E--7--3--5--2--------------------|------------------------------------|

[end intro]
[repeat intro]
[guitar 1 keep playing riff 1]
                                            [repeat last measure]
E--------------------------------|------------------------------------|
B--------------------------------|------------------------------------|
G--------------------------------|--------------*-/-------------------|
D--9-----9-----9-----9-----------|---------------/--------------------|
A--7-----7-----7-----7-----------|--------------/-*-------------------|
E--0-----0-----0-----0-----------|------------------------------------|

                                            [repeat last measure]
E--------------------------------|------------------------------------|
B--------------------------------|------------------------------------|
G--------------------------------|--------------*-/-------------------|
D--9-----9-----9-----9-----------|---------------/--------------------|
A--7-----7-----7-----7-----------|--------------/-*-------------------|
E--0-----0-----0-----0-----------|------------------------------------|

E!           E!+5               D!              E!
I am he, the bornless one the   fallen angel    watching you.
Babylon the  scarlet whore I'll infiltrate your gratitude

[riff 2]
   E!                 E!+5              D!                 E!
E-------0----------|-------0---------|---------0--------|-----------0------|
B----0-----0-------|----1-----0------|------------0-----|-------0----------|
G------------------|-----------------|------2-----------|------------------|
D--2---------------|--2--------------|--0---------------|--2---------------|
A------------------|-----------------|------------------|------------------|
E------------------|-----------------|------------------|------------------|

   E!                 E!+5              D!                 C!       D!
E-------0----------|-------0---------|---------0--------|------------------|
B----0-----0-------|----1-----0------|------------0-----|-------0---3------|
G------------------|-----------------|------2-----------|-----------2------|
D--2---------------|--2--------------|--0---------------|--3--------0------|
A------------------|-----------------|------------------|------------------|
E------------------|-----------------|------------------|------------------|
[end riff 2]

E!                E!+5              D!               E!
Don't you dare to save your son,    kill him now and save the young ones
E!                       E!+5                   D!
Be the mother of a birth strangled babe, be the Devil's own,
      C!       D!
Luci- fer's my name

[riff 3]
   E!                                   D!
E--0---------------|-----------------|--0-------------|--------------------|
B-----0---3--------|-----------------|-----0---3------|--------------------|
G-------------2----|--2^vp0----------|-------------2--|-2^vp0-----2p0------|
D------------------|----------2------|----------------|--------2p0---2p0-2-|
A------------------|-----------------|----------------|--------------------|
E------------------|-----------------|----------------|--------------------|
   C!                                   D!
E--0---------------|-----------------|--0-------------|--------------------|
B-----0---3--------|-----------------|-----0---3------|--------------------|
G-------------2----|--2^vp0----------|-------------2--|-2^vp0-----2p0------|
D------------------|----------2------|----------------|--------2p0---2p0-2-|
A------------------|-----------------|----------------|--------------------|
E------------------|-----------------|----------------|--------------------|

[end riff 3]
E!                   D!
Moonchild   hear the Mandrake scream
C!                   D!
Moonchild   open the seveth seal

E!                   E!+5             D!                 E!
I count the heads of those unborn the accursed ones I'll find them all
If you die           by your own hand as asuicide   you'll shall be ***ed

[Play riff 2]
E!              E!+5              D!                 E!
And if you try  to save your soul I will torment you you shall not grow old
E!                     E!+5
With every second  and passing breath
       D!                         C!       D!
You'll be so alone your soul will bleed to death

[Play riff 3]
E!                   D!
Moonchild   hear the Mandrake scream
C!                   D!
Moonchild   open the seveth seal

[riff 4]
E------------------|-----------------|------------------|------------------|
B------------------|-----------------|------------------|------------------|
G--4---------------|---5-------------|----------2-------|---------4--------|
D--4---------------|---5-------------|------4-----------|-----4------------|
A--2---------------|---3-------------|---2--------------|--2---------------|
E------------------|-----------------|------------------|------------------|


the
[repeat 2 times riff 4 ]
B!                C!       B!    Bm7             B!
twins they are ex-hausted  seven is this         night
B!        C!               A!                    B!
Gemini is rising and the   red lips kiss to bite
B!           B!+5          A!(bass B)            B!
Seven angels seven demons  battle for his        soul
Gabriel lies sleeping this child was born to     die

[solo]
   A!
E--------------------------------|------------------------------------|
B--------------------------------|------------------------------------|
G--------------------------------|------------------------------------|
D--------------------------------|--10p9------9-----------------------|
A--12^14v12---9~~~~~~------------|-------12-----12-10---9-----\-------|
E--------------------------------|------------------------------------|

E----------------------------------|----------------------------------|
B----------------------------------|----------------------------------|
G------------------------------2---|--4p2-5p4-7^v-p-5--7--\-----------|
D------------------2---3-2-5-3---5-|----------------------------------|
A------2---3-2-5-3---5-------------|----------------------------------|
E--5-3---5-------------------------|----------------------------------|


E--------------------------------|------------------------------------|
B---20^22-----v20----17~~~~------|--18p17------17---------------------|
G--------------------------------|--------19------19p17---16~~~~~-----|
D--------------------------------|------------------------------------|
A--------------------------------|------------------------------------|
E--------------------------------|------------------------------------|

E----------------------------------------|----------------------------|
B----------------------------------10----|-12p10-13p12-15p13-15^-15^--|
G-----------------------9----12p10----12-|----------------------------|
D-------9----10p9-12p10---12-------------|----------------------------|
A-12p10---12-----------------------------|----------------------------|
E----------------------------------------|----------------------------|

[riff 5]
   E!      B!      A#!              G!   E!
E--12----------------------------|-------------0----------------------|
B--15^17---12------11------------|-------------0----------------------|
G----------14^16---13^-----------|--12--------------------------------|
D--------------------------------|-------14---------------------------|
A--------------------------------|------------------------------------|
E--------------------------------|------------------------------------|

   E!      B!      A#!              G!   E!    [push tremelo down]
E--12----------------------------|------------------------------------|
B--15^17---12------11------------|-------------15vvvvv----------------|
G----------14^16---13^-----------|--12---------14vvvvv----------------|
D--------------------------------|-------14---------------------------|
A--------------------------------|------------------------------------|
E--------------------------------|------------------------------------|

[end riff 5]
[repeat riff 5]
[fast solo]
 A!
 S  P h  p S  P h  p S  P h  p S  P h  p S  P h  p S  P h  p S  P h  p
E--------------------------------------------------------------------------|
B--------------------------------------------------------------------------|
G-12-9-10-9-12-9-10-9-12-9-10-9-12-9-10-9-12-9-10-9-12-9-10-9-12-9-10-9----|
                                                          ----12-9-10-9----|
D--------------------------------------------------------------------------|
A--------------------------------------------------------------------------|
E--------------------------------------------------------------------------|

 S  P h p S  P h p S  P h p S  P h p S  P h p S  P h p S  P h p S  P h p
E------------------------------------------------------------------------|
B------------------------------------------------------------------------|
G-12-7-9-7-12-7-9-7-12-7-9-7-12-7-9-7-12-7-9-7-12-7-9-7-12-7-9-7-12-7-9-7|
D------------------------------------------------------------------------|
A------------------------------------------------------------------------|
E------------------------------------------------------------------------|

 S  P h p S  P h p S  P h p S  P h p S  P h p S  P h p S  P h p S  P h p
E------------------------------------------------------------------------|
B------------------------------------------------------------------------|
G-12-5-7-5-12-5-7-5-12-5-7-5-12-5-7-5-12-5-7-5-12-5-7-5-12-5-7-5-12-5-7-5|
D------------------------------------------------------------------------|
A------------------------------------------------------------------------|
E------------------------------------------------------------------------|

 S  P h p S  P h p S  P h p S  P h p S  P h p S  P h p S  P h p
E------------------------------------------------------------------------|
B------------------------------------------------------------------------|
G-12-4-5-4-12-4-5-4-12-4-5-4-12-4-5-4-12-4-5-4-12-4-5-4-12-4-5-4---------|
D------------------------------------------------------------------------|
A------------------------------------------------------------------------|
E------------------------------------------------------------------------|


E---------------------------------------------------------------------|
B---12--12--13--13--15--15--12--12--13--13--15--15--13--13--15--15----|
G---------------------------------------------------------------------|
D---------------------------------------------------------------------|
A---------------------------------------------------------------------|
E---------------------------------------------------------------------|

                                                                _______
E---------------------------------------------------------------------|
B---17--17--15--15--17--17--18--18--17-17--18--18--20-------18^20-----|
G---------------------------------------------------------------------|
D---------------------------------------------------------------------|
A---------------------------------------------------------------------|
E---------------------------------------------------------------------|

_______________
E--------------------------------|-------------------------------------|
B---20---20----v18-----18h20p18--|-\17h18p17-20p18p17-17h18p17---------|
G--------------------------------|-----------------------------19p17---|
D--------------------------------|-------------------------------------|
A--------------------------------|-------------------------------------|
E--------------------------------|-------------------------------------|

                                    One  more     dies         and
                                    B!     ________
E--------------------------------|------------------------------------|
B-----------18p17----------------|-------18^19vvvvvv18----------------|
G-16h17-19---------19p17---------|--16--------------------------------|
D--------------------------------|------------------------------------|
A--------------------------------|------------------------------------|
E--------------------------------|------------------------------------|

B!               C!                 B!   Bm7             B!
One more dies    one more lives one baby cries    one    mother grieves
B!               C!                 A!                   B!
For all the sins you'll commit  You beg  forgiveness and none I'll give.
B!               B!+5               A!(bass B)           B!
A web of fear    shall be your coat to clothe you in the night
A lucky escape   for you young man  but I'll see you ***ed in endless night

[Play riff 3]
E!                       D!
Moonchild       hear the Mandrake scream
C!                       D!
Moonchild       open the seveth seal

[Play riff 3]
E!                       D!
Moonchild you'll be mine soon child
C!                       D!
Moonchild        take my hand to- night.

[guitar 1 play riff 1, guitar 2 next riff]
  (END)                                     [repeat last measure]
E--------------------------------|------------------------------------|
B--------------------------------|------------------------------------|
G--------------------------------|--------------*-/-------------------|
D--9-----9-----9-----9-----------|---------------/--------------------|
A--7-----7-----7-----7-----------|--------------/-*-------------------|
E--0-----0-----0-----0-----------|------------------------------------|

[repeat last to measures 4 times and end at then at END]

CHORDS
   Em  D  Am  Cmaj7  E!  B!  D!  A!  G!  E!+5  C!  Bm7  B!+5  A#!
E--0---2--0---0------------------------------------2-------------------|
B--0---3--1---0------------------------------------3----0--------------|
G--0---2--2---0------9---4---7-----------------5---2----0-----3--------|
D--2---0--2---2------9---4---7---7---5---10----5---4----5-----3--------|
A--2------0---3------7---2---5---7---5---7-----3---2----2-----1--------|
E--0-----------------0-----------5---3---0-----------------------------|

2.INFINITE DREAMS

[intro]
E----------------------------------------------------|
B----------------------------------------------------|
G----------------------------------------------------|
D--14^16--14^16v14p12---14--14^16~~~~~---------------|
A----------------------------------------------------|
E----------------------------------------------------|

E----------------------------------------------------|
B----------------------------------------------------|
G-----------------------15--12-----------------------|
D--14^16--14^16v14p12-----------14^16v14--12--14-(\)-|
A----------------------------------------------------|
E----------------------------------------------------|

[repeat twice, last time slide down (\)]

Em7  /   /    /        C      / D /
     Infinite dreams I can't deny them
     infinity is hard to comprehend
     I couldn't hear thouse screams even in my
     wildest dreams
     Suffocation waking in a sweat
     scared to fall a sleep again in the case the
     dream begins again
Em7  /   /    /        C      / D /

E(no 3rd)  /   /  /     C(no 3rd) /    D(no 3rd)
     Some-one chasing  I can-not   move
     standing rigid a nigthmare statue
     What a dream where will it end and will
     I transcend.
     Restless sleep the mind in turmoil
     one nightmare ends another fertile
     It's getting to me, so scared to sleep
     but scared to wake now in too deep

[slow tempo]
E(no 3rd)  /     C(no 3rd)   /         D(no 3rd)  /    /       /
Even though it's reached new heights I rather like the resless nights it
makes me wonder, makes me think there's mopre to this I'm on the brink it's

G(no 3rd)  /      Eb(no 3rd)   /     F(no 3rd)  /      /       /
not the   fear of what's beyond it's just that I might not respond I
have an int'rest al most craving but would I like to get far in. It

E(no 3rd)  /     C(no 3rd)   /         D(no 3rd)  /    /       /
can't be all co-incidence   too        many things are evident, you
tell me you're an unbeliever           spiritualist well I'm neither but

G(no 3rd)  /      Eb(no 3rd)   /       F(no 3rd)  /      /       /
wouldn't you like to know the truth of what's out there to have the proof and
find out just which side you're on where would you end in heaven or in

[riff 1]
   Hell
   E(!3)           C(!3)             D(!3)
E---------------------------------------------------------------------|
B---------------------------------------------------------------------|
G---------------------------------------------------------------------|
D--2-5-4-5-4-5-4-5---5-4-5-4-5-4-5---0-5-4-5-4-5-4-5-4-0-2-4-5-4-2-0--|
A------------------3--------------------------------------------------|
E---------------------------------------------------------------------|

   E(!3)           C(!3)             D(!3)
E---------------------------------------------------------------------|
B---------------------------------------------------------------------|
G---------------------------------------------------------------------|
D--2-5-4-5-4-5-4-5---5-4-5-4-5-4-5---0-5-4-5-7-5-4--------------------|
A------------------3-------------------------------7-5----------------|
E---------------------------------------------------------------------|

[E!3 = E(no 3rd)]
[repeat riff 1]

   E(!3)           C(!3)              D(!3)
E---------------------------------------------------------------------|
B---------------------------------------------------------------------|
G--0-4-2-4-2-4-2-4---4-2-4-2-4-2-4------4-2-4-5-4-2-0-----------------|
D------------------2------------------4---------------4---------------|
A---------------------------------------------------------------------|
E---------------------------------------------------------------------|

   E(!3)           C(!3)              D(!3)             (drums change)
E---------------------------------------------------------------------|
B---------------------------------------------------------------------|
G--0-4-2-4-2-4-2-4---4-2-4-2-4-2-4------4-2-4-5-4-2-0-----------------|
D------------------2------------------4---------------4---------------|
A---------------------------------------------------------------------|
E---------------------------------------------------------------------|

[riff 2]
[everything is played in triplets]
   E(!3)           C(!3)              D(!3)
E---------------------------------------------------------------------|
B---------------------------------------------------------------------|
G---------------------------------------------------------------------|
D---------------------------------------------------4-5-4--5-4--------|
A--7-7-7--7-7-7----3-3-3--3-3-3-------5-5-5--5-5-5-------------5------|
E---------------------------------------------------------------------|

   E(!3)           C(!3)              D(!3)
E---------------------------------------------------------------------|
B---------------------------------------------------------------------|
G---------------------------------------------------------------------|
D---------------------------------------------------------------------|
A--7-7-7--7-7-7----3-3-3--3-3-3-------5-5-5--5-5-5--5-5-5--5-5-5------|
E---------------------------------------------------------------------|

[repeat riff 2]
   G(!3)
E---------------------------------------------------------------------|
B---------------------------------------------------------------------|
G---------------------------------------------------------------------|
D---------------------------------------------------------------------|
A----------------------------------------------------2-2-2--2-3-5-----|
E--3-3-3--3-3-3----3-3-3--3-3-3--------3-3-3--3-3-3-------------------|

   G(!3)
E---------------------------------------------------------------------|
B---------------------------------------------------------------------|
G---------------------------------------------------------------------|
D---------------------------------------------------------------------|
A----------------------------------------------------2-2-2--2-3-5-----|
E--3-3-3--3-3-3----3-3-3--3-3-3--------3-3-3--3-3-3-------------------|

[riff 3]
   E(!3)           D(!3)              G(!3)         C(!3)  D(!3)
E---------------------------------------------------------------------|
B---------------------------------------------------------------------|
G---------------------------------------------------------------------|
D-------------------------------------5-5-5--5-5-5--------------------|
A--7-7-7--7-7-7----5-5-5--5-5-5---------------------3-3-3--5-5-5------|
E---------------------------------------------------------------------|

   E(!3)           D(!3)              G(!3)
E---------------------------------------------------------------------|
B---------------------------------------------------------------------|
G---------------------------------------------------------------------|
D---------------------------------------------------------------------|
A--7-7-7--7-7-7----5-5-5--5-5-5---------------------------------------|
E-------------------------------------3---3----3-3----3------3-3------|

[repeat riff 3]

   G(!3)
E---------------------------------------------------------------------|
B---------------------------------------------------------------------|
G---------------------------------------------------------------------|
D---------------------------------------------------------------------|
A----------------------------------------------------2-2-2--2-3-5-----|
E--3-3-3--3-3-3----3-3-3--3-3-3--------3-3-3--3-3-3-------------------|

   G(!3)
E---------------------------------------------------------------------|
B---------------------------------------------------------------------|
G---------------------------------------------------------------------|
D---------------------------------------------------------------------|
A----------------------------------------------------2-2-2--2-3-5-----|
E--3-3-3--3-3-3----3-3-3--3-3-3--------3-3-3--3-3-3-------------------|

   F(!3)       C(!3)     G(!3)         F(!3)       C(!3)     G(!3)
E---------------------------------------------------------------------|
B----------------------------8----8-----------------------------------|
G--10----p9p7--------------------------10----p9p7---------------------|
D--------------10--p9p7----------------------------10--p9p7-----------|
A------------------------10----------------------------------10-------|
E---------------------------------------------------------------------|

   F(!3)       C(!3)     G(!3)         F(!3)       C(!3)
E---------------------------------------------------------------------|
B----------------------------8----8-----------------------------------|
G--10----p9p7--------------------------10----p9p7---------------------|
D--------------10--p9p7----------------------------10--p9p7-----------|
A------------------------10-------------------------------------------|
E---------------------------------------------------------------------|

[riff 4]
   Em
E---------------------------------------------------------------------|
B------------------------12-------------------------------------------|
G--9----9h11h12---11h12------12---11--12~~~~~~------------------------|
D---------------------------------------------------------------------|
A---------------------------------------------------------------------|
E---------------------------------------------------------------------|

Em/C [the guitar plays riff 4 while band plays Em/C]
Em/D [the guitar plays riff 4 while band plays Em/D]
Em/B [the guitar plays riff 4 while band plays Em/B]
Em/C [the guitar plays riff 4 while band plays Em/C]
Em/D [last chord for the band at the last tick]

[riff 5]
   Em
E---------------------------------------------------------------------|
B---------------------------------------------------------------------|
G---------------------------------------------------------------------|
D------------------------7--------------------------------------------|
A--5----5h7h9------7h9--------9----7----9-----------------------------|
E---------------------------------------------------------------------|

Em/C [the guitar plays riff 5 while band plays Em/C]
Em/D [the guitar plays riff 5 while band plays Em/D]
Em/B [the guitar plays riff 5 while band plays Em/B]
Em/C [the guitar plays riff 5 while band plays Em/C]
Em/D [last chord for the band at the last tick]

F#(!3) /     /      /   /      /      D(!3) /       E(!3)  /   F#(!3) E(!3)
Help   me    help me to find my true  self with-out seeing the fu-    ture.

F#(!3) /     /      /   /      /      D(!3) /       E(!3)  /   A(!3)
Save   me    save me from torturing myself even     within my  dreams.

[solo 1]
 E(!3)^_____________v
E----------------------------------------------------------------------|
B--15^17----17-17-17v15--13----12--------------------------------------|
G----------------------------------------------------------------------|
D----------------------------------------------------------------------|
A----------------------------------------------------------------------|
E----------------------------------------------------------------------|
(bend up          release bend)

   G(!3) _______E(!3)
E------15^17---v15-14-12-----------------------------------------------|
B--12---------------------15-13-12-------------------------------------|
G-----------------------------------14-12-11---------------------------|
D---------------------------------------------14-----------------------|
A----------------------------------------------------------------------|
E----------------------------------------------------------------------|

   G(!3) E(!3)                                                   G(!3)
E-------------------------------------12-------12-14-15-17-15-17-17^19-|
B------------------13p12-----15p13p12----15p12-------------------------|
G--------12p11-----------14--------------------------------------------|
D--12h14-------14------------------------------------------------------|
A----------------------------------------------------------------------|
E----------------------------------------------------------------------|

  E(!3)______
E--17^19-19-19--15-15-15--17-17-17--14-14-14--17p15p14-15p14-----15p14-|
B------------------------------------------------------------17--------|
G----------------------------------------------------------------------|
D----------------------------------------------------------------------|
A----------------------------------------------------------------------|
E----------------------------------------------------------------------|

         G(!3) [solo 2] F#(!3)                        B(!3)
E----------------------------------------------------------------------|
B--17--15p13-----17^19--[end solo 1]-----------------------------------|
G------------16---------------------------------------9\---------------|
D--------------------------------------------9-11-12-------------------|
A---------------/9---------9-11-12--9-11-12----------------------------|
E----------------------------------------------------------------------|

   F#(!3)                                              B(!3)     _____
E----------------------------------------------------------------------|
B--------15-14---12-------------------------------------17--20^22------|
G--10/11------------14-13h14p13-14-13-14-13\11-13-11~~~----------------|
D----------------------------------------------------------------------|
A----------------------------------------------------------------------|
E----------------------------------------------------------------------|

  F#(!3)______                  B(!3)   F#(!3)
E--19^21---------16-17-19-17p16---------16-17-----16-------------------|
B-------------------------------19~~~~--------19-----18-19--15-17-14---|
G----------------------------------------------------------------------|
D----------------------------------------------------------------------|
A----------------------------------------------------------------------|
E----------------------------------------------------------------------|

   Em                                                 B(!3)
E-------------------------------------------17-19-21--22^24~~~~~-------|
B--15----14-----------------------17-19-21-----------------------------|
G-----16----------------16-18-19---------------------------------------|
D-------------16-18-19-------------------------------------------------|
A----------------------------------------------------------------------|
E----------------------------------------------------------------------|

Em/C [the guitar plays riff 4 while band plays Em/C]
Em/D [the guitar plays riff 4 while band plays Em/D]
Em/B [the guitar plays riff 4 while band plays Em/B]
Em/C [the guitar plays riff 4 while band plays Em/C]
Em/D [last chord for the band at the last tick]

Em   [the guitar plays riff 4 while band plays Em  ]
Em/D [the guitar plays riff 4 while band plays Em/D]

   B(!3)            C(!3)    D(!3)
E----------------------------------------------------------------------|
B----------------------------------------------------------------------|
G--4-------4--------5-4--5---7-5--7------------------------------------|
D------4-------4-------------------------------------------------------|
A----------------------------------------------------------------------|
E----------------------------------------------------------------------|
                                      There's

E(!3)  /       C(!3)   /       D(!3)   /       /      /
got to be just more to it than this or tell me why do we exist.
    I'd like to think that when I die I'd get a chance another time.

G(!3)   /      Eb(!3) /        F(!3)  /        /      /
    And to return and live again re - in car-nate     playing the game
           a - gain     and  a-gain   and a-
E(!3)
gain.

CHORDS

   Em  C   D   Em7 E(!3) C(!3) D(!3) G(!3) Eb(!3) F(!3) Em/C Em/D Em/B
E--0---0---2---7----------------------------------------0----0----0----|
B--0---1---3---8----------------------------------------0----0----0----|
G--0---0---2---7---9-----5-----7-----------8------------0----0----0----|
D--2---2---0---9---9-----5-----7-----5-----8------3-----2----0----2----|
A--2---3-------7---7-----3-----5-----5-----6------3-----3---------2----|
E--0---0-------0---0-----------------3------------1--------------------|

   F#(!3) A(!3) B(!3)
E----------------------------------------------------------------------|
B----------------------------------------------------------------------|
G---------2-----4------------------------------------------------------|
D--4------2-----4------------------------------------------------------|
A--4------0-----2------------------------------------------------------|
E--2-------------------------------------------------------------------|

3.CAN I PLAY WITH MADNESS

Riff 1:
E------------------------------|
B------------------------------|
G------------------------------|
D--7---------------------------|
A--5--5-5-5-5-5-5-5-5-5-5-5-5--|
E------------------------------|

E----------------|-----------------|
B----------------|-----------------|
G-------------7--|-----------------|
D--7----------5--|--5-5-5-5--------|
A--3--3-3-3-3----|----------5------|
E----------------|----------3------|

E--3--2--3--2--3--|
B--3--3--3--3--3--|
G-----------------|
D-----------------|
A-----------------|
E-----------------|

End of riff 1.

Verse:
     Give me the sense to...
E------------------------------|
B------------------------------|
G------------------------------|
D--7---------------------------|
A--5--5-5-5-5-5-5-5-5-5-5-5-5--|
E------------------------------|

..wonder                   to...
E------------------------------|
B------------------------------|
G------------------------------|
D--7---------------------------|
A--3--3-3-3-3-3-3-3-3-3-3-3-3--|
E------------------------------|

..wonder if I'm free
E---------------------|--3--2--3--2--3--|
B---------------------|--3--3--3--3--3--|
G---------------------|-----------------|
D---------------------|-----------------|
A--5------------------|-----------------|
E--3--3-3-3-3-3-3-3-3-|-----------------|

On the fourth time of verse:
Don't need no key to un-...
E------------------------------|
B------------------------------|
G------------------------------|
D--7---------------------------|
A--5--5-5-5-5-5-5-5-5-5-5-5-5--|
E------------------------------|

..-lock this door        gonna..
E------------------------------|
B------------------------------|
G------------------------------|
D--7---------------------------|
A--3--3-3-3-3-3-3-3-3-3-3-3-3--|
E------------------------------|

..break down the walls break out of this bad place
E---------------------|------------------------|
B---------------------|--3-------3-------3-----|
G---------------------|--2---2---2---2---2--2--|
D---------------------|--0---2---0---2---0--2--|
A--5------------------|------0-------0------0--|
E--3--3-3-3-3-3-3-3-3-|------------------------|

Chorus:
  Can I play with madness, the prophet..
E----------------|----------------|
B----------------|----------------|
G--4-------------|----------------|
D--4-------------|--5-------------|
A--2--2-2-2-2-2--|--5-------------|
E----------------|--3--3-3-3-3-3--|
..stared at his crystal ball
E----------------|------------------|
B--3-------------|-------3-2--------|
G--2-------------|--2--2-----4-2----|
D--0--0-0-0-0-0--|--2------------4--|
A----------------|--0---------------|
E----------------|------------------|

Can I play with madness, there's no..
E----------------|----------------|
B----------------|----------------|
G--4-------------|----------------|
D--4-------------|--5-------------|
A--2--2-2-2-2-2--|--5-------------|
E----------------|--3--3-3-3-3-3--|
..vision there at all
E----------------|------------------|
B----------------|------------------|
G----------------|---------0-2-4-2--|
D--2-------------|--2--2-4----------|
A--2-------------|------------------|
E--0--0-0-0-0-0--|------------------|

Can I play with madness, the prophet..
E----------------|----------------|
B----------------|----------------|
G--2-------------|----------------|
D----------------|--5-------------|
A-----2-2-2-2-2--|--5-------------|
E----------------|--3--3-3-3-3-3--|
..looked and he laughed at me
E----------------|------------------|
B--3-------------|-------3-2--------|
G--2-------------|--2--2-----4-2----|
D--0--0-0-0-0-0--|--2------------4--|
A----------------|--0---------------|
E----------------|------------------|

Can I play with madness, he said you're..
E----------------|----------------|
B----------------|----------------|
G--2-------------|----------------|
D----------------|--5-------------|
A-----2-2-2-2-2--|--5-------------|
E----------------|--3--3-3-3-3-3--|

..too blimd to see
E------------------------|
B--3-------3-------3-----|
G--2---2---2---2---2--2--|
D--0---2---0---2---0--2--|
A------0-------0------0--|
E------------------------|

End of chorus.

Riff 2:
E-------------------|-----------------------|
B-------------------|-----------------------|
G-------------------|-----------------------|
D----------------5--|----------------5---7--|
A--7---7-7-7-5------|--7---7-7-7-5----------|
E--------------7----|--------------7--------|

Riff 3:
E-------------------|-----------------------|
B-------------------|-----------------------|
G----------------3--|----------------3---5--|
D--5---5-5-5-4------|--5---5-5-5-4----------|
A--------------5----|--------------5--------|
E-------------------|-----------------------|

Solo-riff:
E-------------------|-----------------------|
B-------------------|-----------------------|
G-------------------|-----------------------|
D-------------------|-----------------------|
A--7---7-7-7-5---5--|--7---7-7-7-5---5---7--|
E--------------7-3--|--------------7-3---5--|

Bridge before last chorus:
E-------------------------|-----------------------|
B-------------------------|-----------------------|
G------------3-5-6-3-5-3--|--------3--------------|
D----------5--------------|--------3--------------|
A---5--5------------------|--5--5--1--------------|
E---3--3------------------|--3--3-----------------|

E---------------------|------------------------|
B---------------------|--3-------3-------3-----|
G---------------------|--2---2---2---2---2--2--|
D---------------------|--0---2---0---2---0--2--|
A--5--5--(Plectrum-)--|------0-------0------0--|
E--3--3--(scratch)----|------------------------|

End of bridge

4.THE EVIL THAT MEN DO

INTRO
    -----------------------------------------------------------------5b-3------|
 T  -----------------------------------------------------------3h5p3-----------|
 A  ---0---4-2-0-2-4-----0---4-2-0-2-4-------0---4-2-0-2-4-2-------------------|
 B  -2---2-------------2---2-----------2---2---2-------------------------------|
    ---------------------------------------------------------------------------|
    ---------------------------------------------------------------------------|

								...1,2,3,4...
    ---------------------------------------------------------------------------|
    ---------------------------------------------------------------------------|
    ---0---4-2-0-2-4-------0---4-2-0-2-4-----0---4-2-0-2-4---------------------|
    -2---2-----------2---2---2-------------2---2------------2------------------|
    ---------------------------------------------------------------------------|
    ---------------------------------------------------------------------------|


							(START VOCALS)
    /..........TWICE................................/  & /TWICE................
    ---------------------------------------------------------------------------|
    ---------------------------------------------------------------------------|
    -------------------------------------------------------/7times/------------|
    -9--7--12--9--5--12--5--------5--12--11-12-11--9-----9--------------5------|
    -7--5--10--7--5--10--3--3--3--3--10--9--10--9--7-----7--7-7-7---7-7-3------|
    --------------------------------------------------------\_3_/---\_3_/------|
			   /p.m./ 			   /p.m........../


    .........................../ /....twice....................................
    ---------------------------------------------------------------------------|
    ---------------------------------------------------------------------------|
    /3times/------------------------/3times/------/3times/------/3times/-------|
    --------------12-11-12-11-9---9-------------5---------/ 3 \--/ 3 \---------|
    -3-3-3----3-3-10--9-10--9-7---7--7-7-7--7-7-3--3-3-3--3-3-5----------------|
    -\_3_/----\_3__/-----------------\_3_/--\_3_/--\_3_/------3--3-3-3---------|
    /p.m........./		    /p.m....../    /p.m...../	/p.m./


    ............./ (no vocs. here)	    ** (pre-chorus...)
    --------------------------------------|----------------------|
    --------------------------------------|----------------------|
    --------------------5--4-2-------2----|-----0---4-2-0-2-4----|
    ---------------5-----------5-4-5------|---2---2-----------2--|
    ----------0-2--3-------------------3--|----------------------|
    -3-3--2-3-----------------------------|----------------------|
    /p.m/


    					    /2nd. & 3rd. time skip to @
    ------------------------------------------------------------|
    ----------------------------------------------0-1-3-5-5b----|
    ---0---4-2-0-2-0-------0---4-2-0-2-4------0-2---------------|
    -2---2-----------4---2---2-----------2----------------------|
    ------------------------------------------------------------|
    ------------------------------------------------------------|


								@
    ---------------------------------------------------------------------------|
    ------------------------------------------------------------------0-1-3----|
    ---0---4-2-0-2-4-------0---4-2-0-2-0-------0---4-2-0-2-4------0-2----------|
    -2---2-----------2---2---2-----------4---2---2-----------2--4--------------|
    ---------------------------------------------------------------------------|
    ---------------------------------------------------------------------------|


    \CHORUS;......twice.............\ 1. to &\ 2. .....................
    /twice.../       \twice.........\             \twice..............\
    ---------------------------------------------------------------------------|
    ---------------------------------------------------------------------------|
    -------------------------------------------4-------------------------4--4--|
    -9-9-9-9---5--7---9-9-9-9---5--2-----------2---2--4h5p4h5p4h5p4-0-2--2--2--|
    -7-7-7-7---3--5---7-7-7-7---3--0-------------------------------------------|
    ---------------------------------------------------------------------------|
    (ad lib )         (same...)               (RIFF #)
                                              (twice..........................)


         \twice............\           solo
    ---------------------------------|--14----14-16-17--16-14-12---|
    ---------------------------------|-----------------------------|
    ---------------------------9-9---|-----------------------------|
    --5---7h9p7h9p7h9p7--4-5---------|-----------------------------|
    ---------------------------------|-----------------------------|
    ---------------------------------|-----------------------------|
     (4 times.....................)


    -16-12----12---------------------------------------------------------12----|
    -------12----12------------------------------------11-------10----10-------|
    ----------------11--------------12-11-9-12-11-9-12------11-----11----------|
    -------------------11---12-11-9--------------------------------------------|
    ---------------------------------------------------------------------------|
    ---------------------------------------------------------------------------|


                  (twice.........)
    ------------------------12---------------12---------16-16-16--12----12--11-|
    --10-9-10---------10-------12------10----------------------------12--------|
    ----------9----11----11---------11----11-------9---------------------------|
    ---------------------------------------------------------------------------|
    ---------------------------------------------------------------------------|
    ---------------------------------------------------------------------------|

		                                                       end...
    --------------------21--19-17-16-17-16--14-16--14h16p14--------------------|
    --12----12----------------------------------------------14-12-10-----------|
    -----11----11----------------------------------------------------13-11-12--|
    --------------11-----------------------------------------------------------|
    ---------------------------------------------------------------------------|
    ---------------------------------------------------------------------------|

5.SEVENTH SON OF A SEVENTH SON

[Solo guitar during intro]
   C5 D5 E5              C5 D5 E5          C5 D5 C5
--------------------------------------------------------------------|
--------------------------------------------------------------------|
---5--7--9----7--9-------5--7--9----7--9---5--7--5----5--5----------|
--------------------------------------------------------------------|
--------------------------------------------------------------------|
--------------------------------------------------------------------|

   C5             A5
--------------------------------------------------------------------|
--------------------------------------------------------------------|
---5--5--5--5--4--2--0--2------2---0---2----------------------------|
--------------------------------------------------------------------|
--------------------------------------------------------------------|
--------------------------------------------------------------------|

(repeat twice)

[verse]
E5 /// /// /// ///  (etc)

[first Ohh]
When he starts singing  Ohhhhhh
Play C . . .  /////// . . . //// Em  . . . .
--------------------------------------------------------------------------|
--------------------------------------------------------------------------|
-5------5--5--5--7--4--5-----5--5--5--7--4--5------4h-5p-4\-2-------------|
--------------------------------------------------------------------------|
--------------------------------------------------------------------------|
--------------------------------------------------------------------------|

note : . := 1 tick rest
       h := hamer on
       p := pull off
       \ := slide down

repeat playing verse

E5 /// /// /// (etc)

repeat ohhh

[chorus]

   Seventh son of a Seventh son  (etc)
 E5 /  /  /  D5 E5 G5 E5  /   /    E5   /  /  /  D5 E5 G5 E5 A5 G5 F#5 E5
--------------------------------------------------------------------------|
--------------------------------------------------------------------------|
-------------------5-----------------------------------5-----7--5--4------|
----7--7--7--5--7-----7---7-------------7--7--7--5--7-----7------------7--|
--------------------------------------------------------------------------|
-0----------------------------0----0--------------------------------------|

   Seventh son of a Seventh son  (etc)
 E5 /  /  /  D5 E5 G5 E5  /   /    E5   /  /  /  D5 E5 G5 G5   F#5 D5 E5
--------------------------------------------------------------------------|
--------------------------------------------------------------------------|
-------------------5-----------------------------------5--5-----4---------|
----7--7--7--5--7-----7---7-------------7--7--7--5--7--------------5---7--|
--------------------------------------------------------------------------|
-0----------------------------0----0--------------------------------------|

(repeat twice)

[verse see above]

[second Ohh]
E
------------------------------------------------|
------------------------------------------------|
------------------------------------------------|
------------------------------------------------|
-7-----9---10---9---10---12---10---9---10-9-7---|
------------------------------------------------|

D
------------------------------------------------|
------------------------------------------------|
------------------------------------------------|
------------------------------------------------|
-5-----7---8----7---8----10---8----7---8--7-5---|
------------------------------------------------|

C
------------------------------------------------|
------------------------------------------------|
------------------------------------------------|
------------------------------------------------|
-3-----5---6----5---6----8----6----5---6--5-3---|
------------------------------------------------|

A
------------------------------------------------|
------------------------------------------------|
------------------------------------------------|
------------------------------------------------|
-0-----2---3----2---3----5----3----2---3--2-0---|
------------------------------------------------|


Play verse
Play first Ohh
Play chorus
Play second Ohh

[bridge first riff]
(play this a little fast)
Em
--------------------------------------------------|
--------------------------------------------------|
--------------------------------------------------|
-------9--7--9--5--7--4--5-----------4--5--4--5---|
-7--7-----------------------7--5--7---------------|
--------------------------------------------------|

Repeat first riff 4 times
[bridge second riff]
(for second guitar)
Em
--------------------------------------------------|
--------------------------------------------------|
-------9--7--9--5--7--4--5-----------4--5--4--5---|
-7--7-----------------------7--5--7---------------|
--------------------------------------------------|
--------------------------------------------------|

First guitar should play first riff 4 times while
Seccond guitar plays the second riff.

Slow down at the last for notes to get fade to the
quiet part

[Quiet Part]

This is easy to play but watch the measure because
it changes all the time from 8/5 to 8/3

Em
--------------------------------------------------|
--------------------------------------------------|
--------------------------------------------------|
-7--7--7--7--9--9--9--9--9--9--9--9--9--etc-------|
-7--7--7--7--7--7--7--7--7--7--7--7--7------------|
(0)-----------------------------------------------|

Em
--------------------------------------------------|
--------------------------------------------------|
--------------------------------------------------|
-7--7--9--9--10-10-10-10-10-10-10-10-10--etc------|
-7--7--7--7--7--7--7--7--7--7--7--7--7------------|
(0)-----------------------------------------------|

This is repeat several times.

C
--------------------------------------------------|
--------------------------------------------------|
--------------------------------------------------|
--------------------------------------------------|
-8--8--8--8--10-10-10-10-10-10-10-10-10--etc------|
-8--8--8--8--8--8--8--8--8--8--8--8--8------------|

C
--------------------------------------------------|
--------------------------------------------------|
--------------------------------------------------|
--------------------------------------------------|
-8--8--10-10-11-11-11-11-11-11-11-11-11--etc------|
-8--8--8--8--8--8--8--8--8--8--8--8--8------------|

Repeat this also several times and then go back to
Em.
Singer sings today is born the seventh son...

[Bridge to heavy part]
 E5 D5 E5
--------------------------------------------------|
---------------8--10--------8-10------------------|
-9--7--9----9------------9--------9---------------|
-9--7--9------------------------------------------|
-7--5--7------------------------------------------|
--------------------------------------------------|

 E5 D5 E5
--------------------------------------------------|
---------------8--10--------8-10------------------|
-9--7--9----9------------9--------9---------------|
-9--7--9------------------------------------------|
-7--5--7------------------------------------------|
--------------------------------------------------|

 E5 D5 D5
--------------------------------------------------|
---------------8--10--------8-10------------------|
-9--7--7----9------------9--------9---------------|
-9--7--7------------------------------------------|
-7--5--5------------------------------------------|
--------------------------------------------------|

 D5 D5 E5
--------------------------------------------------|
---------------8--10--------8-10------------------|
-7--7--9----9------------9--------9---------------|
-7--7--9------------------------------------------|
-5--5--7------------------------------------------|
--------------------------------------------------|

6.THE PROPHECY

intro:

 Am add9        Fadd9                     G7             Am
e:-----7--------7----3--|--3------3------|-----3------3---5--|
B:-------10----------6--|----6------6----|-------6--------5--|
G:--9-------9--------5--|------5------5--|--4------4------5--|
D:----------------------|----------------|-------------------|
A:----------------------|----------------|-------------------|
E:----------------------|----------------|-------------------|

                          intro riff2
                          4x
e:--5---------5--------|-----------12--13------12-------------------|
B:-----5---------5-----|--15b(17)----------15------13--15--let-ring-|
G:--------5---------5--|--------------------------------------------|
D:---------------------|--------------------------------------------|
A:---------------------|--------------------------------------------|
E:---------------------|--------------------------------------------|


e:-----------10--12------12-------------------|
B:--13b(15)----------13------12--10--let-ring-|
G:--------------------------------------------|
D:--------------------------------------------|
A:--------------------------------------------|
E:--------------------------------------------|


    RiffA 2x
    bass plays D
e:-----------------------------------------------|----------------------|
B:-----------------------------------------------|----------------------|
G:-----------------------------------------------|----------------------|
D:------------------5----------------------------|--------------5-----5-|
A:-(0)--5--5--7--8-----8--7--5--5--7--8--7-------|--5--5--7--8-----8----|
E:------------------------------------------8--5-|----------------------|


                          riff1 (between verse riffs)
                          A5
e:----------------------|-----------------|-----------------|
B:----------------------|-----------------|-----------------|
G:----------------------|---2-----2-------|-----------------|
D:-----------------5----|---2-----2-------|-----------------|
A:-5/7--5--3--5/7-----7-|---0-----0----0--|--2h3--0--2---3--|
E:----------------------|-----------------|-----------------|

Verse riffA:

D5    C5    Gm    Bb5

D5    C5    Gm    Bb

C5    E5     D5     B5

C5    D5     E5     D5

B5    C5     D5


riff 1:


Verse riffB:

Eb5   Ab5   Db5   Bb5

Eb5   Db5   Ab5   Bb5

Eb5   Ab5   Db5   Bb5

Db5   Bb5


  riffC
  4x
e:-------------------------------------------------------------|
B:-15----------------------------------------------------------|
G:-----17--16--14--16--14--16----------41--16------------------|
D:-----------------------------17--17----------17--17--16--17--|
A:-------------------------------------------------------------|
E:-------------------------------------------------------------|


   RiffD
e:---------------------------------------------------------------------------|
B:---------------------------------------------------------------------------|
G:-----9--10--9--------------------------9--10--9--12--10------------------9-|
D:-12------------12--11--12--12------12--------------------------------12----|
A:-------------------------------12------------------------12--12--12--------|
E:---------------------------------------------------------------------------|

e:--------------------------------------------------------------------------|
B:--------------------------------------------------------------------------|
G:-10--12--10--12--12b(14)rb12--10------10p9-10p9---------------------------|
D:----------------------------------12------------12--11p9--11--12--12------|
A:----------------------------------------------------------------------12--|
E:--------------------------------------------------------------------------|


Solo

                         slow bend to A
e:------------------------------------------------------|
B:18b(20)rb(18)-------18------------------18--trembar---|
G:----------------14------------------------------------|
D:------------------------------------------------------|
A:------------------------------------------------------|
E:------------------------------------------------------|

e:------------------------------------------|
B:----------15--18-----------15--18--17p15--|
G:--17b(19)---------17b(19)-----------------|
D:------------------------------------------|
A:------------------------------------------|
E:------------------------------------------|

e:--------------------------------------------|
B:--17p15--13h15--13h15p13-/11--13--11h13p11--|
G:--------------------------------------------|
D:--------------------------------------------|
A:--------------------------------------------|
E:--------------------------------------------|

e:------------------------------------------------|
B:--10h13p11--10h11p10------------------13--------|
G:----------------------12p10--/9h10p9--14--trem--|
D:------------------------------------------------|
A:------------------------------------------------|
E:------------------------------------------------|

e:---------------------------------------------------------------------------|
B:--20b(22)--20b(22)--rb(20)--18--17--------------17--20p17------------------|
G:------------------------------------17------17-------------17------17/16---|
D:----------------------------------------19---------------------19--------19|
A:---------------------------------------------------------------------------|
E:---------------------------------------------------------------------------|

e:---------------------------------------------------------------------------|
B:-----------------------------------------12--12------12h-13h-14p-13p-12----|
G:-------------------------------------14----------14----------------------14|
D:----17p-15h-17p-15h-17p-15-/14---14----------------------------------------|
A:---------------------------------------------------------------------------|
E:---------------------------------------------------------------------------|

e:---------------12p-13p-15-/20p-17h-20p-17h-20p-17h-20p-17h-20p-17h-20p-17h-|
B:--12p-13p-14---------------------------------------------------------------|
G:---------------------------------------------------------------------------|
D:---------------------------------------------------------------------------|
A:---------------------------------------------------------------------------|
E:---------------------------------------------------------------------------|

e:20p-17h-20p-17h--20b(22)|
B:------------------------|
G:------------------------|
D:------------------------|
A:------------------------|
E:------------------------|


  RiffE  12x
e:-------------------------------------|
B:-------------------------------------|
G:---------0--2---------------0--------|
D:-0--0h2--------3--0--0h2h3-----3--2--|
A:-------------------------------------|
E:-------------------------------------|

  acoustic riff
                                                                 fourtimes
e:------------5--5-----------------------------------------------------------|
B:---5--6--8--------8--6--5----8----6--5--6----5h-6p-5-----------------------|
G:7-----------------------------------------------------7--6-----------------|
D:---------------------------------------------------------------------------|
A:---------------------------------------------------------------------------|
E:---------------------------------------------------------------------------|

e:5--6--6/8--8--8--6--10--10/13--10\8--10--8h10p8---6--8--6h8p-6\5--6--5h6p5-|
B:---------------------------------------------------------------------------|
G:---------------------------------------------------------------------------|
D:---------------------------------------------------------------------------|
A:---------------------------------------------------------------------------|
E:---------------------------------------------------------------------------|

e:-/3--5--3h5p3--1--0---1|
B:----------------------3|
G:----------------------2|
D:----------------------0|
A:-----------------------|
E:-----------------------|

7.THE CLAIRVOYANT

Guitar 1 [damped]    [% = repeat last measure]
E-------------------|---------|---------|---------|
B-------------------|---------|---------|---------|
G-------------------|---*-/---|---*-/---|---*-/---|
D-------------------|----/----|----/----|----/----|
A--5-5-5-5--5-5-5-5-|---/-*---|---/-*---|---/-*---|
E-------------------|---------|---------|---------|

   D!
E------------------|-----------------|------------------|------------------|
B------------------|-----------------|------------------|------------------|
G------------------|-----------------|------------------|------------------|
D--7--5----7-------|-7/9--7--5-------|--7---------------|------------------|
A------------------|-----------------|-----5------------|------------------|
E------------------|-----------------|------------------|------------------|

   D!
E------------------|-----------------|------------------|------------------|
B------------------|-----------------|------------------|------------------|
G------------------|-----------------|------------------|------------------|
D--7--5----7-------|-7/9--7--5-------|--7--7------------|---5-5-5-5p4---5--|
A------------------|-----------------|------------------|-------------7----|
E------------------|-----------------|------------------|------------------|

[riff 1]
   C!
E------------------|-----------------|------------------|------------------|
B------------------|-----------------|------------------|------------------|
G------------------|-----------------|------------------|------------------|
D------------------|-5-5-5-5p4---5---|------------------|---5-5-5-5p4-7-5--|
A------------------|-----------7-----|------------------|------------------|
E------------------|-----------------|------------------|------------------|

   D!
E------------------|-----------------|------------------|------------------|
B------------------|-----------------|------------------|------------------|
G------------------|-----------------|------------------|------------------|
D--4---------------|-5-5-5-5p4-7-5---|--4---------------|------------------|
A----5-------------|-----------------|-----5------------|------------------|
E------------------|-----------------|------------------|------------------|

[end riff 1]
   D!
E------------------|-----------------|------------------|------------------|
B------------------|-----------------|------------------|------------------|
G--14--12--14------|-14/16---14--12--|--14--------------|------------------|
D------------------|-----------------|-------12---------|------------------|
A------------------|-----------------|------------------|------------------|
E------------------|-----------------|------------------|------------------|

   D!
E------------------|-----------------|------------------|------------------|
B------------------|-----------------|-------15---------|------------------|
G--14--12--14------|-14/16--14--12---|--14--------------|------------------|
D------------------|-----------------|------------------|--5-5-5-5p4---5---|
A------------------|-----------------|------------------|------------7-----|
E------------------|-----------------|------------------|------------------|

[play riff 1]
[to D minor]

[riff 2]
   D!                                   Cadd9!
E------------------|--5--------------|------------------|--3---------------|
B-----6------------|-----------------|-----3------------|------------------|
G--7-----6---------|-----------------|--5-----5---------|------------------|
D------------------|-----------------|------------------|------------------|
A------------------|-----------------|------------------|------------------|
E------------------|-----------------|------------------|------------------|

   Gm add9                              Bb!                C!
E------------------|-----------------|------------------|------------------|
B------------------|---3-------------|------------------|------------------|
G-----3------------|-----------------|--------3---------|--------5---------|
D--5-----5---------|-----------------|-----3------------|-----5------------|
A------------------|-----------------|--1---------------|--3---------------|
E------------------|-----------------|------------------|------------------|

[play riff 2]
Dm /  /    /        / /     /  /  Cadd9! / / /  / / /
      Feel the sweat  break on my brow
Gmadd9!/ / / / / /   / Bb! /   /     /  C!  /     / /
      Is it me   or is it shadows that are dancing on the walls ?

Dm /  /    /        / /     /  /  Cadd9! / / /  / / /
      Is it  a  dream or    is it now
Gmadd9!/   /   / /  /    /   / Bb! /   /     /  C!  /     /  /
      Is  this a vision or  nor-mali- ty    I  see be-  fore my

   Eyes.
[riff 3]
   Dm/A              Gm/Bb              C/D (bass G)      Dm/A
E------------------|-----8------10---|------------------|------------------|
B--10--8------10---|-11--------------|--8-----------8---|-10--8------------|
G------------------|-----------------|-----10-----------|-------------10---|
D------------------|-----------------|------------------|------------------|
A------------------|-----------------|------------------|------------------|
E------------------|-----------------|------------------|------------------|

   Dm/A              Gm/Bb              C/D (bass plays G)
E------------------|-----8------10---|--3---------------|------------------|
B--10--8------10---|-11--------------|--5---------------|------------------|
G------------------|-----------------|--5---------------|------------------|
D------------------|-----------------|--0---------------|------------------|
A------------------|-----------------|------------------|------------------|
E------------------|-----------------|------------------|------------------|

[repeat riff 2]
Dm                         Cadd9!
I wonder why I wonder how,
Gm add9                   Bb!              C!
that it seems that the    power is getting stronger ev'ry day

Dm                         Cadd9!
I feel a strength an inner fire,
Gm add9                   Bb!              C!
but I am scared I wont be able   to  con-  trol it anymore

[repeat riff 3]
[riff 4]
   Cm/G              Fm/Ab             Bb/C (bass F)       Cm/G
E------------------|-----------------|------------------|------------------|
B------------------|------11-----13--|------------------|------------------|
G--12---10-----12--|-13--------------|-10-----------10--|--12--10----------|
D------------------|-----------------|------13----------|--------------13--|
A------------------|-----------------|------------------|------------------|
E------------------|-----------------|------------------|------------------|

   Cm/G              Fm/Ab             Bb/C (bass F)      [slower]
E------------------|-----------------|------------------|------------------|
B------------------|------11-----13--|------------------|------------------|
G--12---10-----12--|-13--------------|-10---------------|--\---------------|
D------------------|-----------------|------------------|------------------|
A------------------|-----------------|------------------|------------------|
E------------------|-----------------|------------------|------------------|
                                                                 There's a
D!      D!+5       C!/D    D!            D!         D!+5  C! D!
time to live and a time to die when it's time to meet the ma-ker. There's a
D!      D!+5       C!/D    D!            D!              D!+5     C! D!
time to live but isn't it strange that as soon as you're born you're dying.

[repeat "there's a..." but play the last measure the next riff]

   D!    D!+5  C!   No chord [faster]
E------------------|-----------------|------------------|------------------|
B------------------|-----------------|------------------|------------------|
G--------------5-5-|-----4--0--5-----|------------------|------------------|
D------------------|-----------------|------------------|------------------|
A------------------|-----------------|------------------|------------------|
E------------------|-----------------|------------------|------------------|

[to E major]
[solo]

   E!             ________
E--19^21-------19^21-21-21v19-|--17-16h17p16----16-----------------|
B-----------------------------|--------------19----19^21-----------|
G-----------------------------|------------------------------------|
D-----------------------------|------------------------------------|
A-----------------------------|------------------------------------|
E-----------------------------|------------------------------------|

   E!
E-----------------------------|------------------------------------|
B--19-17----------------------|------------------------------------|
G--------20-18--16------------|------------------------------------|
D------------------19-18p19---|--18~~~~~~~~~-------------------14h-|
A-----------------------------|------------------------------------|
E-----------------------------|------------------------------------|

   E!                            ___3___
E-----------------------------|------------------------------------|
B-----------------------------|--16h17p16--------------------------|
G-----14p13-----13-14-16/18---|-----------18-16\-13-16-14p13-------|
D--16-------16----------------|------------------------------------|
A-----------------------------|------------------------------------|
E-----------------------------|------------------------------------|

   E!
E-----------------------------|------------------------------------|
B-----------------------------|------------------------------------|
G-----------------------------|------------------------------------|
D--16-14-13-------------------|------------------------------------|
A-----------16--14-12-11-12---|--11~~~~~~~-------------------------|
E-----------------------------|------------------------------------|

  E!__3___
E-----------------------------|------------------------------------|
B-----------------------------|------------------------------------|
G-/18-16-18-----16h18p16\-----|------------------------------------|
D-----------------------------|-/19-18-19---18h19p18-----------16--|
A-----------------------------|------------------------------------|
E-----------------------------|------------------------------------|

   E!
E------------------------16---|------------------------------------|
B---------------16-17-19------|--19^21~~~~~~~~~~-------------------|
G--------16-18----------------|------------------------------------|
D--18-19----------------------|------------------------------------|
A-----------------------------|------------------------------------|
E-----------------------------|------------------------------------|

   E!                                                           ___
E-----------------------------------|--16h17p16----16-17-19-19^21--|
B--19^21v19-17-16h17p16----16h17h19-|-----------19-----------------|
G-----------------------18----------|------------------------------|
D-----------------------------------|------------------------------|
A-----------------------------------|------------------------------|
E-----------------------------------|------------------------------|

 _________                     [guitar 2 play riff 5]
E---------v19--------17-------|--16h17p16-------\------------------|
B-----------------------------|------------------------------------|
G-----------------------------|------------------------------------|
D-----------------------------|------------------------------------|
A-----------------------------|------------------------------------|
E-----------------------------|------------------------------------|

   D!3
   ____3______   ____3____       ____3______   ____3____
E-----------------------------|------------------------------------|
B--20^22v20-17---20-----17----|------------------------------------|
G-------------------19--------|--19^21v19-16---19----16------------|
D-----------------------------|-------------------19---------------|
A-----------------------------|------------------------------------|
E-----------------------------|------------------------------------|
   [guitar 1 let echo device repeat last 3 tones]

E-----------------------------|------------------------------------|
B-----------------------------|------------------------------------|
G--14^16v14-12---14----12-----|------------------------------------|
D-------------------14--------|-14---------------------------------|
A-----------------------------|------------------------------------|
E-----------------------------|------------------------------------|

   E!              _____3_____                   ____3_____
E--17-16h17p16-----------16-17p-|-16h17p16---------------16--------|
B--------------17-----17--------|----------17--------17------------|
G------------------16-----------|----------------16----------------|
D-------------------------------|----------------------------------|
A-------------------------------|----------------------------------|
E-------------------------------|----------------------------------|

        _________
E--19^21---------v19----17----|--16h17p16------\-------------------|
B-----------------------------|------------------------------------|
G-----------------------------|------------------------------------|
D-----------------------------|------------------------------------|
A-----------------------------|------------------------------------|
E-----------------------------|------------------------------------|
[end solo and end riff 5]

[riff 5 for guitar 2]
   E!                            D!
E-----------------------------|------------------------------------|
B-----------------------------|------------------------------------|
G-----------------------------|------------------------------------|
D-----7-7-7---7-6-------------|------------------------------------|
A-----------------7-5---------|------------------------------------|
E-----------------------------|------------------------------------|

E-----------------------------|------------------------------------|
B-----------------------------|------------------------------------|
G-----------------------------|------------------------------------|
D-----7-7-7---7-6-------------|------------------------------------|
A-----------------7-5---------|------------------------------------|
E-----------------------------|------------------------------------|

   D!                            E!
E-----------------------------|------------------------------------|
B-----------------------------|------------------------------------|
G-----------------------------|------------------------------------|
D-----7-7-7---7-6-------------|------------------------------------|
A-----------------7-7---------|------------------------------------|
E-----------------------------|------------------------------------|

E-----------------------------|------------------|-----------------|
B-----------------------------|------------------|-----------------|
G-----------------------------|------------------|-----------------|
D-----7-7-7---7-6-------------|------------------|-----------------|
A-----------------7-7---------|------------------|-----------------|
E-----------------------------|------------------|-----------------|
[end riff 5]

[repeat riff 2]
Dm                         Cadd9!
Just by looking through your eyes,
Gm add9                   Bb!              C!
He could see the future penetrating right in through your mind

Dm                         Cadd9!
See the truth and see your lies
Gm add9                   Bb!              C!
But for all his power couldn't forsee his own demise

[repeat riff 3]
[repeat riff 4]
                                                                 There's a
D!      D!+5       C!/D    D!            D!         D!+5  C! D!
time to live and a time to die when it's time to meet the ma-ker. There's a
D!      D!+5       C!/D    D!            D!              D!+5     C! D!
time to live but isn't it strange that as soon as you're born you're dying.

[to C minor]
                                                                 There's a
C!      C!+5       Bb!/C   C!            C!         C!+5  Bb! C!
time to live and a time to die when it's time to meet the ma-ker. There's a
C!      C!+5       Bb!/C   C!            C!
time to live but isn't it strange that as soon as you're

  born you're dying.
   C!    C!+5  Bb!  No chord [faster]
E------------------|-----------------|
B------------------|-----------------|
G--------------3-3-|-----2-----3-----|
D------------------|--------3--------|
A------------------|-----------------|
E------------------|-----------------|

   D!
E------------------|-----------------|------------------|------------------|
B------------------|-----------------|------------------|------------------|
G------------------|-----------------|------------------|------------------|
D-/7--5----7-------|-7/9--7--5-------|-/7---------------|------------------|
A------------------|-----------------|-----5~~~~~~~-----|------------------|
E------------------|-----------------|------------------|------------------|

   D!
   I feel   re-      born      a-      gain
E------------------|-----------------|------------------|
B------------------|-----------------|------------------|
G------------------|-----------------|------------------|
D--7--5----7-------|-7/9--7--5-------|--7--7------------|
A------------------|-----------------|------------------|
E------------------|-----------------|------------------|

    C!
E-----------------------------|------------------------------------|
B-----------------------------|------------------------------------|
G-----------------------------|------------------------------------|
D---5-5-5-5p4---5-------------|------------------------------------|
A-------------7---------------|------------------------------------|
E-----------------------------|------------------------------------|

E-----------------------------|------------------------------------|
B-----------------------------|------------------------------------|
G-----------------------------|------------------------------------|
D---5-5-5-5p4---5-------------|------------------------------------|
A-------------7---------------|------------------------------------|
E-----------------------------|------------------------------------|

                                   D!
E-----------------------------|------------------------------------|
B-----------------------------|------------------------------------|
G-----------------------------|------------------------------------|
D---5-5-5-5p4-7-5-------------|----4-------------------------------|
A-----------------------------|---------5--------------------------|
E-----------------------------|------------------------------------|

                                  >      >         >
E-----------------------------|------------------------------------|
B-----------------------------|------------------------------------|
G-----------------------------|------------------------------------|
D---5-5-5-5---4---------------|---5-4----5-4-------5--4------------|
A-----------------5-----------|-------5-------5----------5---------|
E-----------------------------|------------------------------------|

       >       >     >            >    >    >
E-----------------------------|------------------------------------|
B-----------------------------|------------------------------------|
G-----------------------------|------------------------------------|
D------5-4-----5--4-----------|------------------------------------|
A---5------5---------5--------|---5----5----5----------------------|
E-----------------------------|------------------------------------|

CHORDS

  D! C! Dm Cadd9! Gm add9 Bb! Dm/A Gm/Bb C/D Cm/G Fm/Ab Bb/C D!+5
E-------1----3-----5-----------1-----3----3----3----1----------------------|
B-3-----3----3-----3-----------3-----3----5----4----1---3------3-----------|
G-2--5--2----5-----3------3----2-----3----5----5----1---3------3-----------|
D-0--5--0----5-----5------3----0-----0----0----5--------3------0-----------|
A----3-------3------------1----0-----1------------------3------------------|
E--------------------------------------------------------------------------|

  C!/D (D by Bass) D  E!  C!+5
E------------------2-------------------------------------------------------|
B------------------3-------------------------------------------------------|
G---5--------------2--9----5-----------------------------------------------|
D---5-----------------9----6-----------------------------------------------|
A---3-----------------7----3-----------------------------------------------|
E---------------------0----------------------------------------------------|

8.ONLY THE GOOD DIE YOUNG

E-------------|-----|-----------5--7--5--------|--------5-----|---------|
B-------5--7--|--8--|-----5--8-----------8--5--|--8--8-----8--|---------|
G---4:--------|--4--|--------4--5--7--5--4-----|--4--4--5--4--|---------|
D---4:--5--7--|-----|-----5-----------------5--|--------------|---------|
A-------------|-----|--------------------------|--------------|---------|
E-------------|-----|--------------------------|--------------|---------|

E------------5--7--5--------|--------------|----------------------------|
B---8--5--8-----------8--5--|--7--7--8--7--|----------------------------|
G---4-----4--5--7--5--4-----|--------4-----|----------------------------|
D------5-----------------5--|--7--7-----7--|----------------------------|
A---------------------------|--------------|----------------------------|
E---------------------------|--------------|----------------------------|

E------------5--7--5--------|--------5------------|-----------|---------|
B---7--5--8-----------8--5--|--8--8-----8--7h8p7--|--5--5--7--|---------|
G---------4--5--7--5--4-----|--4--4--5--4--2-4-2--|-----------|---------|
D---7--5-----------------5--|---------------------|--5--5--7--|---------|
A---------------------------|---------------------|-----------|---------|
E---------------------------|---------------------|-----------|---------|

E------|-----------5--7--5--------|--------5-----|----------------------|
B---8--|-----5--8-----------8--5--|--8--8-----8--|----------------------|
G---4--|--------4--5--7--5--4-----|--4--4--5--4--|----------------------|
D------|-----5-----------------5--|--------------|----------------------|
A------|--------------------------|--------------|----------------------|
E------|--------------------------|--------------|----------------------|

E------------5--7--5--------|--------------|----------------------------|
B---8--5--8-----------8--5--|--7--7--8--7--|----------------------------|
G---4-----4--5--7--5--4-----|--------4-----|----------------------------|
D------5-----------------5--|--7--7-----7--|----------------------------|
A---------------------------|--------------|----------------------------|
E---------------------------|--------------|----------------------------|

E------------5--7--5--------|--------5------------|-----|---------------|
B---7--5--8-----------8--5--|--8--8-----8--7h8p7--|--5--|---------------|
G---------4--5--7--5--4-----|--4--4--5--4--2-4-2--|-----|---------------|
D---7--5-----------------5--|---------------------|--5--|---------------|
A---------------------------|---------------------|-----|---------------|
E---------------------------|---------------------|-----|---------------|

This is the verse rhythm part (play twice):

E-----------------------------------|-----------------------------|
B-----------------------------------|-----------------------------|
G---4:------------------------------|-----------------------------|
D---4:--5--5-5-5--5-5-5--5-5-5--5-5-|-5--5-5-5--5-5-2--2-2-2--2-2-|
A-------3--3-3-3--3-3-3--3-3-3--3-3-|-3--3-3-3--3-3-0--0-0-0--0-0-|
E-----------------------------------|-----------------------------|

E-------------------------------|-----------------------------|
B-------------------------------|-----------------------------|
G-------------------------------|-----------------------------|
D---9--9-9-9--9-9-9--9-9-9--9-9-|-9--9-9-9--9-9-9--9-9-9--9-9-|
A---7--7-7-7--7-7-7--7-7-7--7-7-|-7--7-7-7--7-7-7--7-7-7--7-7-|
E-------------------------------|-----------------------------|

There is a clean electric guitar playing some chords over top of
that part (play twice):

E----------|--------|-----0--|--(0)--------|----------------------------|
B-------3--|-----1--|--------|-------0--3--|----------------------------|
G---4:--4--|--4--2--|--0-----|-------------|----------------------------|
D---4:--5--|--5--2--|--2-----|-------------|----------------------------|
A-------3--|--3-----|--2-----|-------------|----------------------------|
E----------|--------|--0-----|-------------|----------------------------|

This is the next part:

E-----------------------------------|------------------------------|
B-----------------------------------|------------------------------|
G---4:------------------------------|------------------------------|
D---4:--------------------------4-4-|-5--5-5-5--5-5-5--5-5-5--5-5--|
A-------7--7-7-7--7-7-7--7-7-7--2-2-|-3--3-3-3--3-3-3--3-3-3--3-3--|
E-------5--5-5-5--5-5-5--5-5-5------|------------------------------|

E-----------------------------------|------------------------------|
B-----------------------------------|------------------------------|
G---4:------------------------------|------------------------------|
D---4:--------------------------4-4-|-5--5-5-5--5-5-5--5-5-5--5-5--|
A-------7--7-7-7--7-7-7--7-7-7--2-2-|-3--3-3-3--3-3-3--3-3-3--3-3--|
E-------5--5-5-5--5-5-5--5-5-5------|------------------------------|

E-----------------------------------|------------------------------|
B-----------------------------------|------------------------------|
G---4:------------------------------|---------------5--7--7--------|
D---4:--------------------------4-4-|-5--5-5-5--5-5-5--7--5--------|
A-------7--7-7-7--7-7-7--7-7-7--2-2-|-3--3-3-3--3-3-3--5-----------|
E-------5--5-5-5--5-5-5--5-5-5------|------------------------------|

E--------------------------------|-------------------------------|
B--------------------------------|-------------------------------|
G--------------------------------|-------------------------------|
D---9--9-9-9--9-9-9--9-9-9--9-9--|-------------------------------|
A---7--7-7-7--7-7-7--7-7-7--7-7--|-------------------------------|
E--------------------------------|-------------------------------|

Then it repeats from the verse riff up until the above part once more.
After that it goes into the chorus:


E-------||--------------------------------|----------------------------|
B-------||--------------------------------|----------------------------|
G---4:--||*-------------------------------|----------------------------|
D---4:--||*--7--7-7-7--7-7-7--7-7-7--7-7--|-7--7-7-7--7-7-7--7-7-7-----|
A-------||---5--5-5-5--5-5-5--5-5-5--5-5--|-5--5-5-5--5-5-5--5-5-5--1--|
E-------||--------------------------------|----------------------------|

E-------------------|------------------||--|
B----------1--------|-----------3------||--|
G-------------3-----|--------------5--*||--|
D-------3-----------|--------5--------*||--|
A--(1)-----------3--|---(3)------------||--|
E-------------------|------------------||--|

E||-------------------------------|----------------------------|
B||-------------------------------|----------------------------|
G||*--5--5-5-5--5-5-5--5-5-5--5-5-|-5--5-5-5--5-5-5--5-5-5-----|
D||*--3--3-3-3--3-3-3--3-3-3--3-3-|-3--3-3-3--3-3-3--3-3-3-----|
A||-------------------------------|-------------------------4--|
E||-------------------------------|----------------------------|

E-------------------------|------------------------||
B-------------------------|------------------------||
G-------------------------|-----------------------*||
D-------3-----6--5--3-----|--------5-----6--5-----*||
A--(4)-----4-----------6--|---(6)-----6--------6---||
E-------------------------|------------------------||

Then comes the solo. This is the rhythm part (just basic powerchords, no
fancy rhythm patterns or anything....play twice):

E----------|--------|-----|-----|-----|--------|-----|-----|------------|
B----------|--------|-----|-----|-----|--------|-----|-----|------------|
G---4:-----|--------|-----|--6--|-----|--------|-----|-----|------------|
D---4:--4--|--5--2--|--4--|--6--|--4--|--5--2--|--4--|--4--|------------|
A-------4--|--5--2--|--4--|--4--|--4--|--5--2--|--4--|--4--|------------|
E-------2--|--3--0--|--2--|-----|--2--|--3--0--|--2--|--2--|------------|

Now comes a Bass interlude. This is the guitar part (play this 8 times..
pretty easy, eh?):

E-----------------------------------|---------------------------|
B-----------------------------------|---------------------------|
G---4:------------------------------|---------------------------|
D---4:--2--2-2-2--2-2-2--2-2-2--2-2-|---------------------------|
A-------2--2-2-2--2-2-2--2-2-2--2-2-|---------------------------|
E-------0--0-0-0--0-0-0--0-0-0--0-0-|---------------------------|

Now go way back to the intro riff and repeat from there all the way
until the end of the chorus (don't forget to do the repeat the I
previously mentioned above!!). Then the rhythm guitar plays the rhythm
part for the solo once (don't hold the last F#5 powerchord). Then there
is another solo at then end. The rhythm guitar just tremolo picks an F#5
powerchord for a bit, then switches to an E5. Then it goes back into
"Seven deadly sins......" Here are the chords to that part:

E-------0--|--2--|--0--|-----|--0--|--0--|--2--|--0--|-----|--2--|------|
B-------0--|--3--|--1--|--0--|--0--|--0--|--3--|--1--|--0--|--3--|------|
G---4:--0--|--2--|--2--|--0--|--0--|--0--|--2--|--2--|--0--|--2--|------|
D---4:--2--|--0--|--2--|--2--|--2--|--2--|--0--|--2--|--2--|--0--|------|
A-------2--|-----|--0--|--3--|--2--|--2--|-----|--0--|--3--|-----|------|
E-------0--|-----|-----|-----|--0--|--0--|-----|-----|-----|-----|------|

Here's the first solo:

E--------------------------17--14--|------------------------------------|
B-----------------15---------------|------------------------------------|
G---4:--16^--16^------16^----------|------------------------------------|
D---4:-----------------------------|------------------------------------|
A----------------------------------|------------------------------------|
E----------------------------------|------------------------------------|

E---------------------------------------|------|------------------------|
B---14^--14^--14--12--14^--14^--14--12--|------|------------------------|
G---------------------------------------|--11--|------------------------|
D---------------------------------------|------|------------------------|
A---------------------------------------|------|------------------------|
E---------------------------------------|------|------------------------|

E---------------------------------------|--------------------------|----|
B---------------------------------------|-----9^--(9)--7-----------|----|
G---------------------------1--2--1-----|-----------------6--------|----|
D---------------------2--4-----------4--|--------------------7--6--|----|
A------------2--4--5--------------------|--------------------------|----|
E---2--4--5-----------------------------|--------------------------|----|


					   dive w/bar
E---------------------|-----------------|-------|-----------------------|
B------------5--------|-----5--3--5--3--|--(3)--|-----------------------|
G---------2-----7--6--|--6--------------|-------|-----------------------|
D---4--6--------------|-----------------|-------|-----------------------|
A---------------------|-----------------|-------|-----------------------|
E---------------------|-----------------|-------|-----------------------|

E---------------------------------------|-------------------------------|
B---------------------5-----------6--2--|-------------------------------|
G------------4--6--7-----7--6--4--------|-------------------------------|
D---4--6--7-----------------------------|-------------------------------|
A---------------------------------------|-------------------------------|
E---------------------------------------|-------------------------------|

E---------------------------------------|-----|-------------------------|
B---5--3--2-----6--2--5--3--2-----------|-----|-------------------------|
G------------4-----------------4--2-----|-----|-------------------------|
D------------------------------------5--|--4--|-------------------------|
A---------------------------------------|-----|-------------------------|
E---------------------------------------|-----|-------------------------|

E---------------16^--(16)--|--14------------------14--|-----------------|
B-----------14-------------|------14------------------|-----------------|
G-------14-----------------|----------14------14------|-----------------|
D---16---------------------|--------------16----------|-----------------|
A--------------------------|--------------------------|-----------------|
E--------------------------|--------------------------|-----------------|

E---------------------------|-------------------------------------------|
B---17--15--14--15--14------|-------------------------------------------|
G-----------------------16--|-------------------------------------------|
D---------------------------|-------------------------------------------|
A---------------------------|-------------------------------------------|
E---------------------------|-------------------------------------------|

E-------------------14--16--17--------------|--17^--(17)--16--19^--|----|
B---14--14--16--17--------------14--16--17--|----------------------|----|
G-------------------------------------------|----------------------|----|
D-------------------------------------------|----------------------|----|
A-------------------------------------------|----------------------|----|
E-------------------------------------------|----------------------|----|

Here's the end solo:

E-----------|---------9--10--9--7--9--10--|--16--16^--(16)--14--|-------|
B-------7^--|--7--10----------------------|---------------------|-------|
G---4:------|-----------------------------|---------------------|-------|
D---4:------|-----------------------------|---------------------|-------|
A-----------|-----------------------------|---------------------|-------|
E-----------|-----------------------------|---------------------|-------|

E---------------|--14--16--17--19^--|-----------------------------------|
B---14--15--17--|-------------------|-----------------------------------|
G---------------|-------------------|-----------------------------------|
D---------------|-------------------|-----------------------------------|
A---------------|-------------------|-----------------------------------|
E---------------|-------------------|-----------------------------------|


				       dive w/bar
E---19^--(19)--17--16--17--16--14^--|--(14)--|--------------------------|
B-----------------------------------|--------|--------------------------|
G-----------------------------------|--------|--------------------------|
D-----------------------------------|--------|--------------------------|
A-----------------------------------|--------|--------------------------|
E-----------------------------------|--------|--------------------------|


    pick slide  trill...          trill...  trill...
E---------------14--(17)------------------------------------------------|
B----------17^------------17--14--14--(17)--14--(15)--15--14--12--------|
G-----------------------------------------------------------------14----|
D---x\x/x---------------------------------------------------------------|
A---x\x/x---------------------------------------------------------------|
E-----------------------------------------------------------------------|

E-----------------------------------------------------------------------|
B---------------------------------------------------------------14------|
G---13--13--14--13--14--13--14--13------------------------------13------|
D-----------------------------------16--14--16--14----------------------|
A---------------------------------------------------16--14--12----------|
E-----------------------------------------------------------------------|


			gradually release bend
E-----------------------9----|------------------------------------------|
B------14---14-~~~--10--12^--|------------------------------------------|
G---^--13^--13^--------------|------------------------------------------|
D----------------------------|------------------------------------------|
A----------------------------|------------------------------------------|
E----------------------------|------------------------------------------|


    power chord switches to E5         trill...
E------------------12--15--12-------------------------------------------|
B---15--------15^--------------12--15--12--(15)-------------------------|
G---14^--14^-------------------------------------12--14--12--14^--------|
D-----------------------------------------------------------------------|
A-----------------------------------------------------------------------|
E-----------------------------------------------------------------------|


				     trill...                 pick slide
E-----------------------------------------------------------------------|
B-----------------------------------------------------------------------|
G---(14)--14--14--14^--(14)--12--14--12--(14)--12--14--12---------------|
D----------------------------------------------------------14--x/x/x----|
A--------------------------------------------------------------x/x/x----|
E-----------------------------------------------------------------------|

E---15^--(15)--15--14--12--14--12---------------------------------------|
B----------------------------------13--15--14--12--13--12--10--12-------|
G-----------------------------------------------------------------------|
D-----------------------------------------------------------------------|
A-----------------------------------------------------------------------|
E-----------------------------------------------------------------------|

E----------------------------------------------|------------------------|
B---11--8--10--8--7---------12-----------------|------------------------|
G--------------------9--11--11^~~~--13^--(13)--|------------------------|
D----------------------------------------------|------------------------|
A----------------------------------------------|------------------------|
E----------------------------------------------|------------------------|
comments
print report bad tab
2 comments total.
0 reply
Francarus wrote on July 8 2006, 02:23 pm

looks pretty good so far!

-1 reply
Synyster6661 wrote on June 8 2007, 07:46 am

poooooo

I want to post or [tab]
guest
You may want to rate the tab now too:
select rating
Please do not post tabs as comments. Select "correction" instead!