Oops, an error
Loading. Please wait.

Somewhere In Time Tab

19,464 views 18 this week
no commentswrite comment
1 2 3 4 5
worth learning
x 6
add to favorites launch autoscroll
font size
0
reset
Autoscroll
+/-
esc
set tempo
stop
Contributor
WARNING: You are trying to view
                                    content from Ultimate-Guitar.com
                                    in an unauthorized application,
                                    which is prohibited.

                                    Please use an official Ultimate
                                    Guitar Tabs application for iPhone,
                                    iPad or Android to access legitimate
                                    chords, guitar, bass, and drum tabs
                                    from Ultimate-Guitar.com database.

                                    Type "ultimate guitar tabs" in Apple
                                    App Store's or Android Market's
                                    search to find the application.
Band- Iron Maiden
Album- Somewhere In Time

1.CAUGHT SOMEWHERE IN TIME

(00:00)
INTRO (X2)

| Guitar 1                                                                |
|------------------|--------------------|----------------|----------------|
|-10/(12)--10~~--7-|-8~~--10--8^7--8~~\-|-10/(12)--10--7-|-8~~-10-8^7-----|
|---B--------------|-----------P------S-|---B------------|---------P--9~\-|
|------------------|--------------------|----------------|--------------S-|
|------------------|--------------------|----------------|----------------|
|------------------|--------------------|----------------|----------------|
|                                                                         |
| Guitar 2                                                                |
|------------------|--------------------|----------------|----------------|
|-15/(17)--15~~-12-|-13~~-15-13^12-13~\-|-15/(17)--15-12-|-13~-15-13^12---|
|---B--------------|-----------P------S-|---B------------|----------P--14\|
|------------------|--------------------|----------------|---------------S|
|------------------|--------------------|----------------|----------------|
|------------------|--------------------|----------------|----------------|


| Guitar 1                                                                |
|------------------|--------------------|----------------|----------------|
|-10/(12)--10~~--7-|-8~~--10--8^7--8~~\-|-10/(12)-10-10/-|-7~~--8--10\----|
|---B--------------|-----------P------S-|---B----------B-|-----------S----|
|------------------|--------------------|----------------|----------------|
|------------------|--------------------|----------------|----------------|
|------------------|--------------------|----------------|----------------|
|                                                                         |
| Guitar 2                                                                |
|------------------|--------------------|----------------|----------------|
|-15/(17)--15~~-12-|-13~~-15-13^12-13~\-|-15/(17)--15-15/|-12~--13--15\---|
|---B--------------|-----------P------S-|---B-----------B|------------S---|
|------------------|--------------------|----------------|----------------|
|------------------|--------------------|----------------|----------------|
|------------------|--------------------|----------------|----------------|


INTRO is played once with just guitars

(00:22)
Then played again with bass/drums.

(00:37)
When playing the third time, replace Guitar 1 with:


|17/(19)-17~-14|15~~-17-15^14-15-15\-|17/(19)-17~-14-|15~-17-15^14--------|
|--B-----------|----------P--------S-|--B------------|-------------17-15\-|
|--------------|---------------------|---------------|----------------trem|
|--------------|---------------------|---------------|-----------------bar|
|--------------|---------------------|---------------|--------------------|
|--------------|---------------------|---------------|--------------------|


|17/(19)-17~-14|15~~-17-15^14-15-15\-|17/(19)-17--17/(19)|-12~~-13--15----|
|--B-----------|----------P--------S-|--B----------------|----------------|
|--------------|---------------------|-------------------|----------------|
|--------------|---------------------|-------------------|----------------|
|--------------|---------------------|-------------------|----------------|
|--------------|---------------------|-------------------|----------------|


(00:52)
BREAK


| Guitar 1                                                                |
|---------------------|-------------------|-------------|-----------------|
|-12------------------|-------------------|-------------|-----------------|
|----14-12-12--11--12-|--14--12--14-12\11-|-12^11-------|-----------------|
|---------------------|---------------S---|---P---14-14-|-14\-------------|
|---------------------|-------------------|-------------|--dive-----------|
|---------------------|-------------------|-------------|-----------------|
|                                                                         |
| Guitar 2                                                                |
|---------------------|-------------------|-------------|-----------------|
|-17-15---------------|-------------------|-------------|-----------------|
|-------16-16--14--16-|--17--16--15-16^14-|-16^14-------|-----------------|
|---------------------|---------------P---|---P---17-17-|-17\-------------|
|---------------------|-------------------|-------------|--dive-----------|
|---------------------|-------------------|-------------|-----------------|


| Guitar 1                                                                |
|---------------------|-------------------|----------------|--------------|
|-12------------------|-------------------|----------------|--------------|
|----14-12-12--11--12-|--14--12--14-12\11-|-12--(12)^11^12-|-11\/---------|
|---------------------|---------------S---|---------P--H---|--tremelo-----|
|---------------------|-------------------|----------------|---bar--------|
|---------------------|-------------------|----------------|--------------|
|                                                                         |
| Guitar 2                                                                |
|---------------------|-------------------|----------------|--------------|
|-17-15---------------|-------------------|----------------|--------------|
|-------16-16--14--16-|--17--16--15-16^14-|-16--(16)^14^16-|-14\/---------|
|---------------------|---------------P---|---------P--H---|---tremelo----|
|---------------------|-------------------|----------------|----bar-------|
|---------------------|-------------------|----------------|--------------|


| Guitar 1                                                                |
|---------------------|-------------------|-------------|-----------------|
|-12------------------|-------------------|-------------|-----------------|
|----14-12-12--11--12-|--14--12--14-12\11-|-12^11-------|-----------------|
|---------------------|---------------S---|---P---14-14-|-14\-------------|
|---------------------|-------------------|-------------|--dive-----------|
|---------------------|-------------------|-------------|-----------------|
|                                                                         |
| Guitar 2                                                                |
|---------------------|-------------------|-------------|-----------------|
|-17-15---------------|-------------------|-------------|-----------------|
|-------16-16--14--16-|--17--16--15-16^14-|-16^14-------|-----------------|
|---------------------|---------------P---|---P---17-17-|-17\-------------|
|---------------------|-------------------|-------------|--dive-----------|
|---------------------|-------------------|-------------|-----------------|


| Guitar 1                                                                |
|---------------------|-------------------|------------------|------------|
|-12------------------|-------------------|-16/(17)--(17)\16-|-(16)~~~~---|
|----14-12-12--11--12-|--14--12--14-12\11-|---B--hold----R---|------------|
|---------------------|---------------S---|------------------|------------|
|---------------------|-------------------|------------------|------------|
|---------------------|-------------------|------------------|------------|
|                                                                         |
| Guitar 2                                                                |
|---------------------|-------------------|-14/(15)--(15)\14-|-(14)~~~----|
|-17-15---------------|-------------------|---B---hold---R---|------------|
|-------16-16--14--16-|--17--16--15-16^14-|------------------|------------|
|---------------------|---------------P---|------------------|------------|
|---------------------|-------------------|------------------|------------|
|---------------------|-------------------|------------------|------------|


verse 1

(01:15)
E                                C                         D
If you had the time to lose, and open mind and time to choose
E                                C                         D
Would you care to take a look or can you read me like a book?

(01:26)
|-----------------|-----|-----------|-----------------|-----------------|
|10--10\----------|-6---|-8\--5\-8\-|10--10\----------|-6---|-8\--5\-8\-|
|-9---9\----------|-5---|-7\--4\-7\-|-9---9\----------|-5---|-7\--4\-7\-|
|-7---7\----------|-3---|-5\--2\-6\-|-7---7\----------|-3---|-5\--2\-6\-|
|-0---0-S---------|----0|--S---S--S-|-0---0-S---------|----0|--S---S--S-|
|-----------------|-----|-----------|-----------------|-----------------|
 Time  is always on my side.          Time     is always on my side.

(01:37)
VERSE 2

E                               C                              D
Can I tempt you, come with me.  Be devil may care, fullfill your dream?
E                               C                           D
If I said I'd take you there, would you go, would be your scared?


(01:48)
|-----------------|-----|-----------|-----------------|-----------------|
|10--10\----------|-6---|-8\--5\-8\-|10--10\----------|-6---|-8\--5\-8\-|
|-9---9\----------|-5---|-7\--4\-7\-|-9---9\----------|-5---|-7\--4\-7\-|
|-7---7\----------|-3---|-5\--2\-6\-|-7---7\----------|-3---|-5\--2\-6\-|
|-0---0-S---------|----0|--S---S--S-|-0---0-S---------|----0|--S---S--S-|
|-----------------|-----|-----------|-----------------|-----------------|
 Time  is always on my side.          Time     is always on my side.

(01:59)
BRIDGE (also uses a lot of gallop rythm)
E
Don't be afraid, you're safe with me.
E                         D(hold)                       E(gallop again)
Safe as any soul can be.  Honestly,  just let yourself go.

(02:11)
PRE CHORUS

|---------------|---------------|---------------|---------------|
|---------------|---------------|---------------|---------------|
|---------------|---------------|---------------|---------------|
|---5-4^5^4-----|---5-4^5^4-----|---5-4^5^4-----|---5-4^5^4-----|
|-3----H-P--5-3-|-3----H-P--5-3-|-3----H-P--5-3-|-3----H-P--5-3-|
|---------------|---------------|---------------|---------------|

|---------------|---------------|---------------|---------------|
|---------------|---------------|---------------|---------------|
|---------------|---------------|---------------|---------------|
|---5-4^5^4-----|---5-4^5^4-----|---5-4^5^4-----|---5-4^5^4-----|
|-0----H-P--5-0-|-0----H-P--5-0-|-0----H-P--5-0-|-0----H-P--5-0-|
|---------------|---------------|---------------|---------------|


(02:21)
Repeat PRE CHORUS with guitar added below

|---------------|---------------|---------------|---------------|
|---------------|---------------|---------------|---------------|
|---4-2^4^2-----|---4-2^4^2-----|---4-2^4^2-----|---4-2^4^2-----|
|-2----H-P--5-2-|-2----H-P--5-2-|-2----H-P--5-2-|-2----H-P--5-2-|
|---------------|---------------|---------------|---------------|
|---------------|---------------|---------------|---------------|

|---------------|---------------|---------------|---------------|
|---------------|---------------|---------------|---------------|
|---4-2^4^2-----|---4-2^4^2-----|---4-2^4^2-----|---4-2^4^2-----|
|-2----H-P--5-2-|-2----H-P--5-2-|-2----H-P--5-2-|-2----H-P--5-2-|
|---------------|---------------|---------------|---------------|
|---------------|---------------|---------------|---------------|

(02:32)
CHORUS

|------|-------------|-------|-----|----------------------------------|
|------|-------------|-------|-----|----------------------------------|
|------|---9------9--|-5/12--|--9--|------|---9------9--|-5/12--|--9--|
|------|---9------9--|-5/12--|--9--|------|---9------9--|-5/12--|--9--|
|-7----|---7------7--|-3/10--|--7--|-7----|---7------7--|-3/10--|--7--|
|-0----|-0----0-0----|--S----|-----|-0----|-0----0-0----|--S----|-----|
Caught somewhere in time            Caught somewhere in time

|------|-------------|-------|-----|-----|-----------|----------|-------|
|------|-------------|-------|-----|-----|-----------|----------|-------|
|------|---9------9--|-5/12--|--9--|-9---|-11-12--16-|-16-19-19-|-19~---|
|------|---9------9--|-5/12--|--9--|-9---|-11-12--16-|-16-19-19-|-19~---|
|-7----|---7------7--|-3/10--|--7--|-7---|--9-10--14-|-14-17-17-|-17~---|
|-0----|-0----0-0----|--S----|-----|-----|-----------|----------|-------|
Caught somewhere in time            Oh           Oh


(03:17)
INTERLUDE (muted)

|---------------------------|------------------------------|
|---------------------------|------------------------------|
|---------------------------|------------------------------|
|-------------5-------------|-7-------------5--------------|
|-7-x-7-7-7-x---7-x-7-7-7-x-|---7-x-7-7-7-x---7-x-7-7-7-x--|
|---------------------------|------------------------------|

|---------------------------|------------------------------|
|---------------------------|------------------------------|
|---------------------------|------------------------------|
|-------------5-------------|-7---7-7-7-7-7-5-4------------|
|-7-x-7-7-7-x---7-x-7-7-7-x-|-------------------5----------|
|---------------------------|------------------------------|


(03:28)
Guitar Solo #1

|-----------------------------------|-------------------------------------|
|-15---13^15^13-----13--------------|-------------------------------------|
|--------H--P---14-----14/16--14-12-|-14^12^14^12\10--12-10/12---10--9----|
|------------------------S----------|---P--H--P--S---------S--------------|
|-----------------------------------|-------------------------------------|
|-----------------------------------|-------------------------------------|


|-----------------------|-----------|-------------------------------------|
|-----------------------|-----------|-------------------------------------|
|-10^9^10^9-------------|---------9-|-10----9^10^9-----9--10--12/(14)-----|
|-----------12/14\12\10-|-12~~~-----|----12--H--P--12-----------B---------|
|-------------S--S--S---|-----------|-------------------------------------|
|-----------------------|-----------|-------------------------------------|


|-----------------------------|-------------------------------------------|
|-----------------------------|-------------------------------------------|
|-12\(11)----12^10^12^10\9^10-|-9^10^9------------------------------------|
|--dive--------H--P--H--S-H---|--H--P--12^10\9\0---10-10^9^7--9^7\5/(6)^7-|
|-----------------------------|----------H--S-S---------P-P----P-S-B---H--|
|-----------------------------|-------------------------------------------|


|----------------|---------|---------|------------------------------------|
|----------------|-harmonic|-harmonic|------------------------------------|
|----------------|----3\/--|----3\/--|--(3)^0--5--5/(7)-3^5^3----3--2^3^2-|
|-5^7^5----------|---dive--|---dive--|-----P-------B-----H-P--5------H-P--|
|-------8--7-3^5-|-release-|-release-|------------------------------------|
|----------------|---------|---------|------------------------------------|


|----------------|----------------------|-----12--13------12--13----------|
|----------------|----------------10-13-|-15----------15------------------|
|-3--------------|---------7/9-12-------|---------------------------------|
|----5-3^5^3\2/7-|--7-9-10--S-----------|---------------------------------|
|-------H-P-S-S--|----------------------|---------------------------------|
|----------------|----------------------|---------------------------------|


|-15/(17)-13-15-|-(15)~~-------12-15-|-12^13^12----12^13^12----------------|
|---B-----------|----------13--------|---H--P---15---H--P---15^13-15-------|
|---------------|-------14-----------|------------------------P------------|
|---------------|--------------------|-------------------------------------|
|---------------|--------------------|-------------------------------------|
|---------------|--------------------|-------------------------------------|


-12^13^12----------------------|------------------------------------------|
---H--P---15^13^12----12^13^12-|----------------------10--13/(15)---------|
------------P--P---14---H--P---|--14^12\10-12/(14)\---------B-------------|
-------------------------------|----P--S-----B----R-----------------------|
-------------------------------|------------------------------------------|
-------------------------------|------------------------------------------|

|-10-----------------------------|----------------------------------------|
|----13^10----10----10-------10--|--(10)~~\-------------13/(15)-----------|
|------p---12----12----12-10-10--|--(10)~~\---------------B---------------|
|--------------------------------|------with------------------------------|
|--------------------------------|-------bar------------------------------|
|--------------------------------|----------------------------------------|


|------------10^13^10^13-|-10^13^10^13^10--------15-|
|-(15)\13------H--P--H---|---H--P--H--P-----0/18----|
|-----R------------------|-------------------S------|
|------------------------|--------------------------|
|------------------------|--------------------------|
|------------------------|--------------------------|


|-17^15^17^15----15~----15-------|----------------------------------------|
|---P--H--P---18-----18----18-17-|-15-17-15^17^15-----15\-----------------|
|--------------------------------|---------H--P---17----S---/19-----------|
|--------------------------------|--------------------------S-------------|
|--------------------------------|----------------------------------------|
|--------------------------------|----------------------------------------|

|-------------------|-17^18^17----17-20/(22)-20-18-|
|-17-16----17-18-20-|---H--P---20------B-----------|
|-------19----------|------------------------------|
|-------------------|------------------------------|
|-------------------|------------------------------|
|-------------------|------------------------------|


|-17^18^17----17------------|--------|
|----------20----20/(22)-18-|--------|
|------------------B--------|-19~~~~-|
|---------------------------|--------|
|---------------------------|--------|
|---------------------------|--------|

(04:05)
GUITAR SOLO # 2

|-----------------|--ah-ah----------|-------------------|-----------------|
|--------------15-|--13-12-ah-ah-ah-|-------------------|---------------ah|
|-14/(16)~~^12----|--------14-12-11-|-ah-ah-ah----------|---------------17|
|---B------P------|-----------------|-14-12-10-ah-ah----|---------16-16---|
|-----------------|-----------------|----------14-12-10-|-10\7\14---------|
|-----------------|-----------------|-------------------|---S-S-----------|


|-19---19/(20)-|-19-17-15-17/(19)^15-|-17------------|--------------------|
|--------B-----|------------B----P---|----15^17^15~~-|--------------------|
|--------------|---------------------|------H--P-----|--------------------|
|--------------|---------------------|---------------|--------------------|
|--------------|---------------------|---------------|---S---/5--5--------|
|--------------|---------------------|---------------|-17\0--S------------|

 muted..............]
|---------------------|-------------------------|-------------5---5-7^5---|
|---------------------|-------------------5---5-|-7^5-7-8-7-8---8----P--8-|
|---------------------|-4---4-5^4-5-7-5-7---7---|-------------------------|
|-------4-5^4-5-7-5-7-|---7----P----------------|-------------------------|
|-7-5-7----P----------|-------------------------|-------------------------|
|---------------------|-------------------------|-------------------------|


|-------|14^15^14^15^14^15^14^15^14^15^12^15^12^15^12^15^10^15^10^15^10^15|
|5/(8)~\|--T--P--T--P--T--P--T--P--T--P--T--P--T--P--T--P--T--P--T--P--T--|
|-B-dive|-----------------------------------------------------------------|
|-------|-----------------------------------------------------------------|
|-------|-----------------------------------------------------------------|
|-------|-----------------------------------------------------------------|

|^10^15^10^15^8^15^8^15^8^15-8\7^15^7------|-------------|----------------|
|P--T--P--T--P-T--P-T--P-T----S-T--P--10-8-|-7-----------|------15/(17)---|
|------------------------------------------|---9-7-9-7---|-7~~----B-------|
|------------------------------------------|-----------9-|----------------|
|------------------------------------------|-------------|----------------|
|------------------------------------------|-------------|----------------|


|-12---------------12---------------12-------|---------12-----------------|
|----15^12-15/(17)----15^12-15/(17)----15^12-|-15/(17)----15^12-15/(17)---|
|------P-----B----------P-----B----------P---|---B----------P-----B-------|
|--------------------------------------------|----------------------------|
|--------------------------------------------|----------------------------|
|--------------------------------------------|----------------------------|


 -12---------------12-|---------------12---------------12----|------------|
 ----15^12-15/(17)----|-15^12-15/(17)----15^12-15/(17)----15-|-(15)~\-----|
 ------P-----B--------|---P-----B----------P-----B-----------|------S-----|
 ---------------------|--------------------------------------|------------|
 ---------------------|--------------------------------------|----------7-|
 ---------------------|--------------------------------------|------------|


|---------------------|---------------|------------------------|----------|
|---------------------|---------------|-7^8---7----------------|----------|
|----------------12-11|-9---------11~~|--H--9---7-9-5^7---5----|----------|
|--------12-10-9------|---12-11-9-----|--------------H--9---7-9|-5^7-4~\--|
|-7-10-9--------------|---------------|------------------------|--H----S--|
|---------------------|---------------|------------------------|----------|

|-14^15^14^15^14^15^14^16^14^16^14^17^14^17^14^17^14^17^14^17^14^17-------|
|---H--P--H--P--H--P--H--P--H--P--H--P--H--P--H--P--H--P--H--P--H---------|
|-------------------------------------------------------------------------|
|-------------------------------------------------------------------------|
|-------------------------------------------------------------------------|
|-------------------------------------------------------------------------|


|-^14^17^14^15^14^17^14^15^14----------|-------|--------------------------|
|-P--H--P--H--P--H--P--H--P------------|-------|--------------------------|
|--------------------------------------|-------|------3--2----------------|
|------------------------------------4-|-(4)\--|-4~~--------3-------------|
|---------------------------------S--2-|-(2)\--|-2~~----------------------|
|-------------------------------12\----|--dive-|--------------------------|


|-------------------------------------------|-----------------------------|
|-0^10^12^0^10^12^0^10^12^0^10^12^0^10^12^0-|^10^12^0^10^12^0^10^12^0^10--|
|--H--T--P-H--T--P-H--T--P-H--T--P-H--T--P--|H--T--P-H--T--P-H--T--P-H----|
|-------------------------------------------|-----------------------------|
|-------------------------------------------|-----------------------------|
|-------------------------------------------|-----------------------------|


 ---------------|--------------------------------------|----------------AH|
 ^12^0^10^12^0^9|^12^0^8^12^0^7^12^0^6^12^0^5^12^0^4^12|^0^3^12^0^3^12^0-0|
 T--P-H--T--P-H-|T--P-H-T--P-H-T--P-H-T--P-H-T--P-H-T--|P-H-T--P-H-T--P---|
 ---------------|--------------------------------------|------------------|
 ---------------|--------------------------------------|------------------|
 ---------------|--------------------------------------|------------------|


 (04:51)
 REPEAT BREAK

 (05:13)
 VERSE 3

 E                               C                              D
 Like a wolf in sheep's clothing you try to hide your deepest sins.
 E                                      C                           D
 Of all the things that you've done wrong, and I know where you belong.


(05:23)
|-----------------|-----|-----------|-----------------|-----------------|
|10--10\----------|-6---|-8\--5\-8\-|10--10\----------|-6---|-8\--5\-8\-|
|-9---9\----------|-5---|-7\--4\-7\-|-9---9\----------|-5---|-7\--4\-7\-|
|-7---7\----------|-3---|-5\--2\-6\-|-7---7\----------|-3---|-5\--2\-6\-|
|-0---0-S---------|----0|--S---S--S-|-0---0-S---------|----0|--S---S--S-|
|-----------------|-----|-----------|-----------------|-----------------|
 Time  is always on my side.          Time     is always on my side.

(05:34)
BRIDGE
E
Make you an offer you can't refuse
You've only got your soul to lose.
D                          E
eternally, let yourself go.

(05:45)
REPEAT PRE-CHORUS

(06:07)
REPEAT CHORUS


(06:52)
OUTRO

|-------------------------|---------------------|-------------------------|
|-------------------------|---------------------|-------------------------|
|-------------------------|---------------------|-------------------------|
|-4-4-4-4-4-4-4-4-4-4-4-4-|-4-4-4-4-4-4-------4-|-4-4-4-4-4-4-4-4-4-4-4-4-|
|-2-2-2-2-2-2-2-2-2-2-2-2-|-2-2-2-2-2-2-2-3-0-2-|-2-2-2-2-2-2-2-2-2-2-2-2-|
|-------------------------|---------------------|-------------------------|


|---------------------|-------------------------|-------------------------|
|---------------------|-------------------------|-------------------------|
|---------------------|-------------------------|-------------------------|
|-4-4-4-4-4-4---3-2---|-4-4-4-4-4-4-4-4-4-4-4-4-|-4-4-4-4-4-4-------4-----|
|-2-2-2-2-2-2-2-----3-|-2-2-2-2-2-2-2-2-2-2-2-2-|-2-2-2-2-2-2-2-3-0-2-----|
|---------------------|-------------------------|-------------------------|


|-------------------------|-----------------|------------|-----|----------|
|-------------------------|-----------------|------------|-----|----------|
|-------------------------|-----------------|------------|-----|----------|
|-4-4-4-4-4-4-4-4-4-4-4-4-|---3-2-----------|----------9-|-9---|-9/-------|
|-2-2-2-2-2-2-2-2-2-2-2-2-|-2-----3-2-3-2-0-|-5-3------7-|-7---|-7/-------|
|-------------------------|-----------------|-----3----0-|-0---|-0/-------|
                                                          pick    S
                                                          fast

2.WASTED YEARS

(intro)
|-12-0-0-0-0-0-0-7-0-0-0-0-8-0-0-0-0-5-0-0-0-0-7-0-0-0-3-0-0-0------|
|-------------------------------------------------------------------|
|-------------------------------------------------------------------|
|-------------------------------------------------------------------|
|-------------------------------------------------------------------|
|-------------------------------------------------------------------|

|-5-0-0-0-2-0-0-0-3-0-0-0-0-5-0-0-0-2-3-----------------------------|
|-------------------------------------------------------------------|
|-------------------------------------------------------------------|
|-------------------------------------------------------------------|
|-------------------------------------------------------------------|
|-------------------------------------------------------------------|

(verse1)
|-------------------------------------------------------------------|
|-------------------------------------------------------------------|
|-7-7-7/9-9-9-9-9-9-9\7-7-7-7-7-7/9-9-9-9-9\7-7-7-7/14-14-14-12-12--|
|-7-7-7/9-9-9-9-9-9-9\7-7-7-7-7-7/9-9-9-9-9\7-7-7-7/14-14-14-12-12--|
|-5-5-5/7-7-7-7-7-7-7\5-5-5-5-5-5/7-7-7-7-7\5-5-5-5/12-12-12-10-10--|
|-------------------------------------------------------------------|
pm...............pm......................pm.................pm.......

--------------------------------------------------------------------|
------------------1-------------------------------------------------|
-5-5-5------0---0----7-7-7-7-7-7/9-9-9-9-9\7-7-7-7-7-5-5-5-5-5-5----|
-5-5-5----2---2------7-7-7-7-7-7/9-9-9-9-9\7-7-7-7-7-5-5-5-5-5-5----|x2
-3-3-3--3------------5-5-5-5-5-5/7-7-7-7-7\5-5-5-5-5-3-3-3-3-3-3----|
--------------------------------------------------------------------|
pm....................pm...................pm..................pm...

(chorus)
------------------------------------------------------------------------|
-------------------2-2-2---------------------2-2-2----------------------|
----------5-5-5-5--2-2-2-7-7-7-7-7--5-5-5-5--2-2-2--9-9-9-9--7-7-7-5-5--|
-5-5-5-5--5-5-5-5--2-2-2-7-7-7-7-7--5-5-5-5--2-2-2--9-9-9-9--7-7-7-5-5--|x2
-5-5-5-5--3-3-3-3--------5-5-5-5-5--3-3-3-3---------7-7-7-7--5-5-5-3-3--|
-3-3-3-3----------------------------------------------------------------|

(rythm for solo)
--------------------------------------------------------------------|
--------------------------------------------------------------------|
-9-9-9-9-9-9-9-9-9--7-7-7-7-7-7-7---5-5-5-5-5-5--7-7-9-9-9-9--------|
-9-9-9-9-9-9-9-9-9--7-7-7-7-7-7-7---5-5-5-5-5-5--7-7-9-9-9-9--------|
-7-7-7-7-7-7-7-7-7--5-5-5-5-5-5-5---3-3-3-3-3-3--5-5-7-7-7-7--------|
--------------------------------------------------------------------|

(adrian smith)
-7-------------7-------------7-----------------------------------------|
---10-0-8-0-8----10-0-8-0-8----10-0-8-0-8-----8-7----------------------|
--------------------------------------------------9-7-9br9-------------|
-----------------------------------------------------------------------|
-----------------------------------------------------------------------|
-----------------------------------------------------------------------|


------12-----------12-----------12-------------12--------14br14br14br14-|
--15b----15p12--------15p12-15b----15p12----------15p12-----------------|
---------------14b------------------------14b---------------------------|
------------------------------------------------------------------------|
------------------------------------------------------------------------|
------------------------------------------------------------------------|

--12--------14-15-14--------------14-15-14-------------14-15-14---------|
-----13--------------17-0-15-0-15----------17-0-15-15-----------17-0-15-|
------------------------------------------------------------------------|
------------------------------------------------------------------------|
------------------------------------------------------------------------|
------------------------------------------------------------------------|

--12-14-15-12-14----12---------------------------------------------------------|
-----------------15----13-15-12-13------12-------------------------------------|
------------------------------------14------12-14-11-12----12------------------|
--------------------------------------------------------14-----12-14--10-12----|
----------------------------------------------------------------------------14-|
-------------------------------------------------------------------------------|

-----14-15----14-15-17-15-17/19-20-22b-r22-20-19-20-22-20-19-------------|
--17-------17------------------------------------------------20-20-------|
-------------------------------------------------------------------------|
-------------------------------------------------------------------------|
-------------------------------------------------------------------------|
-------------------------------------------------------------------------|
this solo is pretty close i think theres a few more notes added here and there
other than that its fine.

--------------------------------------------------------------------|
--5-5-5-5-5-3-3-3-3-3-3-1-1-1-1-1p0-0-0-----------------------------|
----------------------------------------2p0-----0-------------------|
--------------------------------------------2---2-------------------|
------------------------------------------------2-------------------|
------------------------------------------------0-------------------|
this bit is when you play the intro near the end and finish on this

3.SEA OF MADNESS

RIFF 1
-------------------------------------|----------------------------------|---|
-------------------------------------|----------------------------------|---|
-------------------------------------|----------------------------------|---|
-----------P---7---H-----------P---7-|---H----------P----------------B--|---|
----------7^5--7--4^7---7--7--7^4--7-|--4^7--7--7--7^3-----------H--5/--|---|
-0---0-------------------------------|------------------0-0-0-0-5^7-----|---|


RIFF 1 A
-------------------------------------|---------------------------|----------|
-------------------------------------|---------------------------|----------|
-------------------------------------|---------------------------|----------|
-----------P-------H----------P----S-|----S----------------------|----------|
----------7^5--7--4^7--7--7--7^4--7\-|---5^7--5------------B-P---|----------|
-0---0--0----------------------------|-0---------7--6--5--3/^0---|----------|


PRE-CHORUS
 Oh..                                my eyes...      can't believe...
---------------------|-------------|---------------|---------------|--------|
---------------------|-------------|---------------|---------------|--------|
---------------------|-------------|---------------|---------------|--------|
-9--9-----9--------7-|9---9------9-|-9----9------7-|-7--10--10--9--|--------|
-7--7-----7--------8-|8---8-----10-|10---10------8-|-8---8---8--7--|--------|
-0-----0-----0--0----|--0---0-0----|---0-----0-0---|------------0--|--------|

 Oh...                               my heart...     turn my back...
---------------------|-------------|---------------|---------------|--------|
---------------------|-------------|---------------|---------------|--------|
---------------------|-------------|---------------|---------2-----|--------|
-9--9-----9--------7-|9---9------9-|-9----9------7-|--5------2-----|--------|
-7--7-----7--------8-|8---8-----10-|10---10------8-|--7------0-----|--------|
-0-----0-----0--0----|--0---0-0----|---0-----0-0---|------0--------|--------|


CHORUS
1.Like the...           the dove             Fly so...          above
1.Like a river          will flow            on towards         we go
---------------------|---------------------|-------------------|-----------|
-------------------6-|--5-----------5----8-|--8---------8------|-----------|
--2----------2-----5-|--6-----------6----7-|--7---------7------|-9-9-9---9-|
--2--|-PM--|-2--PM-3-|--3--|-PM--|--3-PM-5-|--5-|--PM-|-5-PM-9-|-9-9-9---9-|
-----0-0-0-0----0----|-----0-0-0-0----0----|----0-0-0-0---0--7-|-7-7-7---7-|
---------------------|---------------------|-----------------0-|-------0-0-|

1.you see...        bring you...      sadness
2.you do            bring you...      sadness                  Out on the...
------------------|---------------------|---------P----------|----vibrato-----|
------------------|---------------------|-12----13^12--------|(12)\--bar------|
-9--------9----10-|-10-------10------12-|----12--------12----|(12)\\----------|
-9--------9----10-|-10--|PM|-10--PM--12-|-----------------12-|(12)\\----------|
-7--|PM|--7-PM--8-|--8--8--8--8--8---10-|--------------------|-----\----------|
----0--0----0-----|---------------------|--------------------|----------------|


HARMONY INTERLUDE(Two guitars)
|---|----------------|------------------|-------------------|----------------|
|---|----------------|------------------|-------------------|----------------|
|---|----------------|------------------|--------H-P--------|----------------|
|---|-----|--PM-|----|-------|-PM--|--4-|-(4)~--4^5^4--5----|----------------|
|-2-|-2~--2--4--5--2-|-(2)~--2--4--5----|-----------------7-|----------------|
|---|----------------|------------------|-------------------|----------------|
|   |                |                  |                   |
|---|----------------|------------------|-------------------|---------------|
|---|----------------|------------------|-------------------|---------------|
|---|----------------|------------------|--------H-P--------|---------------|
|---|-----|--PM-|----|-------|--PM-|--7-|-(7)~--7^9^7--9----|---------------|
|-5-|-5~--5--7--9--5-|-(5)~--5--7--9----|-----------------10|---------------|
|---|----------------|------------------|-------------------|---------------|


|----------------------|-------------------|--------------------|-----------|
|----------------------|-------------------|--------------------|-----------|
|----------------------|-------------------|--------------------|-----------|
|-----4----------------|-------|--PM-|-----|-------------4--4---|-----------|
|-(7)---5--7--0--1--2~-|---2~--2--4--5--2~-|-(2)~--4--5---------|-----------|
|----------------------|-------------------|--------------------|-----------|
|                      |                   |                    |
|----------------------|-------------------|--------------------|-----------|
|----------------------|-------------------|--------------------|-----------|
|----------------------|-------------------|-------------7------|-----------|
|-----7----------------|-------|--PM-|-----|-------------7------|-----------|
|(10)---9-10--5--4--5~-|---5~--5--7--9--5~-|-(5)~--7--9--5------|-----------|
|----------------------|-------------------|--------------------|-----------|

|-------------------------AH-|----H-P----------------|----------------------|
|-|---------PM----------|-6--|-(6)^7^6---------------|----------------------|
|-4-5-5-5-7-7-7-7-9-9-9-9----|----------7----------S-|----------------------|
|----------------------------|-------------7~---(7)\-|----------------------|
|----------------------------|-----------------------|----------------------|
|----------------------------|-----------------------|----------------------|
|                            |                       |
|----------------------------|-----------------------|----------------------|
|----------------------------|-----------------------|----------------------|
|-------7--------7------2----|-(2)---2------------4--|----------------------|
|-------7--|PM|--7--PM--2----|-(2)---2------H-P---4--|----------------------|
|-------5--5--5-----5---0----|-(0)---0--0--4^5^4--2--|----------------------|
|----------------------------|-----------------------|----------------------|


GUITAR SOLO
 B5                        A5 G5              A5   D5
|----H-P-----------P------------|--H-P-------------14-|---------------------|
|---2^3^2---P-----3^2--4--2--4~-|-2^3^2----2~--S------|---------------------|
|----------4^2--4---------------|--------4----4\------|---------------------|
|-------------------------------|---------------------|---------------------|
|-------------------------------|---------------------|---------------------|
|-------------------------------|---------------------|---------------------|

                                             A5
|---P--H--H--P--H--H--P--P--H--P-------------------|------------------------|
|-15^14^15^17^14^15^17^15^14^15^14---P---14--------|-------P--P--S--H--P--H-|
|----------------------------------16^14----16--14-|-12--16^14^12\11^12^11^-|
|--------------------------------------------------|------------------------|
|--------------------------------------------------|------------------------|
|--------------------------------------------------|------------------------|

            B5                                              A5     G5
|--------------|---------------------------------------------------------|--|
|-H------------|---------------------------------------------------------|--|
|-^12----------|--------------------------------------------11--------11-|--|
|-----11~------|---P-------11--12----11--12--14--11--12--14----12--14----|--|
|-----------12-|-14^12--14--------14-------------------------------------|--|
|--------------|---------------------------------------------------------|--|


                                A5  D5                     A5
|-------------------------------------|-17/~~--17--15--14--15-|-------------|
|-----------------------------S---S---|---B-------------------|-------------|
|-12----11--12--14--11--12--14/16~\---|-----------------------|-------------|
|----14-----------------------------\-|-----------------------|-------------|
|-------------------------------------|-----------------------|-------------|
|-------------------------------------|-----------------------|-------------|

    H  P                          C#5
|-14^15^14-------------BR---------BR-|--------------------------------------|
|----------17----15--17/\---15--19/\-|--------------------------------------|
|------------------------------------|--------------------------------------|
|------------------------------------|--------------------------------------|
|------------------------------------|--------------------------------------|
|------------------------------------|--------------------------------------|


INTERLUDE

|------------------------|------------------------|-------------------0-|---|
|-19~~~~~~~~~~~~---------|--------------0---------|---------------------|---|
|------------------------|----------------6----4--|-------4------4------|---|
|------------------------|------------------6--4--|--4--4---4--4---4----|---|
|------------------------|--0--0--0--0------------|---------------------|---|
|------------------------|------------------------|---------------------|---|
| RHYTHM GUITAR RIFF A   |                        |                     |
|---------------0--------|------------------------|---------------------|---|
|-------------0---4------|------------------------|---------------------|---|
|--6-----6--6-------4-4--|--------------4------4--|---------------4-----|---|
|--6-----6------------6--|--------------6------4--|---------------------|---|
|--4--4--4------------0--|--0--0--0--0--0-0-0--2--|--2--2-2-2--2--------|---|
|------------------------|------------------------|---------------------|---|


|(0)---0-------4-----|
|-4---------4--------|
|----4---------------|
|------------------0-|
|------------------4-|
|--------------------|
|                    |
|----0---------------|
|--------0-----------|
|(4)-----------4-----|
|------------------X-|
|------------------4-|
|--------------------|

END RHYTHM GUITAR RIFF A


CONTINUE RHYTHM GUITAR RIFF A

LEAD GUITAR
                                                         DIVE  DIVE
|-----------|--S---9-----11-|--~~~--12--------------|-------------------|
|-----------|--/9-----9-----|-----------12------12--|-(12)\-(12)\---S---|
|-----------|---------------|---------------11------|--------------9\7--|
|-----------|---------------|-----------------------|-------------------|
|-----------|---------------|-----------------------|-------------------|
|-----------|---------------|-----------------------|-------------------|

            Ooh                         Ooh                   Ooh
|---------------|-------------------------|---------------------|
|--P------------|------------H-P----------|----------H-P--------|
|-9^8---~~~~~~--|-(8)--9----8^9^8---------|---------8^9^8-------|
|---------------|------------------11-----|--9--11---------9----|
|---------------|----------------------11-|-------------------9-|
|---------------|-------------------------|---------------------|

                                          S
|-------|-----------------------H--H----14\-|
|-------|-------------H--H----14^16^17------|
|-------|---H--H----13^14^16----------------|
|-------|-13^14^16--------------------------|
|-(9)---|-----------------------------------|
|-------|-----------------------------------|

REPEAT RHYTHM GUITAR RIFF 1 & 1/2 TIMES:
It's madness/The sun don't shine on the sea of madness

B5 STRUM
There ain't no wind to fill your sails

REPEAT RHYTHM GUITAR RIFF 1 & 1/2 TIMES:
Madness/When all you can see can only bring you sadness

B5 STRUM
On towards the sea we go


REPEAT RIFF I (X4)

REPEAT VERSE I
REPEAT PRE-CHORUS
REPEAT CHORUS


CODA

                       |-RHYTHM GUITAR RIFF B------------------------
Out on the sea of madness
|-----D--D-------------|---------------------|----------------------|
|(12)-\--\----------10-|-10---------10-----6-|(6)--6---------6----8-|
|(12)-\--\----------9--|-9----------9------5-|(5)--5---------5----7-|
|(12)-\--\----------7--|-7----------7------3-|(3)--3---------3----5-|
|-------------------0--|----0-0-0-0-----0----|-------0-0-0-0----0---|
|----------------------|---------------------|----------------------|


----------------------------------------------| END RHYTHM GUITAR RIFF B

|-------------------------|------S------------|
|(9)--9-----------9-----6-|(6)--6/9--9-9---10-|
|(7)--7-----------7-----5-|(5)--5/7--7-7---9--|
|(5)--5-----------5-----3-|(3)--3/5--5-5---7--|
|--------0-0-0-0-----0----|-------------------|
|-------------------------|-------------------|


REPEAT RHYTHM GUITAR RIFF B
LEAD GUITAR
                                                    Of madness
|--------------|-----------------|----------------|------------------|
|--B---TH--TH--|-------5---B-----|--------S-------|---------------B--|
|-7/9--12--10--|-~~~------7^9--5-|----7--5\4---S--|------S-S-P---7^9-|
|--------------|-----------------|------------5/7-|-~~~--\2/7^5------|
|--------------|-----------------|----------------|------------------|
|--------------|-----------------|----------------|------------------|

(hold bend)                                                          H  B
|--------------|--vibrato--|-------------------|-------B------B----17^19^20|
|--------T---T-|----B--P---|---P-H-P-----------|-----20^22--20^22----------|
|(9)----12--14-|--14/17^7--|(7)^5^7^5------P---|dive--------sharp----------|
|--------------|-----------|-----------7~~~^0--|-------------bend----------|
|--------------|-----------|-------------------|---------------------------|
|--------------|-----------|-------------------|---------------------------|

 R       B        B      B  R                    B  R
|^19---19^20--|-19^20--19^20^19----17-----17---19^20^19-|
|-------------|--------fast------------20-------fast----|
|-------------|------------slow--------------------slow-|
|-------------|-----------------------------------------|
|-------------|-----------------------------------------|
|-------------|-----------------------------------------|


|-19^17----17-----H--P--H---|-------------|-5--P----B----5---P----------|
|-------20----20~~^22^20^22-|----B--------|---8^5--8^10-----8^5---B-P---|
|---------------------------|---7^9-------|----------------------7^9^5--|
|---------------------------|-------------|-----------------------------|
|---------------------------|-------------|-----------------------------|
|---------------------------|-------------|-----------------------------|


|-------------------------|--------------------------|-------------|
|-------------------------|------------------B-------|P------------|
|-7--7--5-----------------|--------------5--7^9--7^9-|^5-----------|
|----------7---S--P-------|-----S--5--7--------------|----7~~~~----|
|-------------7\5~^3--5~~-|-3--5/7-------------------|-------------|
|-------------------------|--------------------------|-------------|

4.HEAVEN CAN WAIT

Riff 1:
E---------------------------------|----------------------------------|
B---------------------------------|----------------------------------|
G--7-9-7-9---7---9---7---7-7-9-7--|--5-7-5-7---5---7---5----5-5-7-5--|
D--7-7-7-7---7---7---7---7-7-7-7--|--5-5-5-5---5---5---5----5-5-5-5--|
A---------------------------------|----------------------------------|
E---------------------------------|----------------------------------|

E---------------------------------|---------------------------------------|
B---------------------------------|---------------------------------------|
G--7-9-7-9---7---9---7---7-7-9-7--|--10-12-10-12---10---12-14-12-14---12--|
D--7-7-7-7---7---7---7---7-7-7-7--|--10-10-10-10---10---12-12-12-12---12--|
A---------------------------------|---------------------------------------|
E---------------------------------|---------------------------------------|

Riff 2:
E---------------------------------|----------------------------------|
B---------------------------------|----------------------------------|
G---------------------------------|----------------------------------|
D--7-9-7-9---7---9---7---7-7-9-7--|--5-7-5-7---5---7---5----5-5-7-5--|
A--7-7-7-7---7---7---7---7-7-7-7--|--5-5-5-5---5---5---5----5-5-5-5--|
E---------------------------------|----------------------------------|

E---------------------------------|---------------------------------------|
B---------------------------------|---------------------------------------|
G---------------------------------|---------------------------------------|
D--7-9-7-9---7---9---7---7-7-9-7--|--10-12-10-12---10---12-14-12-14---12--|
A--7-7-7-7---7---7---7---7-7-7-7--|--10-10-10-10---10---12-12-12-12---12--|
E---------------------------------|---------------------------------------|

Verse:
1.Can't understand what is happening to me, this isn't real, this is only a dream
2.I have a lust for the earth below and hell itself is my only foe
3.My body tingles I feel so strange I feel so tired I feel so drained
E--------------------------------------|--------------------------------------|
B-----------------------------7--8--7--|--------------------------------------|
G-----------------------------7--7--7--|--------------------------------------|
D-----------------------------7--7--7--|--------------------------------------|
A--5--5--5--5--5--5--5--5--5-----------|--5--5--5--5--5--5--5--5--5--5--5--5--|
E--------------------------------------|--------------------------------------|

but I never felt no I never have felt this way before
cause I've no fear of dying I'll go when I'm good and ready
and I wonder if I'll ever be the same again
E-------------------------------------------------|
B-------------------------------------------------|
G----------------------------------------------7--|
D--5--4---------------5--4---------------5--4--7--|
A--------7--5----7----------7--5----7----------5--|
E-------------------------------------------------|

E--------------------------------------|
B-----------------------------7--8--7--|
G-----------------------------7--7--7--|
D-----------------------------7--7--7--|
A--5--5--5--5--5--5--5--5--5-----------|
E--------------------------------------|

I'm looking down on my body below I lie asleep in the midst of a dream
I snatch a glimpse of the lights eternal rays I see a tunnel I stand amazed
Is this in limbo or heaven or hell? Maybe I'm going down there as well
E--------------------------------------|--------------------------------------|
B-----------------------------7--8--7--|--------------------------------------|
G-----------------------------7--7--7--|--------------------------------------|
D-----------------------------7--7--7--|--------------------------------------|
A--5--5--5--5--5--5--5--5--5-----------|--5--5--5--5--5--5--5--5--5--5--5--5--|
E--------------------------------------|--------------------------------------|

Is it now could it be the angel of death has come for me
at all of the people standing there in front of me
I can't accept that my soul drift forever
E-------------------------------------------------|
B-------------------------------------------------|
G----------------------------------------------7--|
D--5--4---------------5--4---------------5--4--7--|
A--------7--5----7----------7--5----7----------5--|
E-------------------------------------------------|

E--------------------------------------|
B-----------------------------7--8--7--|
G-----------------------------7--7--7--|
D-----------------------------7--7--7--|
A--5--5--5--5--5--5--5--5--5-----------|
E--------------------------------------|

Pre-chorus:
1.I can't believe that really my time has come
2.Into the paths of rightness I'll be led
3.I feel myself floating back down to earth
E---------------------------------------------|
B---------------------------------------------|
G--3-----------------------------------3---3--|
D--3-----------------------------------3---3--|
A--1--1--1--1--1--1--1--1--1--1--1--1--1---1--|
E---------------------------------------------|

I don't feel ready There's so much left undone
is this the place where the living join the dead
so could this be the hour of my rebirth
E---------------------------------------------|
B---------------------------------------------|
G--3-----------------------------------3---3--|
D--3-----------------------------------3---3--|
A--1--1--1--1--1--1--1--1--1--1--1--1--1---1--|
E---------------------------------------------|

and it's my soul and I'm not going to let it get away
I wish I knew this was only just a nightmare
or have I died or will I wake from dreaming
E-----------------------------------------------|---------------------------------|
B-----------------------------------------------|---------------------------------|
G--5-----------------------------------5--5--5--|--------------------5------------|
D--5-----------------------------------5--5--5--|--3--2--------------5------------|
A--3--3--3--3--3--3--3--3--3--3--3--3--3--3--3--|--------5--3--------3------------|
E-----------------------------------------------|---------------------------------|

Chorus:
Heaven can wait                Heaven can...
E---------------------|--------------------|
B--7------------------|--7-8---7-----------|
G--7------------------|--------------7-----|
D--7------------------|--------------------|
A---------------------|--------------------|
E---------------------|--------------------|

...wait                        Heaven can...
E---------------------|--------------------|
B--10-----10----------|--8-----7-----------|
G---------------------|--------------------|
D---------------------|--------------10----|
A---------------------|--------------------|
E---------------------|--------------------|

...wait                        Heaven can...
E---------------------|--------------------|
B--10-----10----------|--10-11-------10----|
G---------------------|--------------------|
D---------------------|--------------------|
A---------------------|--------------------|
E---------------------|--------------------|

...wait 'til another day
E----------------------|--------------------|
B--(12)----------------|--------------------|
G---------(12)---------|--------------------|
D----------------(12)--|--------------------|
A----------------------|--------------------|
E----------------------|--------------------|

Solo-riff
E------------------------------------|-----------------------------------|
B------------------------------------|-----------------------------------|
G------------------------------------|------------------------9-7--------|
D--9----9---7---5---7---9---7---5----|----9---7---5---7---9-------9-7-7--|
A--7--7---7---7---7---7---7---7---7--|--7---7---7---7---7---7---------5--|
E------------------------------------|-----------------------------------|

E------------------------------------|-----------------------------------|
B------------------------------------|-----------------------------------|
G------------------------------------|-------------------------9-----5---|
D--9----9---7---5---7---9---7---5----|----9---7---5---7---9----9-----5---|
A--7--7---7---7---7---7---7---7---7--|--7---7---7---7---7---7--7-----3---|
E------------------------------------|-----------------------------------|

E-----------------------------------|-----------------------------------|
B-----------------------------------|-----------------------------------|
G-----------------------------------|-----------------------------------|
D--5---5---4---5---4---5---4---5-5--|--5---5---4---5---4---5---4---5-2--|
A--3-3---3---3---3---3---3---3---3--|--3-3---3---3---3---3---3---3---0--|
E-----------------------------------|-----------------------------------|

E-----------------------------------|-----------------------------------|
B-----------------------------------|-----------------------------------|
G-----------------------------------|-----------------------------------|
D--2---5---4---5---4---5---4-2------|------5---4---5---4---5---4-4------|
A--0-0---0---0---0---0---0----------|----0---0---0---0---0---0-----5-7--|
E--------------------------------0--|--0--------------------------------|

Riff 3:
   Take                    my     hand                  I'll...
E------------------------------|------------------------------|
B------------------------------|------------------------------|
G--9-------9-------9-------12--|--7-------7-------7-------12--|
D--9-------9-------9-------12--|--7-------7-------7-------12--|
A--7---7-7-7---7-7-7---7-7-10--|--5---5-5-5---5-5-5---5-5-10--|
E------------------------------|------------------------------|

...lead you to the promised land
E-----------------------------|--------------------------|
B-----------------------------|--------------------------|
G--9-------9-------9-------9--|--5---5-5-5----7---7-7-7--|
D--9-------9-------9-------9--|--5---5-5-5----7---7-7-7--|
A--7---7-7-7---7-7-7---7-7-7--|--3---3-3-3----5---5-5-5--|
E-----------------------------|--------------------------|

   Take                    my     hand                  I'll...
E------------------------------|------------------------------|
B------------------------------|------------------------------|
G--9-------9-------9-------12--|--7-------7-------7-------12--|
D--9-------9-------9-------12--|--7-------7-------7-------12--|
A--7---7-7-7---7-7-7---7-7-10--|--5---5-5-5---5-5-5---5-5-10--|
E------------------------------|------------------------------|

   give you immortality
E-----------------------------|--------------------------|
B-----------------------------|--------------------------|
G--9-------9-------9-------9--|--5---5-5-5----7---7-7-7--|
D--9-------9-------9-------9--|--5---5-5-5----7---7-7-7--|
A--7---7-7-7---7-7-7---7-7-7--|--3---3-3-3----5---5-5-5--|
E-----------------------------|--------------------------|

   eternal                       youth                I'll...
E-----------------------------|-----------------------------|
B-----------------------------|-----------------------------|
G--2-------2-------2-------5--|--------------------------5--|
D--2-------2-------2-------5--|--5-------5-------5-------5--|
A--0---0-0-0---0-0-0---0-0-3--|--5-------5-------5-------3--|
E-----------------------------|--3---3-3-3---3-3-3---3-3----|

...take you to the other side                        to...
E-----------------------------|--------------------------|
B-----------------------------|--------------------------|
G--2-------2-------2-------2--|--------------------------|
D--2-------2-------2-------2--|--3---3-3-3----5---5-5-5--|
A--0---0-0-0---0-0-0---0-0-0--|--3---3-3-3----5---5-5-5--|
E-----------------------------|--1---1-1-1----3---3-3-3--|

...see                   the     truth                 the...
E-----------------------------|-----------------------------|
B-----------------------------|-----------------------------|
G--2-------2-------2-------5--|--------------------------5--|
D--2-------2-------2-------5--|--5-------5-------5-------5--|
A--0---0-0-0---0-0-0---0-0-3--|--5-------5-------5-------3--|
E-----------------------------|--3---3-3-3---3-3-3---3-3----|

...path for you is decided
E-----------------------------|--------------------------|
B-----------------------------|--------------------------|
G--2-------2-------2-------2--|--------------------------|
D--2-------2-------2-------2--|--3---3-3-3----5---5-5-5--|
A--0---0-0-0---0-0-0---0-0-0--|--3---3-3-3----5---5-5-5--|
E-----------------------------|--1---1-1-1----3---3-3-3--|

Bridge before riff 4:
E--------------------------------|--------------------------------|
B--------------------------------|--------------------------------|
G--7-------7-------7-------7--5--|--7-------7-------7-------7--5--|
D--7-------7-------7-------7--5--|--7-------7-------7-------7--5--|
A--5---5-5-5---5-5-5---5-5-5-----|--5---5-5-5---5-5-5---5-5-5-----|
E--------------------------------|--------------------------------|

Riff 4:
   OH      OH      OH               OH  OH  OH  OH  OH       OH  OH
E--------------------------------|--------------------------------|
B--------------------------------|--------------------------------|
G--7-------7-------7-------7--5--|--7-------7-------7-------7--5--|
D--7-------7-------7-------7--5--|--7-------7-------7-------7--5--|
A--5---5-5-5---5-5-5---5-5-5-----|--5---5-5-5---5-5-5---5-5-5-----|
E--------------------------------|--------------------------------|

   OH      OH      OH               OH  OH  OH  OH  OH
E--------------------------------|----------------------|
B--------------------------------|----------------------|
G--7-------7-------7-------7--5--|--7-------7--5--5-----|
D--7-------7-------7-------7--5--|--7-------7--5--5-----|
A--5---5-5-5---5-5-5---5-5-5-----|--5---5-5-5--3--3-----|
E--------------------------------|----------------------|

Riff 5:
   OH      OH      OH            OH  OH  OH  OH  OH    OH  OH
E-----------------------------|-----------------------------|
B-----------------------------|-----------------------------|
G--7-------7-------7-------7--|--3-------3-------3-------3--|
D--7-------7-------7-------7--|--3-------3-------3-------3--|
A--5---5-5-5---5-5-5---5-5-5--|--1---1-1-1---1-1-1---1-1-1--|
E-----------------------------|-----------------------------|

   OH      OH      OH            OH  OH  OH  OH  OH
E-----------------------------|---------------------------|
B-----------------------------|---------------------------|
G--5-------5-------5-------5--|--7-------7-------7-----5--|
D--5-------5-------5-------5--|--7-------7-------7-----5--|
A--3---3-3-3---3-3-3---3-3-3--|--5---5-5-5---5-5-5--0--3--|
E-----------------------------|---------------------------|

Riff 6:
E----------------|----------------|
B----------------|----------------|
G----------------|----------------|
D--3--3-2---2----|--3--3-2---2----|
A---------5---3--|---------5---3--|
E----------------|----------------|

E----------------|----------------|
B----------------|----------------|
G----------------|----------------|
D--3--3-2---2----|--3--3-2---2----|
A---------5---3--|---------5---3--|
E----------------|----------------|

Outro:
E-----------------|---------------------------------------|
B-----------------|---------------------------------------|
G-----------------|---------------------------7-----------|
D--5-7-5-3-----3--|--2-2-2-3---2--------------7-----------|
A----------5------|----------------3-5--------5-----------|
E-----------------|---------------------------------------|

5.THE LONELINESS OF THE LONG DISTANCE RUNNER

Intro Riff
e|-------------------------------------------|
B|-------7-8-10-8-7-8---------7-8-7h8p7------|
G|:-9--9--------------7--7--9-----------9-7-:|
D|-------------------------------------------|
A|-------------------------------------------|
E|-------------------------------------------|

e|------------------------------------------------------------------|
B|----------10-11-13-11-10-11------------10-11-10h11p10-------------|
G|:-9/12-12-------------------10--10--12----------------12-10------:|
D|------------------------------------------------------------------|
A|------------------------------------------------------------------|
E|------------------------------------------------------------------|
Repeat both lines again.  Slide first times only.

Verse
e|--------------------------------------------------------------|
B|--------------------------------------------------------------|
G|:------------------------------------------7-5---------------:|
D|-7-------------9-------------10----------------8-7-5----------|
A|-5-555-555-555-7-555-555-555-8-555-555-555-----------8-7------|
E|---------------------------------------------------------8----|
                                            first ending
                                  pre chorus
e|------------------------------------------------------------------|
B|----------------------------------------7---------------9---------|
G|--7-5-----------------------7-4--7-6--4-4--7-4-6--9-8--6-6--9-6-\-|
D|------8-7-5-----------5-7-8---2--5-4--2----5-2-4--7-6--4----7-4-\-|
A|------------8-7-5-7-8---------------------------------------------|
E|------------------------------------------------------------------|
   second ending                 |:          :|1|2|           :|1|2|
1st time end on b, second time c# then first time d#, second time
slide the E down.  Now go back and play the verse and prechours again.
Chorus
e|--------------------------------------------------------------------|
B|--------------------------------------------------------------------|
G|:---7----7----7----7-7\-----3----3-----3p2-0------5----5----5----5--|
D|----7----7----7----7-7\-----3----3---3-------3----5----5----5----5--|
A|-55---55---55---55-------11---11---1-----------33---33---33---33----|
E|--------------------------------------------------------------------|
                                    ----------------------------------|
                   one gtr continues with chord pattern

                                 Riff 1
e|-----------------------------|------------------------------------|
B|-----------------------------|------------------------------------|
G|-5\--------------------------|--10--------9-----------------------|
D|-5\----3----3----3----3-3\--:|-----12-------10--------------------|
A|-------3----3----3----3-3\---|--------12-------10-----------------|
E|----11---11---11---11--------|------------------------------------|
On repeat of chorus, one guitar plays the chords agian, the other
repeats fill 1.

2guitar harmony
e|------------7-----------------------------7--------------10-7-----|
B|-7h8-7-8-10---10-8-7-----------7h8-7-8-10---10-8-7-8-7-8----------|
G|---------------------9-7-9-7h9------------------------------------|
D|------------------------------------------------------------------|
A|------------------------------------------------------------------|
E|------------------------------------------------------------------|

e|-------------10---------------------------------------------------|
B|-10h12-10-12----12-10-12-10---------------------------------------|
G|----------------------------12-10-12-10h12------------------------|
D|------------------------------------------------------------------|
A|------------------------------------------------------------------|
E|------------------------------------------------------------------|
  Play 3 times                              |

e|-------------10----------------------10----------|
B|-10h12-10-12----12-10-12-10-12-10-12----12-------|
G|-------------------------------------------------|
D|-------------------------------------------------|
A|-------------------------------------------------|
E|-------------------------------------------------|

e|-----------------15----14-15--------------------------------------|
B|--17-15-17-14-15----17-------15----14-----------------------------|
G|--17----------------------------16----16--------------------------|
D|------------------------------------------------------------------|
A|------------------------------------------------------------------|
E|------------------------------------------------------------------|

e|-------------10---------------------------------------------------|
B|-10h12-10-12----12-10-12-10-12-10h11p10---------------------------|
G|----------------------------------------12-11\\\\\\\\9~~~~~~~-----|
D|------------------------------------------------------------------|
A|------------------------------------------------------------------|
E|------------------------------------------------------------------|
All with a doublet feel.

6.STRANGER IN A STRANGE LAND

Riff 1:
E---------------------------|------------------------|
B---------------------------|------------------------|
G------4--3-----2-----------|------4--3-----2--------|
D------2--2-----2-----4--5--|------2--2-----2-----5--|
A---------------------4--5--|---------------------5--|
E--0---------0-----0--------|--0---------0-----0-----|

On the fourth time of riff 1:
E------------------|
B------------------|
G------4--3--2-----|
D------2--2--2-----|
A------------------|
E--0---------------|

Riff 2:
E-----------------------|-----------------------|
B-----------------------|-----------------------|
G----------------0---0--|----------------0---0--|
D------------0-------0--|------------0-------0--|
A--0--2--3-----------2--|--0--2--3-----------2--|
E-----------------------|-----------------------|

Verse:
1.Was many years ago that I left home and came this way
2.Night and day I scan horizon sea and sky
3.One hundred years have gone and men again they came that way
E-------------------------|--------------------------|
B--------7----------------|--(7)---------------------|
G--------7----------------|--(7)---------------------|
D--------7----------------|--(7)---------------------|
A--------7----------------|--(7)---------------------|
E--0----------------------|--(0)---------------------|

I was a young man full of hopes and dreams
My spirit wanders endlessly
to find the answer to the mystery
E-------------------------|--------------------------|
B--(7)--------------------|--(7)---------------------|
G--(7)--------------------|--(7)---------------------|
D--(7)--------------------|--(7)---------------------|
A--(7)--------------------|--(7)----------------5-7--|
E--(0)--------------------|--(0)---------------------|

But now it seems to me that all is lost and nothing gained
Until the day will dawn and friends from home discover why
They found his body lying where it fell that day
E-------------------------|--------------------------|
B--------7----------------|--(7)---------------------|
G--------7----------------|--(7)---------------------|
D--------7----------------|--(7)---------------------|
A--------7----------------|--(7)---------------------|
E--0----------------------|--(0)---------------------|

sometimes things ain't what they seem
hear me calling rescue me
preserved in time for all to see
E-------------------------|--------------7--5--------|
B--(7)--------------------|--(7)---------------7-----|
G--(7)--------------------|--(7)------------------7--|
D--(7)--------------------|--(7)---------------------|
A--(7)--------------------|--(7)---------------------|
E--(0)--------------------|--(0)---------------------|

Riff 3:
1.No brave new world       No brave new world
2.Set me free              Set me free
3.No brave new world       No brave new world
E-----------------------|-----------------------|
B-----------------------|-----------------------|
G----------------0---0--|----------------0---0--|
D------------0-------0--|------------0-------0--|
A--0--2--3-----------2--|--0--2--3-----------2--|
E-----------------------|-----------------------|

E-----------------------------|----------------------|
B-----------------------------|----------------------|
G-----------------------------|----------------------|
D-----------------------------|----------------------|
A--------5---0-2--------------|--------5---0-2-------|
E--0-3-5---------0---0-0-5-7--|--0-3-5---------0-----|

No brave new world         No brave new world
Lost in this place         and leave no trace
Lost in this place         and leave no trace
E-----------------------|-----------------------|
B-----------------------|-----------------------|
G----------------0---0--|----------------0---0--|
D------------0-------0--|------------0-------0--|
A--0--2--3-----------2--|--0--2--3-----------2--|
E-----------------------|-----------------------|

Play this only on the first of riff 3:
E-----------------------------|----------------------|
B-----------------------------|----------------------|
G-----------------------------|----------------------|
D-----------------------------|----------------------|
A--------5---0-2--------------|--------5---0-2-------|
E--0-3-5---------0---0-0-5-7--|--0-3-5---------0-----|

Riff 4:
E--------------------------|--------------------------|
B--------------------------|--------------------------|
G--------------------------|--------------------------|
D--4--4--4--4--4--4--4--4--|--5--5--5--5--7--7--7--7--|
A--2--2--2--2--2--2--2--2--|--3--3--3--3--5--5--5--5--|
E--------------------------|--------------------------|

Riff 5:
      What became of the men that started
E--------------------------|--------------------------|
B--------------------------|--------------------------|
G--------------------------|--------------------------|
D--2--2--2--2--4--4--4--4--|--5--5--5--5--7--7--7--7--|
A--0--0--0--0--2--2--2--2--|--3--3--3--3--5--5--5--5--|
E--------------------------|--------------------------|

      all are gone and their souls departed
E---------------------------|----------------------------------|
B---------------------------|----------------------------------|
G---------------------------|----------------------------------|
D--9--9--9--9--12-12-12-12--|--12--12--12--12--14--14--14--14--|
A--7--7--7--7--9--9--9--9---|--10--10--10--10--12--12--12--12--|
E---------------------------|----------------------------------|

      left me here in this place so all...
E--------------------------|----------------------------|
B--------------------------|----------------------------|
G--------------------------|----------------------------|
D--5--5--5--5--7--7--7--7--|--9--9--9--9--12-12-12--14--|
A--3--3--3--3--5--5--5--5--|--7--7--7--7--9--9--10--12--|
E--------------------------|----------------------------|

...alone
E--------------------------|--------------------------|
B--------------------------|--------------------------|
G--------------------------|--------------------------|
D--4--4--4--4--4--4--4--4--|--5--5--5--5--7--7--7--7--|
A--2--2--2--2--2--2--2--2--|--3--3--3--3--5--5--5--5--|
E--------------------------|--------------------------|

Solo-riff:
E---------------------------|--------------------------|
B---------------------------|--------------------------|
G---------------------------|--------------------------|
D--2------------------------|--(2)---------------------|
A--2------------------------|--(2)---------------------|
E--0------------------------|--(0)---------------------|

E---------------------------|--------------------------|
B---------------------------|--------------------------|
G--7------------------------|--(7)---------------------|
D--7------------------------|--(7)---------------------|
A--5------------------------|--(5)---------------------|
E---------------------------|--------------------------|

E---------------------------|--------------------------|
B---------------------------|--------------------------|
G--5------------------------|--(5)---------------------|
D--5------------------------|--(5)---------------------|
A--3------------------------|--(3)---------------------|
E---------------------------|--------------------------|

E---------------------------|--------------------------|
B---------------------------|--------------------------|
G--7------------------------|--(7)---------------------|
D--7------------------------|--(7)---------------------|
A--5------------------------|--(5)---------------------|
E---------------------------|--------------------------|

7.DEJA VU

Riff 1:
E-----------------------------|----------------------------|
B--------------0--1--3--1-----|-------------0--1--3--1-----|
G-----------2--2--2--2--2-----|----------2--2--2--2--2-----|
D--------2--2--2--2--2--2-----|-----2----2--2--2--2--2-----|
A-----0-----------------------|----------------------------|
E--0-----------------------0--|--1----------------------1--|

E-------------------------|----------------------------|
B--------------3----------|-----------0--1--3----1--0--|
G-----------0--2----0--0--|--------2--2--2--2----2--2--|
D--------2-----0----2--0--|-----2-----2--2--2----2--2--|
A-----2-------------3--2--|--0-------------------------|
E--0----------------------|----------------------------|

E-----------------------------|----------------------------|
B--------------0--1--3--1-----|-------------0--1--3--1-----|
G-----------2--2--2--2--2-----|----------2--2--2--2--2-----|
D--------2--2--2--2--2--2-----|-----2----2--2--2--2--2-----|
A-----0-----------------------|----------------------------|
E--0-----------------------0--|--1----------------------1--|

E-------------------------|-------------------------------------------------|
B--------------3----------|-----------0--1--3----3--3--1--1---1--------0----|
G-----------0--2----0--0--|--------2--2--2--2----2--2--2--2---2--------2----|
D--------2-----0----2--0--|-----2-----2--2--2----2--2--2--2---2--------2----|
A-----2-------------3--2--|--0-----------------------------------------0----|
E--0----------------------|-------------------------------------------------|

Riff 2:
E-------------8-9-11-9-8--------------|---------8-----------|
B--9-----9-11------------9---8-(9)----|--8-9-11---11-9-8----|
G-------------------------------------|---------------------|
D-------------------------------------|---------------------|
A-------------------------------------|---------------------|
E-------------------------------------|---------------------|

E-------------8-9-11-9-8--------------|---------8-----------|
B--9-----9-11------------9---8-(9)----|--8-9-11---11-9-8----|
G-------------------------------------|---------------------|
D-------------------------------------|---------------------|
A-------------------------------------|---------------------|
E-------------------------------------|---------------------|

E-------------8-9-11-9-8--------------|---------8-----------|
B--9-----9-11------------9---8-(9)----|--8-9-11---11-9-8----|
G-------------------------------------|---------------------|
D-------------------------------------|---------------------|
A-------------------------------------|---------------------|
E-------------------------------------|---------------------|

E-------------8-9-11-9-8--------------|
B--9-----9-11------------9---8-(9)----|
G-------------------------------------|
D-------------------------------------|
A-------------------------------------|
E-------------------------------------|

Riff 3:
E-------------------------------------------|--------------------------------------|
B-----13-9----11-9---------13-9----11-9-----|-----13-9----11-9---9-8-----11-9-8----|
G--10------10------10---10------10------10--|--10------10-----------10---------10--|
D-------------------------------------------|--------------------------------------|
A-------------------------------------------|--------------------------------------|
E-------------------------------------------|--------------------------------------|

Verse:
1.When you see familiar faces but you don't remember where they're from
2.Ever had a conversation that you realize you've had before
E----------------------------------------------------------------------------------|
B----------------------------------------------------------------------------------|
G--10--10-----10---10--10--10-----10---10--10--10-----10---10--10--10-----10---10--|
D--10--10-----10---10--10--10-----10---10--10--10-----10---10--10--10-----10---10--|
A--8---8--8-8-8--8-8---8---8--8-8-8--8-8---8---8--8-8-8--8-8---8---8--8-8-8--8-8---|
E----------------------------------------------------------------------------------|

                     Could you be wrong
                     Isn't it strange
E---------------------------------------------------------------------------------|
B---------------------------------------------------------------------------------|
G--8---8------8----8---8---8------8----8---8---8------8----8---8---8------8----8--|
D--8---8------8----8---8---8------8----8---8---8------8----8---8---8------8----8--|
A--6---6--6-6-6--6-6---6---6--6-6-6--6-6---6---6--6-6-6--6-6---6---6--6-6-6--6-6--|
E---------------------------------------------------------------------------------|

When you've been particular places that you know you never been before
Have you ever talked to someone and you feel you know what's coming next
E----------------------------------------------------------------------------------|
B----------------------------------------------------------------------------------|
G--10--10-----10---10--10--10-----10---10--10--10-----10---10--10--10-----10---10--|
D--10--10-----10---10--10--10-----10---10--10--10-----10---10--10--10-----10---10--|
A--8---8--8-8-8--8-8---8---8--8-8-8--8-8---8---8--8-8-8--8-8---8---8--8-8-8--8-8---|
E----------------------------------------------------------------------------------|

                     Can you be sure
                     It feels prearranged
E---------------------------------------------------------------------------------|
B---------------------------------------------------------------------------------|
G--8---8------8----8---8---8------8----8---8---8------8----8---8---8------8----8--|
D--8---8------8----8---8---8------8----8---8---8------8----8---8---8------8----8--|
A--6---6--6-6-6--6-6---6---6--6-6-6--6-6---6---6--6-6-6--6-6---6---6--6-6-6--6-6--|
E---------------------------------------------------------------------------------|

Cause you know this has happened before
Cause you know that you've heard it before
E----------------------------------------------------------------------------------|
B----------------------------------------------------------------------------------|
G--8---8------8----8---8---8------8----8---10--10-----10---10--10--10-----10---10--|
D--8---8------8----8---8---8------8----8---10--10-----10---10--10--10-----10---10--|
A--4---4--4-4-4--4-4---6---6--6-6-6--6-6---8---8--8-8-8--8-8---8---8--8-8-8--8-8---|
E----------------------------------------------------------------------------------|

And you know that this moment in time is for real
And you know that this moment in time is surreal
E---------------------------------------------------------------------------------|
B---------------------------------------------------------------------------------|
G--8---8------8----8---8---8------8----8---10--10-----10---10--8---8------8----8--|
D--8---8------8----8---8---8------8----8---10--10-----10---10--8---8------8----8--|
A--4---4--4-4-4--4-4---6---6--6-6-6--6-6---8---8--8-8-8--8-8---6---6--6-6-6--6-6--|
E---------------------------------------------------------------------------------|

And you know when you feel          Deja...
Cause you know when you feel        Deja...
E-----------------------------------------|
B-----------------------------------------|
G--8---8------8----8---8---8------8----8--|
D--8---8------8----8---8---8------8----8--|
A--4---4--4-4-4--4-4---6---6--6-6-6--6-6--|
E-----------------------------------------|

Riff 4:
...vu
...vu
E-------------------------------------------|
B-----13-9----11-9---------13-9----11-9-----|
G--10------10------10---10------10------10--|
D-------------------------------------------|
A-------------------------------------------|
E-------------------------------------------|

E-------------------------------------------|
B-----13-9----11-9---------13-9----11-9-----|
G--10------10------10---10------10------10--|
D-------------------------------------------|
A-------------------------------------------|
E-------------------------------------------|

Chorus:
Feel like I've been here before Feel like I've been here before
E----------------------------|------------------------------|
B----------------------------|------------------------------|
G--10---------------8--------|--10----------8-----8-8-8-10--|
D--10---------------8--------|--10----------8-----8-8-8-10--|
A--8----------------6--------|--8-----8-8-8-6-----6-6-6-8---|
E----------------------------|------------------------------|

Feel like I've been here before Feel like I've been here before
E----------------------------|------------------------------|
B----------------------------|------------------------------|
G--10---------------8--------|--10-------6--------8---------|
D--10---------------8--------|--10-------6--------8---------|
A--8----------------6--------|--8--------4--------6---------|
E----------------------------|------------------------------|

Riff 5:
E--------------------------------8----8-9--|--8---------------------------|
B---------------------8-9-8-9-11---11------|----11-9-8-9-8----------------|
G-----------8-10-8-10----------------------|---------------10-8-----------|
D--11-10-11--------------------------------|--------------------10--------|
A------------------------------------------|------------------------------|
E------------------------------------------|------------------------------|

Riff 6:
E---------------------------------|---------------------------------|
B---------------------------------|---------------------------------|
G--6-6-6-6---6---6-6---6---6-6-8--|--6-6-6-6---6---6-6---6---6-6-8--|
D--6-6-6-6---6---6-6---6---6-6-8--|--6-6-6-6---6---6-6---6---6-6-8--|
A---------------------------------|---------------------------------|
E---------------------------------|---------------------------------|

E--------------------------------------------|
B--------------------------------------------|
G--10-10-10-10---10---10-10---10---10-10-13--|
D--10-10-10-10---10---10-10---10---10-10-13--|
A--------------------------------------------|
E--------------------------------------------|

E--------------------------------------------|
B--------------------------------------------|
G--10-10-10-10---10---10-10---10---10-10-13--|
D--10-10-10-10---10---10-10---10---10-10-13--|
A--------------------------------------------|
E--------------------------------------------|

E---------------------------------|---------------------------------|
B---------------------------------|---------------------------------|
G--6-6-6-6---6---6-6---6---6-6-8--|--6-6-6-6---6---6-6---6---6-6-8--|
D--6-6-6-6---6---6-6---6---6-6-8--|--6-6-6-6---6---6-6---6---6-6-8--|
A---------------------------------|---------------------------------|
E---------------------------------|---------------------------------|

E--------------------------------------|
B--9--9--9--9----8---8-8---8---8-9--8--|
G--8--8--8--8----8---8-8---8---8-8--8--|
D--10-10-10-10---8---8-8---8---8-10-8--|
A--------------------------------------|
E--------------------------------------|

E---------------------------------------|
B--9--9--9--9----8---9--8---8---8----8--|
G--8--8--8--8----8---8--8---8---8-10-8--|
D--10-10-10-10---8---10-8---8---8-8--8--|
A---------------------------------------|
E---------------------------------------|

Riff 7:
E-----------------------------------|-----------------------------------|
B--9-8--------------9-8-----9-8-----|--9-8--------------9-8-----9-8-----|
G----------8-10-----------------10--|----------8-10-----------------10--|
D-----------------------------------|-----------------------------------|
A-----------------------------------|-----------------------------------|
E-----------------------------------|-----------------------------------|

E-----------------------------------|-----------------------------------|
B--9-8--------------9-8-----9-8-----|--9-8--------------9-8-----9-8-----|
G----------8-10-----------------10--|----------8-10-----------------10--|
D-----------------------------------|-----------------------------------|
A-----------------------------------|-----------------------------------|
E-----------------------------------|-----------------------------------|

E----------------------------------|----------------------------------|
B--9-8--------------9-8-----9-8----|--9-8--------------9-8-----9-8----|
G----------8-10-----------------8--|----------8-10-----------------8--|
D----------------------------------|----------------------------------|
A----------------------------------|----------------------------------|
E----------------------------------|----------------------------------|

E----------------------------------|----------------------------------|
B--9-8--------------9-8-----9-8----|--9-8--------------9-8-----9-8----|
G----------8-10-----------------8--|----------8-10-----------------8--|
D----------------------------------|----------------------------------|
A----------------------------------|----------------------------------|
E----------------------------------|----------------------------------|

E----------------------------------|----------------------------------|
B--9-8--------------9-8-----9-8----|--9-8--------------9-8-----9-8----|
G----------8-10-----------------8--|----------8-10-----------------8--|
D----------------------------------|----------------------------------|
A----------------------------------|----------------------------------|
E----------------------------------|----------------------------------|

E----------------------------------|-----------------------------------|
B--9-8--------------9-8-----9-8----|--9-8--------------9-8-----9-8-----|
G----------8-10-----------------8--|----------8-10-----------------10--|
D----------------------------------|-----------------------------------|
A----------------------------------|-----------------------------------|
E----------------------------------|-----------------------------------|

8.ALEXANDER THE GREAT

intro (clean sound)

---------------------------12-14---15-14---15-14---15-14--12----12---------|
------------10-12---13-15-------------------------------------15----15-----|
-9--11-12------------------------------------------------------------------|
---------------------------------------------------------------------------|
---------------------------------------------------------------------------|
---------------------------------------------------------------------------|

-----------------------------------------------------------------------|
-12h15p12h15----12--15p12---------12-----------------------------------|
-----------------------------14--14----14-12---11-12---14-12--11-------|
-----------------------------------------------------------------------|
-----------------------------------------------------------------------|
-----------------------------------------------------------------------|

distortion
-----------------------------------------------------------------------|
------7-8-10-8-7---------7-8-10-8-7-----10b----7-8-10-8-7--------------|
-9~-9------------7----9~-------------7-9------9------------7-9/12/9~---|
-----------------------------------------------------------------------|
-----------------------------------------------------------------------|
-----------------------------------------------------------------------|

-----------------------------------------------------------------------|
------7-8-10-8-7---------7-8-10-8-7-----10b----7-8-10-8-7--------------|
-9~-9------------7----9~-------------7-9------9------------7-9~--------|
-----------------------------------------------------------------------|
-----------------------------------------------------------------------|
-----------------------------------------------------------------------|

fast
-----------------------------------------12----------------------------|
-----7-8-10-8-7---------7-8-10-8-7-----------7-8-10-8-7----------------|
-9-9------------7-9---9-------------7-9-----9------------7-9-7---------|
-----------------------------------------------------------------10-9--|
-----------------------------------------------------------------------|
-----------------------------------------------------------------------|

verse
Near to the east...	in an ancient land...
King Darius the third....	Scythians fell.....

---------------------------------------------------------------------------|
---------------------------------------------------------------------------|
----------------------9-7------------9-9-9--7-7----------------------------|
----------------------9-7------------9-9-9--7-7---7-5-5---5-5-5---5-5-5----|
----------------------7-7------------7-7-7--5-5---5-3-3---3-3-3---3-3-3----|
-0-0-0-0--0-0-0--0-0-------0--0-0-0----------------------------------------|

                called Macedonia...
								river Jaxartes.....
----------------------------------------|
----------------------------------------|
----------------------------------------|
-5-5-5--5-5-4---------------------------|repeat
-3-3-3--3-3-2---------------------------|
-----------------5-3-2~-----------------|

At the age of nineteen...    	All of Asia minor....
By the Tigris river...	Battle of Arbela....

-----------------------------------------------------------------------------|
-----------------------------------------------------------------------------|
----------------------------------9-11-12-11---------------------------------|
----9-9-9--------------------------------------5-5-5--5-5-5--5-5-5--5-5-4----|
----7-7-7-------------------------7--9-10--9--3-3-3--3-3-3--3-3-3--3-3-2-----|
-0--0-0-0-0--0-0-0--0-0-0--0-0-0---------------------------------------------|

----------------------------------------|
----------------------------------------|
----------------------------------------|
----------------------------------------|
----------------------------------------|
-5-3-2~---------------------------------|

By the Aegean sea....	4 B.C.  he utterly....
Entering Babylon....	treasures he found. took Persepolis
-----------------------------------------------------------------------------|
-----------------------------------------------------------------------------|
----------------------------------7-7-7-7-7-7--------------------------------|
----9-9-9-------------------------9-9-9-9-9-9--5-5-5--5-5-5--5-5-5--5-5-4----|
----7-7-7---------------------------------------3-3-3--3-3-3--3-3-3--3-3-2---|
-0--0-0-0-0--0-0-0--0-0-0--0-0-0---------------------------------------------|

----------------------------------------|
----------------------------------------|
----------------------------------------|
----------------------------------------|
----------------------------------------|
-5-3-2~---------------------------------|

Chorus

----------------------------------------|
----------------------------------------|
-9----7----2----5---7----9--------------|
-9----7----2----5---7----9-----repeat---|
-7----5----0----3---5----7--------------|
----------------------------------------|

Interlude

-------------------------------------------------|
-------------------------------------------------|
-------------------------------------------------|
-------7-9--10-9-7h9p7----------7-9-7----7-------|repeat
-10-10-----------------10-10-10-------10---9~----|
-------------------------------------------------|

----------------------------------------|
----------------------------------------|
---4-5-4-7-5-4h5p4---------2------------|
-7------------------7-3-3-5--5-3-5-2----|-repeat
----------------------------------------|
----------------------------------------|

----------------------------------------|
----------------------------------------|
----------------------------------------|
----------------------------------------|
-2--2--2-2-2-2-2--2-2--2-2-2-2--2-2-2---|continue pattern
----------------------------------------|

------------8------------------8---------11~~---|
-11~~-9h11---11-9h11~~--9-11---11-9-11----------|
------------------------------------------------|
------------------------------------------------|
------------------------------------------------|
------------------------------------------------|

-----------------------------------|
-----------------------------------|
-8p6---10p8----12p10----14p12------|
-----8------10--------12-----------|
-----------------------------------|
-----------------------------------|

----------------------------------------------------------------------|
----------------------------------------------------------------------|
---4-3~------4-3~---3---------------4-3~--3---------------------------|
-------------------5---5-4-1-2~----------5--5-4-2-5-4-2---5--7--------|
---------2-----------------------2-----------------------2--3--5------|
-0-------2-0-----------------------0----------------------------------|

----------------------------------------|
----------------------------------------|
----------------------------------------|
----------------------------------------|
----------------------------------------|
-0-0-0-0-0-0---0-0-0-0-0-0--------------|continue pattern

interlude 2
----------------------------------------------------------------------------|
---4-5-7-5-4-----------5-6-5---8-10-6-5-------------------------------------|
-7-----------5/7---5-7-------7-----------7-5/4------------------------------|
------------------------------------------------7-53/5-5-3-5-3~~-3h5-3------|
-------------------------------------------------------------------------3--|
----------------------------------------------------------------------------|

Rhythym during solo

Am    C    G      Bb5    F5

Second section:

E5    C5    G5    D5    C5     D5   E5

Last verse:
A phrygian king.....
---------------------------------------|
---------------------------------------|
----------------------------9--7-------|
----------------------------9--7-------|
----------------------------7--7-------|
-0---0-0-0---0-0-0---0-0-0-------------|

Alexander cut the Gordian knot....
---------------------------------------|
---------------------------------------|
----------------------------9--7-------|
----------------------------9--7-------|
----------------------------7--7-------|
-0---0-0-0---0-0-0---0-0-0-------------|

and legend says that...
----------------------------------------|
----------------------------------------|
------------------------------------4---|
-7---7-7-7---7-7-7--7-7-7--7-7-7--4-----|
-5---5-5-5---5-5-5--5-5-5--5-5-5--2-----|
----------------------------------------|
he would become the master...
--------------------------------------------------|
--------------------------------------------------|
--------------------------------------------------|
-4---4-4-4---4-4-4---4-4-5---7--------------------|
-2---2-2-2---2-2-2---2-2-3---5--------------------|
--------------------------------------------------|

Marching on....
------------------------------------------------|
------------------------------------------------|
-9--12--7---9-12--7-----------------------------|
-9--12--7---9-12--7-----------------------------|
-7--10--5---7-10--5-----------------------------|
------------------------------------------------|

battle weary marching....

---------------------------------------|
---------------------------------------|
----------------------------9--7-------|
----------------------------9--7-------|
----------------------------7--7-------|
-0---0-0-0---0-0-0---0-0-0-------------|


----------------------------------------|
----------------------------------------|
------------------------------------4---|
-7---7-7-7---7-7-7--7-7-7--7-7-7--4-----|
-5---5-5-5---5-5-5--5-5-5--5-5-5--2-----|
----------------------------------------|

---------------------------------------|
---------------------------------------|
---------------------------------------|
-4---4-4-4---4-4-4---4-4-5---7---------|
-2---2-2-2---2-2-2---2-2-3---5---------|
---------------------------------------|

died of fever in Babylon
------------------------------------------|
------------------------------------------|
-2---5---7--------------------------------|
-2---5---7--------------------------------|
-0---3---5--------------------------------|
------------------------------------------|

outro repeat fast intro

------------------------------------------------|
------------------------------------------------|
-(9)---9-7--------------------------------------|
-----------10-9~~--9-7-------------------9------|
------------------------10--9--9-10--9~~-7------|
------------------------------------------0-----|
comments
print report bad tab
I want to post or [tab]
guest
You may want to rate the tab now too:
select rating
Please do not post tabs as comments. Select "correction" instead!